  0
SECTION
  2
HEADER
  9
$ACADVER
  1
AC1015
  9
$ACADMAINTVER
 70
    20
  9
$DWGCODEPAGE
  3
ANSI_932
  9
$INSBASE
 10
0.0
 20
0.0
 30
0.0
  9
$EXTMIN
 10
-0.6081876436001039
 20
-0.1425016466291709
 30
-0.0000000000112498
  9
$EXTMAX
 10
10775.3267994797
 20
7695.612596247454
 30
0.0000000000002956
  9
$LIMMIN
 10
-297.0
 20
-210.0
  9
$LIMMAX
 10
297.0
 20
210.0
  9
$ORTHOMODE
 70
     1
  9
$REGENMODE
 70
     1
  9
$FILLMODE
 70
     1
  9
$QTEXTMODE
 70
     0
  9
$MIRRTEXT
 70
     1
  9
$LTSCALE
 40
100.0
  9
$ATTMODE
 70
     1
  9
$TEXTSIZE
 40
1.0
  9
$TRACEWID
 40
0.05
  9
$TEXTSTYLE
  7
BIGFONT
  9
$CLAYER
  8
0
  9
$CELTYPE
  6
CONTINUOUS
  9
$CECOLOR
 62
   256
  9
$CELTSCALE
 40
1.0
  9
$DISPSILH
 70
     0
  9
$DIMSCALE
 40
1.0
  9
$DIMASZ
 40
0.18
  9
$DIMEXO
 40
0.0625
  9
$DIMDLI
 40
0.38
  9
$DIMRND
 40
0.0
  9
$DIMDLE
 40
0.0
  9
$DIMEXE
 40
0.18
  9
$DIMTP
 40
0.0
  9
$DIMTM
 40
0.0
  9
$DIMTXT
 40
0.18
  9
$DIMCEN
 40
0.09
  9
$DIMTSZ
 40
0.0
  9
$DIMTOL
 70
     0
  9
$DIMLIM
 70
     0
  9
$DIMTIH
 70
     1
  9
$DIMTOH
 70
     1
  9
$DIMSE1
 70
     0
  9
$DIMSE2
 70
     0
  9
$DIMTAD
 70
     0
  9
$DIMZIN
 70
     0
  9
$DIMBLK
  1

  9
$DIMASO
 70
     1
  9
$DIMSHO
 70
     1
  9
$DIMPOST
  1

  9
$DIMAPOST
  1

  9
$DIMALT
 70
     0
  9
$DIMALTD
 70
     2
  9
$DIMALTF
 40
25.4
  9
$DIMLFAC
 40
1.0
  9
$DIMTOFL
 70
     0
  9
$DIMTVP
 40
0.0
  9
$DIMTIX
 70
     0
  9
$DIMSOXD
 70
     0
  9
$DIMSAH
 70
     0
  9
$DIMBLK1
  1

  9
$DIMBLK2
  1

  9
$DIMSTYLE
  2
STANDARD
  9
$DIMCLRD
 70
     0
  9
$DIMCLRE
 70
     0
  9
$DIMCLRT
 70
     0
  9
$DIMTFAC
 40
1.0
  9
$DIMGAP
 40
0.09
  9
$DIMJUST
 70
     0
  9
$DIMSD1
 70
     0
  9
$DIMSD2
 70
     0
  9
$DIMTOLJ
 70
     1
  9
$DIMTZIN
 70
     0
  9
$DIMALTZ
 70
     0
  9
$DIMALTTZ
 70
     0
  9
$DIMUPT
 70
     0
  9
$DIMDEC
 70
     4
  9
$DIMTDEC
 70
     4
  9
$DIMALTU
 70
     2
  9
$DIMALTTD
 70
     2
  9
$DIMTXSTY
  7
STANDARD
  9
$DIMAUNIT
 70
     0
  9
$DIMADEC
 70
     0
  9
$DIMALTRND
 40
0.0
  9
$DIMAZIN
 70
     0
  9
$DIMDSEP
 70
    46
  9
$DIMATFIT
 70
     3
  9
$DIMFRAC
 70
     0
  9
$DIMLDRBLK
  1

  9
$DIMLUNIT
 70
     2
  9
$DIMLWD
 70
    -2
  9
$DIMLWE
 70
    -2
  9
$DIMTMOVE
 70
     0
  9
$LUNITS
 70
     2
  9
$LUPREC
 70
     4
  9
$SKETCHINC
 40
0.1
  9
$FILLETRAD
 40
0.0
  9
$AUNITS
 70
     0
  9
$AUPREC
 70
     0
  9
$MENU
  1
.
  9
$ELEVATION
 40
0.0
  9
$PELEVATION
 40
0.0
  9
$THICKNESS
 40
0.0
  9
$LIMCHECK
 70
     0
  9
$CHAMFERA
 40
0.0
  9
$CHAMFERB
 40
0.0
  9
$CHAMFERC
 40
0.0
  9
$CHAMFERD
 40
0.0
  9
$SKPOLY
 70
     0
  9
$TDCREATE
 40
2452128.730035996
  9
$TDUCREATE
 40
2452128.355035996
  9
$TDUPDATE
 40
2455111.366252523
  9
$TDUUPDATE
 40
2455110.991252523
  9
$TDINDWG
 40
0.0580917014
  9
$TDUSRTIMER
 40
0.0580902431
  9
$USRTIMER
 70
     1
  9
$ANGBASE
 50
0.0
  9
$ANGDIR
 70
     0
  9
$PDMODE
 70
     0
  9
$PDSIZE
 40
0.0
  9
$PLINEWID
 40
0.0
  9
$SPLFRAME
 70
     0
  9
$SPLINETYPE
 70
     6
  9
$SPLINESEGS
 70
     8
  9
$HANDSEED
  5
13C2
  9
$SURFTAB1
 70
     6
  9
$SURFTAB2
 70
     6
  9
$SURFTYPE
 70
     6
  9
$SURFU
 70
     6
  9
$SURFV
 70
     6
  9
$UCSBASE
  2

  9
$UCSNAME
  2

  9
$UCSORG
 10
0.0
 20
0.0
 30
0.0
  9
$UCSXDIR
 10
1.0
 20
0.0
 30
0.0
  9
$UCSYDIR
 10
0.0
 20
1.0
 30
0.0
  9
$UCSORTHOREF
  2

  9
$UCSORTHOVIEW
 70
     0
  9
$UCSORGTOP
 10
0.0
 20
0.0
 30
0.0
  9
$UCSORGBOTTOM
 10
0.0
 20
0.0
 30
0.0
  9
$UCSORGLEFT
 10
0.0
 20
0.0
 30
0.0
  9
$UCSORGRIGHT
 10
0.0
 20
0.0
 30
0.0
  9
$UCSORGFRONT
 10
0.0
 20
0.0
 30
0.0
  9
$UCSORGBACK
 10
0.0
 20
0.0
 30
0.0
  9
$PUCSBASE
  2

  9
$PUCSNAME
  2

  9
$PUCSORG
 10
0.0
 20
0.0
 30
0.0
  9
$PUCSXDIR
 10
1.0
 20
0.0
 30
0.0
  9
$PUCSYDIR
 10
0.0
 20
1.0
 30
0.0
  9
$PUCSORTHOREF
  2

  9
$PUCSORTHOVIEW
 70
     0
  9
$PUCSORGTOP
 10
0.0
 20
0.0
 30
0.0
  9
$PUCSORGBOTTOM
 10
0.0
 20
0.0
 30
0.0
  9
$PUCSORGLEFT
 10
0.0
 20
0.0
 30
0.0
  9
$PUCSORGRIGHT
 10
0.0
 20
0.0
 30
0.0
  9
$PUCSORGFRONT
 10
0.0
 20
0.0
 30
0.0
  9
$PUCSORGBACK
 10
0.0
 20
0.0
 30
0.0
  9
$USERI1
 70
     0
  9
$USERI2
 70
     0
  9
$USERI3
 70
     0
  9
$USERI4
 70
     0
  9
$USERI5
 70
     0
  9
$USERR1
 40
0.0
  9
$USERR2
 40
0.0
  9
$USERR3
 40
0.0
  9
$USERR4
 40
0.0
  9
$USERR5
 40
0.0
  9
$WORLDVIEW
 70
     1
  9
$SHADEDGE
 70
     3
  9
$SHADEDIF
 70
    70
  9
$TILEMODE
 70
     1
  9
$MAXACTVP
 70
    64
  9
$PINSBASE
 10
0.0
 20
0.0
 30
0.0
  9
$PLIMCHECK
 70
     0
  9
$PEXTMIN
 10
1.000000000000000E+20
 20
1.000000000000000E+20
 30
1.000000000000000E+20
  9
$PEXTMAX
 10
-1.000000000000000E+20
 20
-1.000000000000000E+20
 30
-1.000000000000000E+20
  9
$PLIMMIN
 10
0.0
 20
0.0
  9
$PLIMMAX
 10
12.0
 20
9.0
  9
$UNITMODE
 70
     0
  9
$VISRETAIN
 70
     1
  9
$PLINEGEN
 70
     0
  9
$PSLTSCALE
 70
     1
  9
$TREEDEPTH
 70
  3020
  9
$CMLSTYLE
  2
STANDARD
  9
$CMLJUST
 70
     0
  9
$CMLSCALE
 40
1.0
  9
$PROXYGRAPHICS
 70
     1
  9
$MEASUREMENT
 70
     0
  9
$CELWEIGHT
370
    -1
  9
$ENDCAPS
280
     0
  9
$JOINSTYLE
280
     0
  9
$LWDISPLAY
290
     0
  9
$INSUNITS
 70
     0
  9
$HYPERLINKBASE
  1

  9
$STYLESHEET
  1

  9
$XEDIT
290
     1
  9
$CEPSNTYPE
380
     0
  9
$PSTYLEMODE
290
     1
  9
$FINGERPRINTGUID
  2
{001A0ACB-D8DD-4ACA-9A67-ECEFBB5BFD2F}
  9
$VERSIONGUID
  2
{6D5A7A9F-5CA7-4139-B81D-4B756B89669C}
  9
$EXTNAMES
290
     1
  9
$PSVPSCALE
 40
0.0
  9
$OLESTARTUP
290
     0
  0
ENDSEC
  0
SECTION
  2
CLASSES
  0
CLASS
  1
ACDBDICTIONARYWDFLT
  2
AcDbDictionaryWithDefault
  3
ObjectDBX Classes
 90
        0
280
     0
281
     0
  0
CLASS
  1
ACDBPLACEHOLDER
  2
AcDbPlaceHolder
  3
ObjectDBX Classes
 90
        0
280
     0
281
     0
  0
CLASS
  1
LAYOUT
  2
AcDbLayout
  3
ObjectDBX Classes
 90
        0
280
     0
281
     0
  0
CLASS
  1
MATERIAL
  2
AcDbMaterial
  3
ObjectDBX Classes
 90
     1153
280
     0
281
     0
  0
CLASS
  1
VISUALSTYLE
  2
AcDbVisualStyle
  3
ObjectDBX Classes
 90
     4095
280
     0
281
     0
  0
CLASS
  1
TABLESTYLE
  2
AcDbTableStyle
  3
ObjectDBX Classes
 90
     4095
280
     0
281
     0
  0
CLASS
  1
DICTIONARYVAR
  2
AcDbDictionaryVar
  3
ObjectDBX Classes
 90
        0
280
     0
281
     0
  0
ENDSEC
  0
SECTION
  2
TABLES
  0
TABLE
  2
VPORT
  5
8
330
0
100
AcDbSymbolTable
 70
     1
  0
VPORT
  5
6BC
330
8
100
AcDbSymbolTableRecord
100
AcDbViewportTableRecord
  2
*ACTIVE
 70
     0
 10
0.0
 20
0.0
 11
1.0
 21
1.0
 12
5387.35930591805
 22
3847.735047300413
 13
0.0
 23
0.0
 14
1.0
 24
1.0
 15
0.0
 25
0.0
 16
0.0
 26
0.0
 36
1.0
 17
0.0
 27
0.0
 37
0.0
 40
8141.938821826039
 41
1.331536388140161
 42
50.0
 43
0.0
 44
0.0
 50
0.0
 51
0.0
 71
     0
 72
   100
 73
     1
 74
     1
 75
     0
 76
     0
 77
     0
 78
     0
281
     0
 65
     1
110
0.0
120
0.0
130
0.0
111
1.0
121
0.0
131
0.0
112
0.0
122
1.0
132
0.0
 79
     0
146
0.0
  0
ENDTAB
  0
TABLE
  2
LTYPE
  5
5
330
0
100
AcDbSymbolTable
 70
     5
  0
LTYPE
  5
13
330
5
100
AcDbSymbolTableRecord
100
AcDbLinetypeTableRecord
  2
BYBLOCK
 70
     0
  3

 72
    65
 73
     0
 40
0.0
  0
LTYPE
  5
14
330
5
100
AcDbSymbolTableRecord
100
AcDbLinetypeTableRecord
  2
BYLAYER
 70
     0
  3

 72
    65
 73
     0
 40
0.0
  0
LTYPE
  5
15
330
5
100
AcDbSymbolTableRecord
100
AcDbLinetypeTableRecord
  2
CONTINUOUS
 70
     0
  3
実線
 72
    65
 73
     0
 40
0.0
  0
LTYPE
  5
23
330
5
100
AcDbSymbolTableRecord
100
AcDbLinetypeTableRecord
  2
HIDDEN
 70
     0
  3
_ _ _ _ _ _ _ _ _ _ _ _ _ _ _ _ _ _ _ _ _ _ _
 72
    65
 73
     2
 40
0.375
 49
0.25
 74
     0
 49
-0.125
 74
     0
  0
LTYPE
  5
24
330
5
100
AcDbSymbolTableRecord
100
AcDbLinetypeTableRecord
  2
DASHED
 70
     0
  3
__ __ __ __ __ __ __ __ __ __ __ __ __ __ __
 72
    65
 73
     2
 40
0.75
 49
0.5
 74
     0
 49
-0.25
 74
     0
  0
LTYPE
  5
25
330
5
100
AcDbSymbolTableRecord
100
AcDbLinetypeTableRecord
  2
CENTER
 70
     0
  3
____ _ ____ _ ____ _ ____ _ ____ _ ____ _ ____
 72
    65
 73
     4
 40
2.0
 49
1.25
 74
     0
 49
-0.25
 74
     0
 49
0.25
 74
     0
 49
-0.25
 74
     0
  0
LTYPE
  5
26
330
5
100
AcDbSymbolTableRecord
100
AcDbLinetypeTableRecord
  2
PHANTOM
 70
     0
  3
_____ _ _ _____ _ _ _____ _ _ _____ _ _ ____
 72
    65
 73
     6
 40
2.5
 49
1.25
 74
     0
 49
-0.25
 74
     0
 49
0.25
 74
     0
 49
-0.25
 74
     0
 49
0.25
 74
     0
 49
-0.25
 74
     0
  0
ENDTAB
  0
TABLE
  2
LAYER
  5
2
102
{ACAD_XDICTIONARY
360
6E1
102
}
330
0
100
AcDbSymbolTable
 70
     4
  0
LAYER
  5
10
330
2
100
AcDbSymbolTableRecord
100
AcDbLayerTableRecord
  2
0
 70
     0
 62
     7
  6
CONTINUOUS
370
    -3
390
6C3
  0
LAYER
  5
27
330
2
100
AcDbSymbolTableRecord
100
AcDbLayerTableRecord
  2
1
 70
     0
 62
     7
  6
CONTINUOUS
370
    -3
390
6C3
  0
LAYER
  5
28
330
2
100
AcDbSymbolTableRecord
100
AcDbLayerTableRecord
  2
2
 70
     0
 62
     7
  6
CONTINUOUS
370
    -3
390
6C3
  0
LAYER
  5
29
330
2
100
AcDbSymbolTableRecord
100
AcDbLayerTableRecord
  2
3
 70
     0
 62
     7
  6
CONTINUOUS
370
    -3
390
6C3
  0
ENDTAB
  0
TABLE
  2
STYLE
  5
3
330
0
100
AcDbSymbolTable
 70
     2
  0
STYLE
  5
11
330
3
100
AcDbSymbolTableRecord
100
AcDbTextStyleTableRecord
  2
STANDARD
 70
     0
 40
0.0
 41
1.0
 50
0.0
 71
     0
 42
0.2
  3
txt
  4

  0
STYLE
  5
22
330
3
100
AcDbSymbolTableRecord
100
AcDbTextStyleTableRecord
  2
BIGFONT
 70
     0
 40
0.0
 41
1.0
 50
0.0
 71
     0
 42
1.0
  3

  4
bigfont
  0
ENDTAB
  0
TABLE
  2
VIEW
  5
6
330
0
100
AcDbSymbolTable
 70
     0
  0
ENDTAB
  0
TABLE
  2
UCS
  5
7
330
0
100
AcDbSymbolTable
 70
     0
  0
ENDTAB
  0
TABLE
  2
APPID
  5
9
330
0
100
AcDbSymbolTable
 70
     1
  0
APPID
  5
12
330
9
100
AcDbSymbolTableRecord
100
AcDbRegAppTableRecord
  2
ACAD
 70
     0
  0
ENDTAB
  0
TABLE
  2
DIMSTYLE
  5
A
330
0
100
AcDbSymbolTable
 70
     1
100
AcDbDimStyleTable
 71
     0
  0
DIMSTYLE
105
672
330
A
100
AcDbSymbolTableRecord
100
AcDbDimStyleTableRecord
  2
STANDARD
 70
     0
340
11
  0
ENDTAB
  0
TABLE
  2
BLOCK_RECORD
  5
1
330
0
100
AcDbSymbolTable
 70
     1
  0
BLOCK_RECORD
  5
1E
102
{ACAD_XDICTIONARY
360
678
102
}
330
1
100
AcDbSymbolTableRecord
100
AcDbBlockTableRecord
  2
*MODEL_SPACE
340
6DD
  0
BLOCK_RECORD
  5
1A
102
{ACAD_XDICTIONARY
360
676
102
}
330
1
100
AcDbSymbolTableRecord
100
AcDbBlockTableRecord
  2
*PAPER_SPACE
340
6DE
  0
ENDTAB
  0
ENDSEC
  0
SECTION
  2
BLOCKS
  0
BLOCK
  5
1F
330
1E
100
AcDbEntity
  8
0
100
AcDbBlockBegin
  2
*MODEL_SPACE
 70
     0
 10
0.0
 20
0.0
 30
0.0
  3
*MODEL_SPACE
  1

  0
ENDBLK
  5
20
330
1E
100
AcDbEntity
  8
0
100
AcDbBlockEnd
  0
BLOCK
  5
1B
330
1A
100
AcDbEntity
 67
     1
  8
0
100
AcDbBlockBegin
  2
*PAPER_SPACE
 70
     0
 10
0.0
 20
0.0
 30
0.0
  3
*PAPER_SPACE
  1

  0
ENDBLK
  5
1C
330
1A
100
AcDbEntity
 67
     1
  8
0
100
AcDbBlockEnd
  0
ENDSEC
  0
SECTION
  2
ENTITIES
  0
LINE
  5
D4C
330
1E
100
AcDbEntity
  8
0
  6
Continuous
 62
     7
370
    13
100
AcDbLine
 10
6537.202
 20
6309.277999999998
 30
0.0
 11
6657.201999999998
 21
6309.277999999998
 31
0.0
  0
LINE
  5
D4D
330
1E
100
AcDbEntity
  8
0
  6
Continuous
 62
     7
370
    13
100
AcDbLine
 10
6657.201999999998
 20
5987.882999999998
 30
0.0
 11
6657.201999999998
 21
6329.277999999998
 31
0.0
  0
LINE
  5
D4E
330
1E
100
AcDbEntity
  8
0
  6
Continuous
 62
     7
370
    13
100
AcDbLine
 10
6537.202
 20
5987.882999999998
 30
0.0
 11
6537.202
 21
6329.277999999998
 31
0.0
  0
LINE
  5
D4F
330
1E
100
AcDbEntity
  8
0
  6
Continuous
 62
     7
370
    13
100
AcDbLine
 10
6631.201999999998
 20
6302.296199999998
 30
0.0
 11
6657.201999999998
 21
6309.262999999999
 31
0.0
  0
LINE
  5
D50
330
1E
100
AcDbEntity
  8
0
  6
Continuous
 62
     7
370
    13
100
AcDbLine
 10
6657.201999999998
 20
6309.262999999999
 30
0.0
 11
6631.201999999998
 21
6316.229599999998
 31
0.0
  0
LINE
  5
D51
330
1E
100
AcDbEntity
  8
0
  6
Continuous
 62
     7
370
    13
100
AcDbLine
 10
6563.202000000001
 20
6316.229599999998
 30
0.0
 11
6537.202
 21
6309.262999999999
 31
0.0
  0
LINE
  5
D52
330
1E
100
AcDbEntity
  8
0
  6
Continuous
 62
     7
370
    13
100
AcDbLine
 10
6537.202
 20
6309.262999999999
 30
0.0
 11
6563.202000000001
 21
6302.296199999998
 31
0.0
  0
TEXT
  5
D53
330
1E
100
AcDbEntity
  8
0
  6
Continuous
 62
     7
370
    13
100
AcDbText
 10
6535.869247402279
 20
6321.277999999997
 30
0.0
 40
64.0
  1
120
 41
0.875
  7
BIGFONT
100
AcDbText
  0
LINE
  5
D54
330
1E
100
AcDbEntity
  8
0
  6
Continuous
 62
     7
370
    13
100
AcDbLine
 10
7739.057000000001
 20
4714.882999999996
 30
0.0
 11
7739.057000000001
 21
4804.882999999998
 31
0.0
  0
LINE
  5
D55
330
1E
100
AcDbEntity
  8
0
  6
Continuous
 62
     7
370
    13
100
AcDbLine
 10
7457.201999999998
 20
4804.882999999998
 30
0.0
 11
7759.057000000002
 21
4804.882999999998
 31
0.0
  0
LINE
  5
D56
330
1E
100
AcDbEntity
  8
0
  6
Continuous
 62
     7
370
    13
100
AcDbLine
 10
7457.201999999998
 20
4714.882999999996
 30
0.0
 11
7759.057000000002
 21
4714.882999999996
 31
0.0
  0
LINE
  5
D57
330
1E
100
AcDbEntity
  8
0
  6
Continuous
 62
     7
370
    13
100
AcDbLine
 10
7746.008600000002
 20
4778.882999999996
 30
0.0
 11
7739.041999999997
 21
4804.882999999998
 31
0.0
  0
LINE
  5
D58
330
1E
100
AcDbEntity
  8
0
  6
Continuous
 62
     7
370
    13
100
AcDbLine
 10
7739.041999999997
 20
4804.882999999998
 30
0.0
 11
7732.075200000003
 21
4778.882999999996
 31
0.0
  0
LINE
  5
D59
330
1E
100
AcDbEntity
  8
0
  6
Continuous
 62
     7
370
    13
100
AcDbLine
 10
7732.075200000003
 20
4740.882999999998
 30
0.0
 11
7739.041999999997
 21
4714.882999999996
 31
0.0
  0
LINE
  5
D5A
330
1E
100
AcDbEntity
  8
0
  6
Continuous
 62
     7
370
    13
100
AcDbLine
 10
7739.041999999997
 20
4714.882999999996
 30
0.0
 11
7746.008600000002
 21
4740.882999999998
 31
0.0
  0
TEXT
  5
D5B
330
1E
100
AcDbEntity
  8
0
  6
Continuous
 62
     7
370
    13
100
AcDbText
 10
7727.057000000001
 20
4703.882999999998
 30
0.0
 40
64.0
  1
90
 50
90.0
 41
0.875
  7
BIGFONT
100
AcDbText
  0
LINE
  5
D5C
330
1E
100
AcDbEntity
  8
0
  6
Continuous
 62
     7
370
    13
100
AcDbLine
 10
2162.267
 20
4739.431999999997
 30
0.0
 11
2165.119999999999
 21
4785.158799999998
 31
0.0
  0
LINE
  5
D5D
330
1E
100
AcDbEntity
  8
0
  6
Continuous
 62
     7
370
    13
100
AcDbLine
 10
1864.559200000001
 20
4803.910599999998
 30
0.0
 11
2185.081200000002
 21
4783.913399999998
 31
0.0
  0
LINE
  5
D5E
330
1E
100
AcDbEntity
  8
0
  6
Continuous
 62
     7
370
    13
100
AcDbLine
 10
1861.7142
 20
4758.183599999998
 30
0.0
 11
2182.228200000002
 21
4738.186599999997
 31
0.0
  0
LINE
  5
D5F
330
1E
100
AcDbEntity
  8
0
  6
Continuous
 62
     7
370
    13
100
AcDbLine
 10
2168.357799999998
 20
4837.057999999998
 30
0.0
 11
2165.119999999999
 21
4785.158799999998
 31
0.0
  0
LINE
  5
D60
330
1E
100
AcDbEntity
  8
0
  6
Continuous
 62
     7
370
    13
100
AcDbLine
 10
2159.787999999998
 20
4811.526199999994
 30
0.0
 11
2165.122
 21
4785.142999999998
 31
0.0
  0
LINE
  5
D61
330
1E
100
AcDbEntity
  8
0
  6
Continuous
 62
     7
370
    13
100
AcDbLine
 10
2165.122
 20
4785.142999999998
 30
0.0
 11
2173.6942
 21
4810.658599999998
 31
0.0
  0
LINE
  5
D62
330
1E
100
AcDbEntity
  8
0
  6
Continuous
 62
     7
370
    13
100
AcDbLine
 10
2162.267
 20
4739.431999999997
 30
0.0
 11
2159.029200000003
 21
4687.532799999998
 31
0.0
  0
LINE
  5
D63
330
1E
100
AcDbEntity
  8
0
  6
Continuous
 62
     7
370
    13
100
AcDbLine
 10
2167.616200000002
 20
4713.039599999999
 30
0.0
 11
2162.281999999999
 21
4739.422999999997
 31
0.0
  0
LINE
  5
D64
330
1E
100
AcDbEntity
  8
0
  6
Continuous
 62
     7
370
    13
100
AcDbLine
 10
2162.281999999999
 20
4739.422999999997
 30
0.0
 11
2153.709999999999
 21
4713.907199999997
 31
0.0
  0
TEXT
  5
D65
330
1E
100
AcDbEntity
  8
0
  6
Continuous
 62
     7
370
    13
100
AcDbText
 10
2153.143200000002
 20
4803.621725132928
 30
0.0
 40
64.0
  1
45
 50
86.43
 41
0.875
  7
BIGFONT
100
AcDbText
  0
LINE
  5
D66
330
1E
100
AcDbEntity
  8
0
  6
Continuous
 62
     7
370
    13
100
AcDbLine
 10
968.4390000000004
 20
6305.248999999998
 30
0.0
 11
1013.394
 21
6307.070199999999
 31
0.0
  0
LINE
  5
D67
330
1E
100
AcDbEntity
  8
0
  6
Continuous
 62
     7
370
    13
100
AcDbLine
 10
1026.341400000001
 20
5987.485599999996
 30
0.0
 11
1012.584199999999
 21
6327.053799999996
 31
0.0
  0
LINE
  5
D68
330
1E
100
AcDbEntity
  8
0
  6
Continuous
 62
     7
370
    13
100
AcDbLine
 10
981.3874000000014
 20
5985.656599999998
 30
0.0
 11
967.6294000000016
 21
6325.232599999997
 31
0.0
  0
LINE
  5
D69
330
1E
100
AcDbEntity
  8
0
  6
Continuous
 62
     7
370
    13
100
AcDbLine
 10
1065.351200000001
 20
6309.175199999999
 30
0.0
 11
1013.394
 21
6307.070199999999
 31
0.0
  0
LINE
  5
D6A
330
1E
100
AcDbEntity
  8
0
  6
Continuous
 62
     7
370
    13
100
AcDbLine
 10
1039.0988
 20
6315.076399999997
 30
0.0
 11
1013.402
 21
6307.062999999997
 31
0.0
  0
LINE
  5
D6B
330
1E
100
AcDbEntity
  8
0
  6
Continuous
 62
     7
370
    13
100
AcDbLine
 10
1013.402
 20
6307.062999999997
 30
0.0
 11
1039.662800000002
 21
6301.154399999994
 31
0.0
  0
LINE
  5
D6C
330
1E
100
AcDbEntity
  8
0
  6
Continuous
 62
     7
370
    13
100
AcDbLine
 10
968.4390000000004
 20
6305.248999999998
 30
0.0
 11
916.4817999999995
 21
6303.143999999997
 31
0.0
  0
LINE
  5
D6D
330
1E
100
AcDbEntity
  8
0
  6
Continuous
 62
     7
370
    13
100
AcDbLine
 10
942.7454000000016
 20
6297.229399999998
 30
0.0
 11
968.442000000001
 21
6305.242999999998
 31
0.0
  0
LINE
  5
D6E
330
1E
100
AcDbEntity
  8
0
  6
Continuous
 62
     7
370
    13
100
AcDbLine
 10
968.442000000001
 20
6305.242999999998
 30
0.0
 11
942.1814000000013
 21
6311.151399999998
 31
0.0
  0
TEXT
  5
D6F
330
1E
100
AcDbEntity
  8
0
  6
Continuous
 62
     7
370
    13
100
AcDbText
 10
934.4765999999999
 20
6331.562736870627
 30
0.0
 40
64.0
  1
45
 50
2.31
 41
0.875
  7
BIGFONT
100
AcDbText
  0
LINE
  5
D70
330
1E
100
AcDbEntity
  8
0
  6
HIDDEN
 62
     7
370
    13
100
AcDbLine
 10
937.2019999999993
 20
5453.020999999999
 30
0.0
 11
1057.201999999999
 21
5453.020999999999
 31
0.0
  0
LINE
  5
D71
330
1E
100
AcDbEntity
  8
0
  6
HIDDEN
 62
     7
370
    13
100
AcDbLine
 10
937.2019999999993
 20
5378.020999999999
 30
0.0
 11
1058.764999999999
 21
5378.020999999999
 31
0.0
  0
LINE
  5
D72
330
1E
100
AcDbEntity
  8
0
  6
Continuous
 62
     7
370
    13
100
AcDbLine
 10
884.2540000000008
 20
5415.520999999999
 30
0.0
 11
985.2510000000002
 21
5415.520999999999
 31
0.0
  0
LINE
  5
D73
330
1E
100
AcDbEntity
  8
0
  6
Continuous
 62
     7
370
    13
100
AcDbLine
 10
998.1860000000015
 20
5415.520999999999
 30
0.0
 11
1000.938000000004
 21
5415.520999999999
 31
0.0
  0
LINE
  5
D74
330
1E
100
AcDbEntity
  8
0
  6
Continuous
 62
     7
370
    13
100
AcDbLine
 10
1012.134000000004
 20
5415.520999999999
 30
0.0
 11
1112.942000000001
 21
5415.520999999999
 31
0.0
  0
LINE
  5
D75
330
1E
100
AcDbEntity
  8
0
  6
Continuous
 62
     7
370
    13
100
AcDbLine
 10
937.2019999999993
 20
4715.520999999997
 30
0.0
 11
1837.201999999999
 21
4715.520999999997
 31
0.0
  0
LINE
  5
D76
330
1E
100
AcDbEntity
  8
0
  6
Continuous
 62
     7
370
    13
100
AcDbLine
 10
937.2019999999993
 20
4715.520999999997
 30
0.0
 11
937.2019999999993
 21
5965.520999999998
 31
0.0
  0
LINE
  5
D77
330
1E
100
AcDbEntity
  8
0
  6
Continuous
 62
     7
370
    13
100
AcDbLine
 10
937.2019999999993
 20
5965.520999999998
 30
0.0
 11
1057.201999999999
 21
5965.520999999998
 31
0.0
  0
LINE
  5
D78
330
1E
100
AcDbEntity
  8
0
  6
Continuous
 62
     7
370
    13
100
AcDbLine
 10
1837.201999999999
 20
4715.520999999997
 30
0.0
 11
1837.201999999999
 21
4805.520999999996
 31
0.0
  0
LINE
  5
D79
330
1E
100
AcDbEntity
  8
0
  6
Continuous
 62
     7
370
    13
100
AcDbLine
 10
1057.201999999999
 20
5222.520999999998
 30
0.0
 11
1057.201999999999
 21
5965.520999999998
 31
0.0
  0
LINE
  5
D7A
330
1E
100
AcDbEntity
  8
0
  6
Continuous
 62
     7
370
    13
100
AcDbLine
 10
1057.201999999999
 20
5222.520999999998
 30
0.0
 11
1068.979000000001
 21
4930.455999999998
 31
0.0
  0
LINE
  5
D7B
330
1E
100
AcDbEntity
  8
0
  6
Continuous
 62
     7
370
    13
100
AcDbLine
 10
1152.064
 20
4845.822999999999
 30
0.0
 11
1837.201999999999
 21
4805.520999999996
 31
0.0
  0
LINE
  5
D7C
330
1E
100
AcDbEntity
  8
0
  6
Continuous
 62
     7
370
    13
100
AcDbLine
 10
1068.979000000001
 20
4930.455999999998
 30
0.0
 11
1152.064
 21
4845.822999999999
 31
0.0
  0
LINE
  5
D7D
330
1E
100
AcDbEntity
  8
0
  6
Continuous
 62
     1
370
    25
100
AcDbLine
 10
983.8020000000014
 20
5925.520999999998
 30
0.0
 11
1029.515999999999
 21
4792.302999999997
 31
0.0
  0
LINE
  5
D7E
330
1E
100
AcDbEntity
  8
0
  6
Continuous
 62
     1
370
    25
100
AcDbLine
 10
1013.421999999998
 20
4808.942999999999
 30
0.0
 11
1797.202000000001
 21
4762.789999999998
 31
0.0
  0
LINE
  5
D7F
330
1E
100
AcDbEntity
  8
0
  6
Continuous
 62
     1
370
    25
100
AcDbLine
 10
983.9699999999993
 20
4955.671999999998
 30
0.0
 11
1172.599
 21
4763.520999999997
 31
0.0
  0
POINT
  5
D80
330
1E
100
AcDbEntity
  8
0
  6
Continuous
 62
     1
370
    25
100
AcDbPoint
 10
1177.507000000001
 20
4768.520999999996
 30
0.0
  0
POINT
  5
D81
330
1E
100
AcDbEntity
  8
0
  6
Continuous
 62
     1
370
    25
100
AcDbPoint
 10
1280.764000000001
 20
4785.700999999998
 30
0.0
  0
POINT
  5
D82
330
1E
100
AcDbEntity
  8
0
  6
Continuous
 62
     1
370
    25
100
AcDbPoint
 10
1000.352000000001
 20
4821.382999999998
 30
0.0
  0
POINT
  5
D83
330
1E
100
AcDbEntity
  8
0
  6
Continuous
 62
     1
370
    25
100
AcDbPoint
 10
1013.213
 20
5010.519999999996
 30
0.0
  0
POINT
  5
D84
330
1E
100
AcDbEntity
  8
0
  6
Continuous
 62
     7
370
    13
100
AcDbPoint
 10
987.7020000000012
 20
5110.520999999998
 30
0.0
  0
POINT
  5
D85
330
1E
100
AcDbEntity
  8
0
  6
Continuous
 62
     7
370
    13
100
AcDbPoint
 10
1003.128
 20
5260.525999999998
 30
0.0
  0
POINT
  5
D86
330
1E
100
AcDbEntity
  8
0
  6
Continuous
 62
     1
370
    25
100
AcDbPoint
 10
993.0419999999994
 20
5510.539999999998
 30
0.0
  0
POINT
  5
D87
330
1E
100
AcDbEntity
  8
0
  6
Continuous
 62
     1
370
    25
100
AcDbPoint
 10
997.9580000000041
 20
5760.516999999998
 30
0.0
  0
POINT
  5
D88
330
1E
100
AcDbEntity
  8
0
  6
Continuous
 62
     1
370
    25
100
AcDbPoint
 10
992.3609999999989
 20
5910.516999999998
 30
0.0
  0
POINT
  5
D89
330
1E
100
AcDbEntity
  8
0
  6
Continuous
 62
     1
370
    25
100
AcDbPoint
 10
1530.731
 20
4770.980999999997
 30
0.0
  0
POINT
  5
D8A
330
1E
100
AcDbEntity
  8
0
  6
Continuous
 62
     1
370
    25
100
AcDbPoint
 10
1780.727999999999
 20
4756.259999999998
 30
0.0
  0
LINE
  5
D8B
330
1E
100
AcDbEntity
  8
0
  6
Continuous
 62
     1
370
    25
100
AcDbLine
 10
1172.599
 20
4763.520999999997
 30
0.0
 11
1220.599
 21
4763.520999999997
 31
0.0
  0
LINE
  5
D8C
330
1E
100
AcDbEntity
  8
0
  6
Continuous
 62
     1
370
    25
100
AcDbLine
 10
983.9699999999993
 20
4955.671999999998
 30
0.0
 11
983.9699999999993
 21
5003.671999999997
 31
0.0
  0
LINE
  5
D8D
330
1E
100
AcDbEntity
  8
0
  6
Continuous
 62
     1
370
    25
100
AcDbLine
 10
1059.491000000002
 20
4763.512999999998
 30
0.0
 11
1139.491000000002
 21
4763.512999999998
 31
0.0
  0
LINE
  5
D8E
330
1E
100
AcDbEntity
  8
0
  6
Continuous
 62
     1
370
    25
100
AcDbLine
 10
985.1850000000013
 20
4838.891999999998
 30
0.0
 11
985.1850000000013
 21
4918.891999999996
 31
0.0
  0
ARC
  5
D8F
330
1E
100
AcDbEntity
  8
0
  6
Continuous
 62
     1
370
    25
100
AcDbCircle
 10
1010.202000000001
 20
4788.520999999998
 30
0.0
 40
30.0
100
AcDbArc
 50
180.0
 51
270.0
  0
ARC
  5
D90
330
1E
100
AcDbEntity
  8
0
  6
Continuous
 62
     1
370
    25
100
AcDbCircle
 10
1059.491000000002
 20
4793.512999999997
 30
0.0
 40
30.0
100
AcDbArc
 50
182.3115999999997
 51
270.0
  0
ARC
  5
D91
330
1E
100
AcDbEntity
  8
0
  6
Continuous
 62
     1
370
    25
100
AcDbCircle
 10
1015.184999999999
 20
4838.891999999998
 30
0.0
 40
30.0
100
AcDbArc
 50
180.0
 51
266.631069999957
  0
LINE
  5
D92
330
1E
100
AcDbEntity
  8
0
  6
Continuous
 62
     7
370
    13
100
AcDbLine
 10
6537.202
 20
4715.520999999997
 30
0.0
 11
7437.201999999998
 21
4715.520999999997
 31
0.0
  0
LINE
  5
D93
330
1E
100
AcDbEntity
  8
0
  6
Continuous
 62
     7
370
    13
100
AcDbLine
 10
6537.202
 20
4715.520999999997
 30
0.0
 11
6537.202
 21
5956.520999999998
 31
0.0
  0
LINE
  5
D94
330
1E
100
AcDbEntity
  8
0
  6
Continuous
 62
     7
370
    13
100
AcDbLine
 10
6546.201999999998
 20
5965.520999999998
 30
0.0
 11
6648.202000000001
 21
5965.520999999998
 31
0.0
  0
LINE
  5
D95
330
1E
100
AcDbEntity
  8
0
  6
Continuous
 62
     7
370
    13
100
AcDbLine
 10
7437.201999999998
 20
4715.520999999997
 30
0.0
 11
7437.201999999998
 21
4805.520999999996
 31
0.0
  0
LINE
  5
D96
330
1E
100
AcDbEntity
  8
0
  6
Continuous
 62
     7
370
    13
100
AcDbLine
 10
6657.201999999998
 20
5222.520999999998
 30
0.0
 11
6657.201999999998
 21
5956.520999999998
 31
0.0
  0
LINE
  5
D97
330
1E
100
AcDbEntity
  8
0
  6
Continuous
 62
     7
370
    13
100
AcDbLine
 10
6657.201999999998
 20
5222.520999999998
 30
0.0
 11
6668.978999999999
 21
4930.455999999998
 31
0.0
  0
LINE
  5
D98
330
1E
100
AcDbEntity
  8
0
  6
Continuous
 62
     7
370
    13
100
AcDbLine
 10
6752.064000000003
 20
4845.822999999999
 30
0.0
 11
7437.201999999998
 21
4805.520999999996
 31
0.0
  0
LINE
  5
D99
330
1E
100
AcDbEntity
  8
0
  6
Continuous
 62
     7
370
    13
100
AcDbLine
 10
6668.978999999999
 20
4930.455999999998
 30
0.0
 11
6752.064000000003
 21
4845.822999999999
 31
0.0
  0
LINE
  5
D9A
330
1E
100
AcDbEntity
  8
0
  6
Continuous
 62
     7
370
    13
100
AcDbLine
 10
6537.202
 20
4065.520999999998
 30
0.0
 11
7437.201999999998
 21
4065.520999999998
 31
0.0
  0
LINE
  5
D9B
330
1E
100
AcDbEntity
  8
0
  6
Continuous
 62
     7
370
    13
100
AcDbLine
 10
7437.201999999998
 20
4695.520999999998
 30
0.0
 11
7437.201999999998
 21
4045.520999999999
 31
0.0
  0
LINE
  5
D9C
330
1E
100
AcDbEntity
  8
0
  6
Continuous
 62
     7
370
    13
100
AcDbLine
 10
6537.202
 20
4695.520999999998
 30
0.0
 11
6537.202
 21
4045.520999999999
 31
0.0
  0
LINE
  5
D9D
330
1E
100
AcDbEntity
  8
0
  6
Continuous
 62
     7
370
    13
100
AcDbLine
 10
7411.202000000002
 20
4058.536199999998
 30
0.0
 11
7437.201999999998
 21
4065.502999999998
 31
0.0
  0
LINE
  5
D9E
330
1E
100
AcDbEntity
  8
0
  6
Continuous
 62
     7
370
    13
100
AcDbLine
 10
7437.201999999998
 20
4065.502999999998
 30
0.0
 11
7411.202000000002
 21
4072.469599999998
 31
0.0
  0
LINE
  5
D9F
330
1E
100
AcDbEntity
  8
0
  6
Continuous
 62
     7
370
    13
100
AcDbLine
 10
6563.202000000001
 20
4072.469599999998
 30
0.0
 11
6537.202
 21
4065.502999999998
 31
0.0
  0
LINE
  5
DA0
330
1E
100
AcDbEntity
  8
0
  6
Continuous
 62
     7
370
    13
100
AcDbLine
 10
6537.202
 20
4065.502999999998
 30
0.0
 11
6563.202000000001
 21
4058.536199999998
 31
0.0
  0
TEXT
  5
DA1
330
1E
100
AcDbEntity
  8
0
  6
Continuous
 62
     7
370
    13
100
AcDbText
 10
6903.202000000002
 20
4077.520999999999
 30
0.0
 40
64.0
  1
900
 41
0.875
  7
BIGFONT
100
AcDbText
  0
LINE
  5
DA2
330
1E
100
AcDbEntity
  8
0
  6
Continuous
 62
     7
370
    13
100
AcDbLine
 10
5887.202000000002
 20
4715.520999999997
 30
0.0
 11
5887.202000000002
 21
5965.520999999998
 31
0.0
  0
LINE
  5
DA3
330
1E
100
AcDbEntity
  8
0
  6
Continuous
 62
     7
370
    13
100
AcDbLine
 10
6517.202000000001
 20
5965.520999999998
 30
0.0
 11
5867.201999999998
 21
5965.520999999998
 31
0.0
  0
LINE
  5
DA4
330
1E
100
AcDbEntity
  8
0
  6
Continuous
 62
     7
370
    13
100
AcDbLine
 10
6517.202000000001
 20
4715.520999999997
 30
0.0
 11
5867.201999999998
 21
4715.520999999997
 31
0.0
  0
LINE
  5
DA5
330
1E
100
AcDbEntity
  8
0
  6
Continuous
 62
     7
370
    13
100
AcDbLine
 10
5894.168600000001
 20
5939.502999999999
 30
0.0
 11
5887.202000000002
 21
5965.502999999999
 31
0.0
  0
LINE
  5
DA6
330
1E
100
AcDbEntity
  8
0
  6
Continuous
 62
     7
370
    13
100
AcDbLine
 10
5887.202000000002
 20
5965.502999999999
 30
0.0
 11
5880.235199999999
 21
5939.502999999999
 31
0.0
  0
LINE
  5
DA7
330
1E
100
AcDbEntity
  8
0
  6
Continuous
 62
     7
370
    13
100
AcDbLine
 10
5880.235199999999
 20
4741.502999999998
 30
0.0
 11
5887.202000000002
 21
4715.502999999998
 31
0.0
  0
LINE
  5
DA8
330
1E
100
AcDbEntity
  8
0
  6
Continuous
 62
     7
370
    13
100
AcDbLine
 10
5887.202000000002
 20
4715.502999999998
 30
0.0
 11
5894.168600000001
 21
4741.502999999998
 31
0.0
  0
TEXT
  5
DA9
330
1E
100
AcDbEntity
  8
0
  6
Continuous
 62
     7
370
    13
100
AcDbText
 10
5875.201999999998
 20
5228.520999999997
 30
0.0
 40
64.0
  1
1250
 50
90.0
 41
0.875
  7
BIGFONT
100
AcDbText
  0
LINE
  5
DAA
330
1E
100
AcDbEntity
  8
0
  6
Continuous
 62
     7
370
    13
100
AcDbLine
 10
6597.201999999997
 20
5587.020999999998
 30
0.0
 11
6597.201999999997
 21
5684.020999999997
 31
0.0
  0
LINE
  5
DAB
330
1E
100
AcDbEntity
  8
0
  6
Continuous
 62
     7
370
    13
100
AcDbLine
 10
6597.201999999997
 20
5587.020999999998
 30
0.0
 11
6647.201999999997
 21
5587.020999999998
 31
0.0
  0
LINE
  5
DAC
330
1E
100
AcDbEntity
  8
0
  6
Continuous
 62
     7
370
    13
100
AcDbLine
 10
6647.201999999997
 20
5587.020999999998
 30
0.0
 11
6647.201999999997
 21
5684.020999999997
 31
0.0
  0
LINE
  5
DAD
330
1E
100
AcDbEntity
  8
0
  6
Continuous
 62
     7
370
    13
100
AcDbLine
 10
6597.201999999997
 20
5684.020999999997
 30
0.0
 11
6647.201999999997
 21
5684.020999999997
 31
0.0
  0
LINE
  5
DAE
330
1E
100
AcDbEntity
  8
0
  6
Continuous
 62
     7
370
    13
100
AcDbLine
 10
6610.887999999999
 20
5635.520999999998
 30
0.0
 11
6622.201999999997
 21
5646.834999999997
 31
0.0
  0
LINE
  5
DAF
330
1E
100
AcDbEntity
  8
0
  6
Continuous
 62
     7
370
    13
100
AcDbLine
 10
6622.201999999997
 20
5624.206999999998
 30
0.0
 11
6633.516
 21
5635.520999999998
 31
0.0
  0
ARC
  5
DB0
330
1E
100
AcDbEntity
  8
0
  6
Continuous
 62
     7
370
    13
100
AcDbCircle
 10
6627.859
 20
5641.177999999998
 30
0.0
 40
8.0
100
AcDbArc
 50
315.000000000007
 51
135.0000000000069
  0
ARC
  5
DB1
330
1E
100
AcDbEntity
  8
0
  6
Continuous
 62
     7
370
    13
100
AcDbCircle
 10
6616.545000000002
 20
5629.863999999998
 30
0.0
 40
8.0
100
AcDbArc
 50
135.0000000000069
 51
315.000000000007
  0
LINE
  5
DB2
330
1E
100
AcDbEntity
  8
0
  6
Continuous
 62
     7
370
    13
100
AcDbLine
 10
6573.755000000002
 20
5635.520999999998
 30
0.0
 11
6672.757000000001
 21
5635.520999999998
 31
0.0
  0
LINE
  5
DB3
330
1E
100
AcDbEntity
  8
0
  6
Continuous
 62
     7
370
    13
100
AcDbLine
 10
6622.201999999997
 20
5565.743999999998
 30
0.0
 11
6622.201999999997
 21
5706.157999999998
 31
0.0
  0
LINE
  5
DB4
330
1E
100
AcDbEntity
  8
0
  6
Continuous
 62
     7
370
    13
100
AcDbLine
 10
6937.207999999998
 20
4775.086999999998
 30
0.0
 11
7034.011000000003
 21
4768.907999999998
 31
0.0
  0
LINE
  5
DB5
330
1E
100
AcDbEntity
  8
0
  6
Continuous
 62
     7
370
    13
100
AcDbLine
 10
7034.011000000003
 20
4768.907999999998
 30
0.0
 11
7037.196
 21
4818.806999999996
 31
0.0
  0
LINE
  5
DB6
330
1E
100
AcDbEntity
  8
0
  6
Continuous
 62
     7
370
    13
100
AcDbLine
 10
6940.393
 20
4824.985999999999
 30
0.0
 11
7037.196
 21
4818.806999999996
 31
0.0
  0
LINE
  5
DB7
330
1E
100
AcDbEntity
  8
0
  6
Continuous
 62
     7
370
    13
100
AcDbLine
 10
6937.207999999998
 20
4775.086999999998
 30
0.0
 11
6940.393
 21
4824.985999999999
 31
0.0
  0
LINE
  5
DB8
330
1E
100
AcDbEntity
  8
0
  6
Continuous
 62
     7
370
    13
100
AcDbLine
 10
6975.911
 20
4797.667999999997
 30
0.0
 11
6986.481000000001
 21
4785.655999999998
 31
0.0
  0
LINE
  5
DB9
330
1E
100
AcDbEntity
  8
0
  6
Continuous
 62
     7
370
    13
100
AcDbLine
 10
6987.922999999999
 20
4808.237999999999
 30
0.0
 11
6998.492999999999
 21
4796.225999999997
 31
0.0
  0
ARC
  5
DBA
330
1E
100
AcDbEntity
  8
0
  6
Continuous
 62
     7
370
    13
100
AcDbCircle
 10
6981.916999999997
 20
4802.952999999998
 30
0.0
 40
8.0
100
AcDbArc
 50
41.34627099996595
 51
221.346270000026
  0
ARC
  5
DBB
330
1E
100
AcDbEntity
  8
0
  6
Continuous
 62
     7
370
    13
100
AcDbCircle
 10
6992.487000000001
 20
4790.940999999998
 30
0.0
 40
8.0
100
AcDbArc
 50
221.346270000026
 51
41.34627099996595
  0
LINE
  5
DBC
330
1E
100
AcDbEntity
  8
0
  6
Continuous
 62
     7
370
    13
100
AcDbLine
 10
6984.115999999999
 20
4748.597999999998
 30
0.0
 11
6990.421999999999
 21
4847.398999999995
 31
0.0
  0
LINE
  5
DBD
330
1E
100
AcDbEntity
  8
0
  6
Continuous
 62
     7
370
    13
100
AcDbLine
 10
6916.707999999998
 20
4801.445999999998
 30
0.0
 11
7056.837
 21
4792.501999999998
 31
0.0
  0
LINE
  5
DBE
330
1E
100
AcDbEntity
  8
0
  6
HIDDEN
 62
     7
370
    13
100
AcDbLine
 10
6537.202
 20
5453.020999999999
 30
0.0
 11
6657.201999999998
 21
5453.020999999999
 31
0.0
  0
LINE
  5
DBF
330
1E
100
AcDbEntity
  8
0
  6
HIDDEN
 62
     7
370
    13
100
AcDbLine
 10
6537.202
 20
5378.020999999999
 30
0.0
 11
6658.764999999995
 21
5378.020999999999
 31
0.0
  0
LINE
  5
DC0
330
1E
100
AcDbEntity
  8
0
  6
Continuous
 62
     7
370
    13
100
AcDbLine
 10
6481.253999999997
 20
5415.520999999999
 30
0.0
 11
6582.251000000001
 21
5415.520999999999
 31
0.0
  0
LINE
  5
DC1
330
1E
100
AcDbEntity
  8
0
  6
Continuous
 62
     7
370
    13
100
AcDbLine
 10
6595.185999999998
 20
5415.520999999999
 30
0.0
 11
6597.937999999998
 21
5415.520999999999
 31
0.0
  0
LINE
  5
DC2
330
1E
100
AcDbEntity
  8
0
  6
Continuous
 62
     7
370
    13
100
AcDbLine
 10
6609.134000000001
 20
5415.520999999999
 30
0.0
 11
6709.941999999999
 21
5415.520999999999
 31
0.0
  0
LINE
  5
DC3
330
1E
100
AcDbEntity
  8
0
  6
Continuous
 62
     7
370
    13
100
AcDbLine
 10
7087.201999999997
 20
4715.520999999997
 30
0.0
 11
7087.201999999997
 21
4826.192999999999
 31
0.0
  0
LINE
  5
DC4
330
1E
100
AcDbEntity
  8
0
  6
Continuous
 62
     7
370
    13
100
AcDbLine
 10
6672.202000000002
 20
5098.226999999997
 30
0.0
 11
6752.202000000001
 21
5098.226999999997
 31
0.0
  0
LINE
  5
DC5
330
1E
100
AcDbEntity
  8
0
  6
Continuous
 62
     7
370
    13
100
AcDbLine
 10
6752.202000000001
 20
4870.520999999998
 30
0.0
 11
6752.202000000001
 21
5118.226999999999
 31
0.0
  0
LINE
  5
DC6
330
1E
100
AcDbEntity
  8
0
  6
Continuous
 62
     7
370
    13
100
AcDbLine
 10
6672.202000000002
 20
4950.520999999998
 30
0.0
 11
6672.202000000002
 21
5118.226999999999
 31
0.0
  0
LINE
  5
DC7
330
1E
100
AcDbEntity
  8
0
  6
Continuous
 62
     7
370
    13
100
AcDbLine
 10
6726.201999999998
 20
5091.256199999998
 30
0.0
 11
6752.202000000001
 21
5098.222999999998
 31
0.0
  0
LINE
  5
DC8
330
1E
100
AcDbEntity
  8
0
  6
Continuous
 62
     7
370
    13
100
AcDbLine
 10
6752.202000000001
 20
5098.222999999998
 30
0.0
 11
6726.201999999998
 21
5105.189599999998
 31
0.0
  0
LINE
  5
DC9
330
1E
100
AcDbEntity
  8
0
  6
Continuous
 62
     7
370
    13
100
AcDbLine
 10
6698.202000000001
 20
5105.189599999998
 30
0.0
 11
6672.202000000002
 21
5098.222999999998
 31
0.0
  0
LINE
  5
DCA
330
1E
100
AcDbEntity
  8
0
  6
Continuous
 62
     7
370
    13
100
AcDbLine
 10
6672.202000000002
 20
5098.222999999998
 30
0.0
 11
6698.202000000001
 21
5091.256199999998
 31
0.0
  0
TEXT
  5
DCB
330
1E
100
AcDbEntity
  8
0
  6
Continuous
 62
     7
370
    13
100
AcDbText
 10
6676.690154583027
 20
5110.226999999998
 30
0.0
 40
64.0
  1
80
 41
0.875
  7
BIGFONT
100
AcDbText
  0
LINE
  5
DCC
330
1E
100
AcDbEntity
  8
0
  6
Continuous
 62
     7
370
    13
100
AcDbLine
 10
6892.778999999999
 20
4850.520999999996
 30
0.0
 11
6892.778999999999
 21
4930.520999999996
 31
0.0
  0
LINE
  5
DCD
330
1E
100
AcDbEntity
  8
0
  6
Continuous
 62
     7
370
    13
100
AcDbLine
 10
6692.202000000001
 20
4930.520999999996
 30
0.0
 11
6912.778999999999
 21
4930.520999999996
 31
0.0
  0
LINE
  5
DCE
330
1E
100
AcDbEntity
  8
0
  6
Continuous
 62
     7
370
    13
100
AcDbLine
 10
6772.201999999997
 20
4850.520999999996
 30
0.0
 11
6912.778999999999
 21
4850.520999999996
 31
0.0
  0
LINE
  5
DCF
330
1E
100
AcDbEntity
  8
0
  6
Continuous
 62
     7
370
    13
100
AcDbLine
 10
6899.728599999999
 20
4904.502999999999
 30
0.0
 11
6892.762000000003
 21
4930.502999999998
 31
0.0
  0
LINE
  5
DD0
330
1E
100
AcDbEntity
  8
0
  6
Continuous
 62
     7
370
    13
100
AcDbLine
 10
6892.762000000003
 20
4930.502999999998
 30
0.0
 11
6885.795200000001
 21
4904.502999999999
 31
0.0
  0
LINE
  5
DD1
330
1E
100
AcDbEntity
  8
0
  6
Continuous
 62
     7
370
    13
100
AcDbLine
 10
6885.795200000001
 20
4876.502999999999
 30
0.0
 11
6892.762000000003
 21
4850.502999999996
 31
0.0
  0
LINE
  5
DD2
330
1E
100
AcDbEntity
  8
0
  6
Continuous
 62
     7
370
    13
100
AcDbLine
 10
6892.762000000003
 20
4850.502999999996
 30
0.0
 11
6899.728599999999
 21
4876.502999999999
 31
0.0
  0
TEXT
  5
DD3
330
1E
100
AcDbEntity
  8
0
  6
Continuous
 62
     7
370
    13
100
AcDbText
 10
6880.779000000003
 20
4857.546034948271
 30
0.0
 40
64.0
  1
80
 50
90.0
 41
0.875
  7
BIGFONT
100
AcDbText
  0
ARC
  5
DD4
330
1E
100
AcDbEntity
  8
0
  6
Continuous
 62
     7
370
    13
100
AcDbCircle
 10
6648.202000000001
 20
5956.520999999998
 30
0.0
 40
9.0
100
AcDbArc
 50
0.0
 51
90.0
  0
ARC
  5
DD5
330
1E
100
AcDbEntity
  8
0
  6
Continuous
 62
     7
370
    13
100
AcDbCircle
 10
6546.201999999998
 20
5956.520999999998
 30
0.0
 40
9.0
100
AcDbArc
 50
90.0
 51
180.0
  0
LINE
  5
DD6
330
1E
100
AcDbEntity
  8
0
  6
Continuous
 62
     7
370
    13
100
AcDbLine
 10
6537.202
 20
4965.512999999998
 30
0.0
 11
6667.564999999999
 21
4965.513999999998
 31
0.0
  0
LINE
  5
DD7
330
1E
100
AcDbEntity
  8
0
  6
Continuous
 62
     7
370
    13
100
AcDbLine
 10
6537.202
 20
5565.520999999999
 30
0.0
 11
6657.201999999998
 21
5565.520999999999
 31
0.0
  0
LINE
  5
DD8
330
1E
100
AcDbEntity
  8
0
  6
Continuous
 62
     7
370
    13
100
AcDbLine
 10
6187.201999999998
 20
4715.520999999997
 30
0.0
 11
6187.201999999998
 21
4965.512999999998
 31
0.0
  0
LINE
  5
DD9
330
1E
100
AcDbEntity
  8
0
  6
Continuous
 62
     7
370
    13
100
AcDbLine
 10
6517.202000000001
 20
4965.512999999998
 30
0.0
 11
6167.201999999997
 21
4965.512999999998
 31
0.0
  0
LINE
  5
DDA
330
1E
100
AcDbEntity
  8
0
  6
Continuous
 62
     7
370
    13
100
AcDbLine
 10
6187.201999999998
 20
4715.520999999997
 30
0.0
 11
6187.201999999998
 21
4715.520999999997
 31
0.0
  0
LINE
  5
DDB
330
1E
100
AcDbEntity
  8
0
  6
Continuous
 62
     7
370
    13
100
AcDbLine
 10
6194.168600000001
 20
4939.502999999999
 30
0.0
 11
6187.201999999998
 21
4965.502999999998
 31
0.0
  0
LINE
  5
DDC
330
1E
100
AcDbEntity
  8
0
  6
Continuous
 62
     7
370
    13
100
AcDbLine
 10
6187.201999999998
 20
4965.502999999998
 30
0.0
 11
6180.235199999999
 21
4939.502999999999
 31
0.0
  0
LINE
  5
DDD
330
1E
100
AcDbEntity
  8
0
  6
Continuous
 62
     7
370
    13
100
AcDbLine
 10
6180.235199999999
 20
4741.502999999998
 30
0.0
 11
6187.201999999998
 21
4715.502999999998
 31
0.0
  0
LINE
  5
DDE
330
1E
100
AcDbEntity
  8
0
  6
Continuous
 62
     7
370
    13
100
AcDbLine
 10
6187.201999999998
 20
4715.502999999998
 30
0.0
 11
6194.168600000001
 21
4741.502999999998
 31
0.0
  0
TEXT
  5
DDF
330
1E
100
AcDbEntity
  8
0
  6
Continuous
 62
     7
370
    13
100
AcDbText
 10
6175.201999999997
 20
4756.516999999997
 30
0.0
 40
64.0
  1
250
 50
90.0
 41
0.875
  7
BIGFONT
100
AcDbText
  0
LINE
  5
DE0
330
1E
100
AcDbEntity
  8
0
  6
Continuous
 62
     7
370
    13
100
AcDbLine
 10
6187.201999999998
 20
4965.512999999998
 30
0.0
 11
6187.201999999998
 21
5565.520999999999
 31
0.0
  0
LINE
  5
DE1
330
1E
100
AcDbEntity
  8
0
  6
Continuous
 62
     7
370
    13
100
AcDbLine
 10
6517.202000000001
 20
5565.520999999999
 30
0.0
 11
6167.201999999997
 21
5565.520999999999
 31
0.0
  0
LINE
  5
DE2
330
1E
100
AcDbEntity
  8
0
  6
Continuous
 62
     7
370
    13
100
AcDbLine
 10
6194.168600000001
 20
5539.502999999997
 30
0.0
 11
6187.201999999998
 21
5565.502999999999
 31
0.0
  0
LINE
  5
DE3
330
1E
100
AcDbEntity
  8
0
  6
Continuous
 62
     7
370
    13
100
AcDbLine
 10
6187.201999999998
 20
5565.502999999999
 30
0.0
 11
6180.235199999999
 21
5539.502999999997
 31
0.0
  0
LINE
  5
DE4
330
1E
100
AcDbEntity
  8
0
  6
Continuous
 62
     7
370
    13
100
AcDbLine
 10
6180.235199999999
 20
4991.502999999998
 30
0.0
 11
6187.201999999998
 21
4965.502999999998
 31
0.0
  0
LINE
  5
DE5
330
1E
100
AcDbEntity
  8
0
  6
Continuous
 62
     7
370
    13
100
AcDbLine
 10
6187.201999999998
 20
4965.502999999998
 30
0.0
 11
6194.168600000001
 21
4991.502999999998
 31
0.0
  0
TEXT
  5
DE6
330
1E
100
AcDbEntity
  8
0
  6
Continuous
 62
     7
370
    13
100
AcDbText
 10
6175.201999999997
 20
5181.516999999999
 30
0.0
 40
64.0
  1
600
 50
90.0
 41
0.875
  7
BIGFONT
100
AcDbText
  0
LINE
  5
DE7
330
1E
100
AcDbEntity
  8
0
  6
Continuous
 62
     7
370
    13
100
AcDbLine
 10
6187.201999999998
 20
5565.520999999999
 30
0.0
 11
6187.201999999998
 21
5965.520999999998
 31
0.0
  0
LINE
  5
DE8
330
1E
100
AcDbEntity
  8
0
  6
Continuous
 62
     7
370
    13
100
AcDbLine
 10
6187.201999999998
 20
5965.520999999998
 30
0.0
 11
6187.201999999998
 21
5965.520999999998
 31
0.0
  0
LINE
  5
DE9
330
1E
100
AcDbEntity
  8
0
  6
Continuous
 62
     7
370
    13
100
AcDbLine
 10
6194.168600000001
 20
5939.502999999999
 30
0.0
 11
6187.201999999998
 21
5965.502999999999
 31
0.0
  0
LINE
  5
DEA
330
1E
100
AcDbEntity
  8
0
  6
Continuous
 62
     7
370
    13
100
AcDbLine
 10
6187.201999999998
 20
5965.502999999999
 30
0.0
 11
6180.235199999999
 21
5939.502999999999
 31
0.0
  0
LINE
  5
DEB
330
1E
100
AcDbEntity
  8
0
  6
Continuous
 62
     7
370
    13
100
AcDbLine
 10
6180.235199999999
 20
5591.502999999998
 30
0.0
 11
6187.201999999998
 21
5565.502999999999
 31
0.0
  0
LINE
  5
DEC
330
1E
100
AcDbEntity
  8
0
  6
Continuous
 62
     7
370
    13
100
AcDbLine
 10
6187.201999999998
 20
5565.502999999999
 30
0.0
 11
6194.168600000001
 21
5591.502999999998
 31
0.0
  0
TEXT
  5
DED
330
1E
100
AcDbEntity
  8
0
  6
Continuous
 62
     7
370
    13
100
AcDbText
 10
6175.201999999997
 20
5681.520999999998
 30
0.0
 40
64.0
  1
400
 50
90.0
 41
0.875
  7
BIGFONT
100
AcDbText
  0
LINE
  5
DEE
330
1E
100
AcDbEntity
  8
0
  6
Continuous
 62
     7
370
    13
100
AcDbLine
 10
6672.202000000002
 20
4215.520999999997
 30
0.0
 11
7437.201999999998
 21
4215.520999999997
 31
0.0
  0
LINE
  5
DEF
330
1E
100
AcDbEntity
  8
0
  6
Continuous
 62
     7
370
    13
100
AcDbLine
 10
7437.201999999998
 20
4215.520999999997
 30
0.0
 11
7437.201999999998
 21
4215.520999999997
 31
0.0
  0
LINE
  5
DF0
330
1E
100
AcDbEntity
  8
0
  6
Continuous
 62
     7
370
    13
100
AcDbLine
 10
6672.202000000002
 20
4215.520999999997
 30
0.0
 11
6672.202000000002
 21
4215.520999999997
 31
0.0
  0
LINE
  5
DF1
330
1E
100
AcDbEntity
  8
0
  6
Continuous
 62
     7
370
    13
100
AcDbLine
 10
7411.202000000002
 20
4208.536199999997
 30
0.0
 11
7437.201999999998
 21
4215.502999999998
 31
0.0
  0
LINE
  5
DF2
330
1E
100
AcDbEntity
  8
0
  6
Continuous
 62
     7
370
    13
100
AcDbLine
 10
7437.201999999998
 20
4215.502999999998
 30
0.0
 11
7411.202000000002
 21
4222.469599999996
 31
0.0
  0
LINE
  5
DF3
330
1E
100
AcDbEntity
  8
0
  6
Continuous
 62
     7
370
    13
100
AcDbLine
 10
6698.202000000001
 20
4222.469599999996
 30
0.0
 11
6672.202000000002
 21
4215.502999999998
 31
0.0
  0
LINE
  5
DF4
330
1E
100
AcDbEntity
  8
0
  6
Continuous
 62
     7
370
    13
100
AcDbLine
 10
6672.202000000002
 20
4215.502999999998
 30
0.0
 11
6698.202000000001
 21
4208.536199999997
 31
0.0
  0
TEXT
  5
DF5
330
1E
100
AcDbEntity
  8
0
  6
Continuous
 62
     7
370
    13
100
AcDbText
 10
6970.702000000001
 20
4227.520999999998
 30
0.0
 40
64.0
  1
765
 41
0.875
  7
BIGFONT
100
AcDbText
  0
LINE
  5
DF6
330
1E
100
AcDbEntity
  8
0
  6
Continuous
 62
     7
370
    13
100
AcDbLine
 10
6655.208999999999
 20
5962.169999999997
 30
0.0
 11
6776.836999999999
 21
6128.791999999998
 31
0.0
  0
LINE
  5
DF7
330
1E
100
AcDbEntity
  8
0
  6
Continuous
 62
     7
370
    13
100
AcDbLine
 10
6664.904399999999
 20
5987.270599999998
 30
0.0
 11
6655.201999999997
 21
5962.162999999998
 31
0.0
  0
LINE
  5
DF8
330
1E
100
AcDbEntity
  8
0
  6
Continuous
 62
     7
370
    13
100
AcDbLine
 10
6655.201999999997
 20
5962.162999999998
 30
0.0
 11
6676.158200000002
 21
5979.055599999998
 31
0.0
  0
LINE
  5
DF9
330
1E
100
AcDbEntity
  8
0
  6
Continuous
 62
     7
370
    13
100
AcDbLine
 10
6776.836999999999
 20
6128.791999999998
 30
0.0
 11
7103.21159232617
 21
6128.791999999998
 31
0.0
  0
TEXT
  5
DFA
330
1E
100
AcDbEntity
  8
0
  6
Continuous
 62
     7
370
    13
100
AcDbText
 10
6776.836999999999
 20
6140.791999999997
 30
0.0
 40
64.0
  1
９　面取り
 41
0.875
  7
BIGFONT
100
AcDbText
  0
TEXT
  5
DFB
330
1E
100
AcDbEntity
  8
0
  6
Continuous
 62
     7
370
    13
100
AcDbText
 10
6827.253
 20
6173.334999999997
 30
0.0
 40
50.0
  1
ｃ
  7
BIGFONT
100
AcDbText
  0
LINE
  5
DFC
330
1E
100
AcDbEntity
  8
0
  6
Continuous
 62
     7
370
    13
100
AcDbLine
 10
6538.918000000001
 20
5961.806999999998
 30
0.0
 11
6426.274000000001
 21
6129.240999999996
 31
0.0
  0
LINE
  5
DFD
330
1E
100
AcDbEntity
  8
0
  6
Continuous
 62
     7
370
    13
100
AcDbLine
 10
6518.608399999997
 20
5979.486399999998
 30
0.0
 11
6538.901999999999
 21
5961.802999999996
 31
0.0
  0
LINE
  5
DFE
330
1E
100
AcDbEntity
  8
0
  6
Continuous
 62
     7
370
    13
100
AcDbLine
 10
6538.901999999999
 20
5961.802999999996
 30
0.0
 11
6530.168999999998
 21
5987.263999999997
 31
0.0
  0
LINE
  5
DFF
330
1E
100
AcDbEntity
  8
0
  6
Continuous
 62
     7
370
    13
100
AcDbLine
 10
6426.274000000001
 20
6129.240999999996
 30
0.0
 11
6107.741643909332
 21
6129.240999999996
 31
0.0
  0
TEXT
  5
E00
330
1E
100
AcDbEntity
  8
0
  6
Continuous
 62
     7
370
    13
100
AcDbText
 10
6113.483360683702
 20
6141.240999999997
 30
0.0
 40
64.0
  1
９　面取り
 41
0.875
  7
BIGFONT
100
AcDbText
  0
TEXT
  5
E01
330
1E
100
AcDbEntity
  8
0
  6
Continuous
 62
     7
370
    13
100
AcDbText
 10
6166.128360683702
 20
6173.338999999996
 30
0.0
 40
50.0
  1
ｃ
  7
BIGFONT
100
AcDbText
  0
LINE
  5
E02
330
1E
100
AcDbEntity
  8
0
  6
Continuous
 62
     7
370
    13
100
AcDbLine
 10
6037.202000000001
 20
4850.520999999996
 30
0.0
 11
6037.202000000001
 21
5965.520999999998
 31
0.0
  0
LINE
  5
E03
330
1E
100
AcDbEntity
  8
0
  6
Continuous
 62
     7
370
    13
100
AcDbLine
 10
6113.369999999999
 20
5965.520999999998
 30
0.0
 11
6017.202000000001
 21
5965.520999999998
 31
0.0
  0
LINE
  5
E04
330
1E
100
AcDbEntity
  8
0
  6
Continuous
 62
     7
370
    13
100
AcDbLine
 10
6047.478999999999
 20
4850.520999999996
 30
0.0
 11
6017.202000000001
 21
4850.520999999996
 31
0.0
  0
LINE
  5
E05
330
1E
100
AcDbEntity
  8
0
  6
Continuous
 62
     7
370
    13
100
AcDbLine
 10
6044.168600000001
 20
5939.502999999999
 30
0.0
 11
6037.202000000001
 21
5965.502999999999
 31
0.0
  0
LINE
  5
E06
330
1E
100
AcDbEntity
  8
0
  6
Continuous
 62
     7
370
    13
100
AcDbLine
 10
6037.202000000001
 20
5965.502999999999
 30
0.0
 11
6030.235199999999
 21
5939.502999999999
 31
0.0
  0
LINE
  5
E07
330
1E
100
AcDbEntity
  8
0
  6
Continuous
 62
     7
370
    13
100
AcDbLine
 10
6030.235199999999
 20
4876.502999999999
 30
0.0
 11
6037.202000000001
 21
4850.502999999996
 31
0.0
  0
LINE
  5
E08
330
1E
100
AcDbEntity
  8
0
  6
Continuous
 62
     7
370
    13
100
AcDbLine
 10
6037.202000000001
 20
4850.502999999996
 30
0.0
 11
6044.168600000001
 21
4876.502999999999
 31
0.0
  0
TEXT
  5
E09
330
1E
100
AcDbEntity
  8
0
  6
Continuous
 62
     7
370
    13
100
AcDbText
 10
6025.202000000001
 20
5296.020999999999
 30
0.0
 40
64.0
  1
1115
 50
90.0
 41
0.875
  7
BIGFONT
100
AcDbText
  0
LINE
  5
E0A
330
1E
100
AcDbEntity
  8
0
  6
Continuous
 62
     7
370
    13
100
AcDbLine
 10
6337.202000000001
 20
5635.587999999998
 30
0.0
 11
6337.202000000001
 21
5965.520999999998
 31
0.0
  0
LINE
  5
E0B
330
1E
100
AcDbEntity
  8
0
  6
Continuous
 62
     7
370
    13
100
AcDbLine
 10
6347.897000000001
 20
5965.520999999998
 30
0.0
 11
6317.201999999998
 21
5965.520999999998
 31
0.0
  0
LINE
  5
E0C
330
1E
100
AcDbEntity
  8
0
  6
Continuous
 62
     7
370
    13
100
AcDbLine
 10
6517.202000000001
 20
5635.587999999998
 30
0.0
 11
6317.201999999998
 21
5635.587999999998
 31
0.0
  0
LINE
  5
E0D
330
1E
100
AcDbEntity
  8
0
  6
Continuous
 62
     7
370
    13
100
AcDbLine
 10
6344.168600000001
 20
5939.502999999999
 30
0.0
 11
6337.202000000001
 21
5965.502999999999
 31
0.0
  0
LINE
  5
E0E
330
1E
100
AcDbEntity
  8
0
  6
Continuous
 62
     7
370
    13
100
AcDbLine
 10
6337.202000000001
 20
5965.502999999999
 30
0.0
 11
6330.235199999999
 21
5939.502999999999
 31
0.0
  0
LINE
  5
E0F
330
1E
100
AcDbEntity
  8
0
  6
Continuous
 62
     7
370
    13
100
AcDbLine
 10
6330.235199999999
 20
5661.582999999999
 30
0.0
 11
6337.202000000001
 21
5635.582999999997
 31
0.0
  0
LINE
  5
E10
330
1E
100
AcDbEntity
  8
0
  6
Continuous
 62
     7
370
    13
100
AcDbLine
 10
6337.202000000001
 20
5635.582999999997
 30
0.0
 11
6344.168600000001
 21
5661.582999999999
 31
0.0
  0
TEXT
  5
E11
330
1E
100
AcDbEntity
  8
0
  6
Continuous
 62
     7
370
    13
100
AcDbText
 10
6325.201999999997
 20
5716.554399999997
 30
0.0
 40
64.0
  1
330
 50
90.0
 41
0.875
  7
BIGFONT
100
AcDbText
  0
LINE
  5
E12
330
1E
100
AcDbEntity
  8
0
  6
Continuous
 62
     7
370
    13
100
AcDbLine
 10
6986.481000000001
 20
4515.520999999996
 30
0.0
 11
7437.201999999998
 21
4515.520999999996
 31
0.0
  0
LINE
  5
E13
330
1E
100
AcDbEntity
  8
0
  6
Continuous
 62
     7
370
    13
100
AcDbLine
 10
7437.201999999998
 20
4530.049999999998
 30
0.0
 11
7437.201999999998
 21
4495.520999999998
 31
0.0
  0
LINE
  5
E14
330
1E
100
AcDbEntity
  8
0
  6
Continuous
 62
     7
370
    13
100
AcDbLine
 10
6986.481000000001
 20
4695.520999999998
 30
0.0
 11
6986.481000000001
 21
4495.520999999998
 31
0.0
  0
LINE
  5
E15
330
1E
100
AcDbEntity
  8
0
  6
Continuous
 62
     7
370
    13
100
AcDbLine
 10
7411.202000000002
 20
4508.536199999999
 30
0.0
 11
7437.201999999998
 21
4515.502999999997
 31
0.0
  0
LINE
  5
E16
330
1E
100
AcDbEntity
  8
0
  6
Continuous
 62
     7
370
    13
100
AcDbLine
 10
7437.201999999998
 20
4515.502999999997
 30
0.0
 11
7411.202000000002
 21
4522.469599999999
 31
0.0
  0
LINE
  5
E17
330
1E
100
AcDbEntity
  8
0
  6
Continuous
 62
     7
370
    13
100
AcDbLine
 10
7012.461999999999
 20
4522.469599999999
 30
0.0
 11
6986.462
 21
4515.502999999997
 31
0.0
  0
LINE
  5
E18
330
1E
100
AcDbEntity
  8
0
  6
Continuous
 62
     7
370
    13
100
AcDbLine
 10
6986.462
 20
4515.502999999997
 30
0.0
 11
7012.461999999999
 21
4508.536199999999
 31
0.0
  0
TEXT
  5
E19
330
1E
100
AcDbEntity
  8
0
  6
Continuous
 62
     7
370
    13
100
AcDbText
 10
7127.841400000001
 20
4527.520999999998
 30
0.0
 40
64.0
  1
450
 41
0.875
  7
BIGFONT
100
AcDbText
  0
LINE
  5
E1A
330
1E
100
AcDbEntity
  8
0
  6
Continuous
 62
     7
370
    13
100
AcDbLine
 10
6887.201999999998
 20
5222.520999999998
 30
0.0
 11
6887.201999999998
 21
5966.654999999996
 31
0.0
  0
LINE
  5
E1B
330
1E
100
AcDbEntity
  8
0
  6
Continuous
 62
     7
370
    13
100
AcDbLine
 10
6678.482999999997
 20
5966.654999999996
 30
0.0
 11
6907.201999999998
 21
5966.654999999996
 31
0.0
  0
LINE
  5
E1C
330
1E
100
AcDbEntity
  8
0
  6
Continuous
 62
     7
370
    13
100
AcDbLine
 10
6677.202000000001
 20
5222.520999999998
 30
0.0
 11
6907.201999999998
 21
5222.520999999998
 31
0.0
  0
LINE
  5
E1D
330
1E
100
AcDbEntity
  8
0
  6
Continuous
 62
     7
370
    13
100
AcDbLine
 10
6894.1686
 20
5940.642999999997
 30
0.0
 11
6887.201999999998
 21
5966.642999999996
 31
0.0
  0
LINE
  5
E1E
330
1E
100
AcDbEntity
  8
0
  6
Continuous
 62
     7
370
    13
100
AcDbLine
 10
6887.201999999998
 20
5966.642999999996
 30
0.0
 11
6880.2352
 21
5940.642999999997
 31
0.0
  0
LINE
  5
E1F
330
1E
100
AcDbEntity
  8
0
  6
Continuous
 62
     7
370
    13
100
AcDbLine
 10
6880.2352
 20
5248.502999999999
 30
0.0
 11
6887.201999999998
 21
5222.502999999997
 31
0.0
  0
LINE
  5
E20
330
1E
100
AcDbEntity
  8
0
  6
Continuous
 62
     7
370
    13
100
AcDbLine
 10
6887.201999999998
 20
5222.502999999997
 30
0.0
 11
6894.1686
 21
5248.502999999999
 31
0.0
  0
TEXT
  5
E21
330
1E
100
AcDbEntity
  8
0
  6
Continuous
 62
     7
370
    13
100
AcDbText
 10
6875.202000000001
 20
5510.587999999998
 30
0.0
 40
64.0
  1
743
 50
90.0
 41
0.875
  7
BIGFONT
100
AcDbText
  0
LINE
  5
E22
330
1E
100
AcDbEntity
  8
0
  6
Continuous
 62
     7
370
    13
100
AcDbLine
 10
6669.149999999998
 20
4847.488999999995
 30
0.0
 11
6709.111000000001
 21
4846.685999999999
 31
0.0
  0
LINE
  5
E23
330
1E
100
AcDbEntity
  8
0
  6
Continuous
 62
     7
370
    13
100
AcDbLine
 10
6669.068999999999
 20
4886.786999999998
 30
0.0
 11
6669.149999999998
 21
4847.488999999995
 31
0.0
  0
LINE
  5
E24
330
1E
100
AcDbEntity
  8
0
  6
Continuous
 62
     7
370
    13
100
AcDbLine
 10
8439.901999999998
 20
4727.520999999998
 30
0.0
 11
8439.901999999998
 21
5005.520999999998
 31
0.0
  0
LINE
  5
E25
330
1E
100
AcDbEntity
  8
0
  6
Continuous
 62
     7
370
    13
100
AcDbLine
 10
8439.901999999998
 20
5005.520999999998
 30
0.0
 11
8442.901999999998
 21
5008.520999999999
 31
0.0
  0
LINE
  5
E26
330
1E
100
AcDbEntity
  8
0
  6
Continuous
 62
     7
370
    13
100
AcDbLine
 10
8442.901999999998
 20
5008.520999999999
 30
0.0
 11
8442.901999999998
 21
5562.520999999998
 31
0.0
  0
LINE
  5
E27
330
1E
100
AcDbEntity
  8
0
  6
Continuous
 62
     7
370
    13
100
AcDbLine
 10
8439.901999999998
 20
5565.520999999999
 30
0.0
 11
8442.901999999998
 21
5562.520999999998
 31
0.0
  0
LINE
  5
E28
330
1E
100
AcDbEntity
  8
0
  6
Continuous
 62
     7
370
    13
100
AcDbLine
 10
8439.901999999998
 20
5565.520999999999
 30
0.0
 11
8439.901999999998
 21
5965.520999999998
 31
0.0
  0
LINE
  5
E29
330
1E
100
AcDbEntity
  8
0
  6
Continuous
 62
     7
370
    13
100
AcDbLine
 10
8439.901999999998
 20
5965.520999999998
 30
0.0
 11
10434.90199999999
 21
5965.520999999998
 31
0.0
  0
LINE
  5
E2A
330
1E
100
AcDbEntity
  8
0
  6
Continuous
 62
     7
370
    13
100
AcDbLine
 10
10434.90199999999
 20
5565.520999999999
 30
0.0
 11
10434.90199999999
 21
5965.520999999998
 31
0.0
  0
LINE
  5
E2B
330
1E
100
AcDbEntity
  8
0
  6
Continuous
 62
     7
370
    13
100
AcDbLine
 10
10431.902
 20
5562.520999999998
 30
0.0
 11
10434.90199999999
 21
5565.520999999999
 31
0.0
  0
LINE
  5
E2C
330
1E
100
AcDbEntity
  8
0
  6
Continuous
 62
     7
370
    13
100
AcDbLine
 10
10431.902
 20
5008.520999999999
 30
0.0
 11
10431.902
 21
5562.520999999998
 31
0.0
  0
LINE
  5
E2D
330
1E
100
AcDbEntity
  8
0
  6
Continuous
 62
     7
370
    13
100
AcDbLine
 10
10431.902
 20
5008.520999999999
 30
0.0
 11
10434.90199999999
 21
5005.520999999998
 31
0.0
  0
LINE
  5
E2E
330
1E
100
AcDbEntity
  8
0
  6
Continuous
 62
     7
370
    13
100
AcDbLine
 10
10434.90199999999
 20
4727.520999999998
 30
0.0
 11
10434.90199999999
 21
5005.520999999998
 31
0.0
  0
LINE
  5
E2F
330
1E
100
AcDbEntity
  8
0
  6
Continuous
 62
     7
370
    13
100
AcDbLine
 10
8451.901999999998
 20
4715.520999999997
 30
0.0
 11
10422.90199999999
 21
4715.520999999997
 31
0.0
  0
LINE
  5
E30
330
1E
100
AcDbEntity
  8
0
  6
Continuous
 62
     7
370
    13
100
AcDbLine
 10
8439.901999999998
 20
4845.822999999999
 30
0.0
 11
10434.90199999999
 21
4845.822999999999
 31
0.0
  0
LINE
  5
E31
330
1E
100
AcDbEntity
  8
0
  6
Continuous
 62
     7
370
    13
100
AcDbLine
 10
8439.901999999998
 20
4930.455999999998
 30
0.0
 11
10434.90199999999
 21
4930.455999999998
 31
0.0
  0
LINE
  5
E32
330
1E
100
AcDbEntity
  8
0
  6
Continuous
 62
     7
370
    13
100
AcDbLine
 10
8439.901999999998
 20
4804.882999999998
 30
0.0
 11
10434.90199999999
 21
4804.882999999998
 31
0.0
  0
LINE
  5
E33
330
1E
100
AcDbEntity
  8
0
  6
Continuous
 62
     7
370
    13
100
AcDbLine
 10
8439.901999999998
 20
4727.520999999998
 30
0.0
 11
8451.901999999998
 21
4715.520999999997
 31
0.0
  0
LINE
  5
E34
330
1E
100
AcDbEntity
  8
0
  6
Continuous
 62
     7
370
    13
100
AcDbLine
 10
10422.90199999999
 20
4715.520999999997
 30
0.0
 11
10434.90199999999
 21
4727.520999999998
 31
0.0
  0
LINE
  5
E35
330
1E
100
AcDbEntity
  8
0
  6
Continuous
 62
     7
370
    13
100
AcDbLine
 10
8439.901999999998
 20
4065.520999999998
 30
0.0
 11
10434.90199999999
 21
4065.520999999998
 31
0.0
  0
LINE
  5
E36
330
1E
100
AcDbEntity
  8
0
  6
Continuous
 62
     7
370
    13
100
AcDbLine
 10
10434.90199999999
 20
4695.520999999998
 30
0.0
 11
10434.90199999999
 21
4045.520999999999
 31
0.0
  0
LINE
  5
E37
330
1E
100
AcDbEntity
  8
0
  6
Continuous
 62
     7
370
    13
100
AcDbLine
 10
8439.901999999998
 20
4695.520999999998
 30
0.0
 11
8439.901999999998
 21
4045.520999999999
 31
0.0
  0
LINE
  5
E38
330
1E
100
AcDbEntity
  8
0
  6
Continuous
 62
     7
370
    13
100
AcDbLine
 10
10408.90199999999
 20
4058.536199999998
 30
0.0
 11
10434.90199999999
 21
4065.502999999998
 31
0.0
  0
LINE
  5
E39
330
1E
100
AcDbEntity
  8
0
  6
Continuous
 62
     7
370
    13
100
AcDbLine
 10
10434.90199999999
 20
4065.502999999998
 30
0.0
 11
10408.90199999999
 21
4072.469599999998
 31
0.0
  0
LINE
  5
E3A
330
1E
100
AcDbEntity
  8
0
  6
Continuous
 62
     7
370
    13
100
AcDbLine
 10
8465.901999999998
 20
4072.469599999998
 30
0.0
 11
8439.901999999998
 21
4065.502999999998
 31
0.0
  0
LINE
  5
E3B
330
1E
100
AcDbEntity
  8
0
  6
Continuous
 62
     7
370
    13
100
AcDbLine
 10
8439.901999999998
 20
4065.502999999998
 30
0.0
 11
8465.901999999998
 21
4058.536199999998
 31
0.0
  0
TEXT
  5
E3C
330
1E
100
AcDbEntity
  8
0
  6
Continuous
 62
     7
370
    13
100
AcDbText
 10
9325.401999999998
 20
4077.520999999999
 30
0.0
 40
64.0
  1
1995
 41
0.875
  7
BIGFONT
100
AcDbText
  0
LINE
  5
E3D
330
1E
100
AcDbEntity
  8
0
  6
Continuous
 62
     7
370
    13
100
AcDbLine
 10
8445.901999999998
 20
5600.520999999997
 30
0.0
 11
8445.901999999998
 21
5670.520999999998
 31
0.0
  0
LINE
  5
E3E
330
1E
100
AcDbEntity
  8
0
  6
Continuous
 62
     7
370
    13
100
AcDbLine
 10
8445.901999999998
 20
5600.520999999997
 30
0.0
 11
8525.901999999998
 21
5600.520999999997
 31
0.0
  0
LINE
  5
E3F
330
1E
100
AcDbEntity
  8
0
  6
Continuous
 62
     7
370
    13
100
AcDbLine
 10
8525.901999999998
 20
5600.520999999997
 30
0.0
 11
8525.901999999998
 21
5670.520999999998
 31
0.0
  0
LINE
  5
E40
330
1E
100
AcDbEntity
  8
0
  6
Continuous
 62
     7
370
    13
100
AcDbLine
 10
8445.901999999998
 20
5670.520999999998
 30
0.0
 11
8525.901999999998
 21
5670.520999999998
 31
0.0
  0
LINE
  5
E41
330
1E
100
AcDbEntity
  8
0
  6
Continuous
 62
     7
370
    13
100
AcDbLine
 10
8407.648999999997
 20
5635.520999999998
 30
0.0
 11
8561.744000000002
 21
5635.520999999998
 31
0.0
  0
LINE
  5
E42
330
1E
100
AcDbEntity
  8
0
  6
Continuous
 62
     7
370
    13
100
AcDbLine
 10
10428.90199999999
 20
5600.520999999997
 30
0.0
 11
10428.90199999999
 21
5670.520999999998
 31
0.0
  0
LINE
  5
E43
330
1E
100
AcDbEntity
  8
0
  6
Continuous
 62
     7
370
    13
100
AcDbLine
 10
10348.90199999999
 20
5670.520999999998
 30
0.0
 11
10428.90199999999
 21
5670.520999999998
 31
0.0
  0
LINE
  5
E44
330
1E
100
AcDbEntity
  8
0
  6
Continuous
 62
     7
370
    13
100
AcDbLine
 10
10348.90199999999
 20
5600.520999999997
 30
0.0
 11
10348.90199999999
 21
5670.520999999998
 31
0.0
  0
LINE
  5
E45
330
1E
100
AcDbEntity
  8
0
  6
Continuous
 62
     7
370
    13
100
AcDbLine
 10
10348.90199999999
 20
5600.520999999997
 30
0.0
 11
10428.90199999999
 21
5600.520999999997
 31
0.0
  0
LINE
  5
E46
330
1E
100
AcDbEntity
  8
0
  6
Continuous
 62
     7
370
    13
100
AcDbLine
 10
10313.05999999999
 20
5635.520999999998
 30
0.0
 11
10467.15499999999
 21
5635.520999999998
 31
0.0
  0
LINE
  5
E47
330
1E
100
AcDbEntity
  8
0
  6
Continuous
 62
     7
370
    13
100
AcDbLine
 10
9875.615999999999
 20
5415.520999999999
 30
0.0
 11
10064.141
 21
5415.520999999999
 31
0.0
  0
CIRCLE
  5
E48
330
1E
100
AcDbEntity
  8
0
  6
Continuous
 62
     7
370
    13
100
AcDbCircle
 10
9962.401999999999
 20
5415.520999999999
 30
0.0
 40
37.5
  0
CIRCLE
  5
E49
330
1E
100
AcDbEntity
  8
0
  6
Continuous
 62
     7
370
    13
100
AcDbCircle
 10
8911.902000000003
 20
5415.520999999999
 30
0.0
 40
37.5
  0
LINE
  5
E4A
330
1E
100
AcDbEntity
  8
0
  6
Continuous
 62
     7
370
    13
100
AcDbLine
 10
10431.902
 20
4515.520999999996
 30
0.0
 11
10434.90199999999
 21
4515.520999999996
 31
0.0
  0
LINE
  5
E4B
330
1E
100
AcDbEntity
  8
0
  6
Continuous
 62
     7
370
    13
100
AcDbLine
 10
10434.90199999999
 20
4515.520999999996
 30
0.0
 11
10434.90199999999
 21
4495.520999999998
 31
0.0
  0
LINE
  5
E4C
330
1E
100
AcDbEntity
  8
0
  6
Continuous
 62
     7
370
    13
100
AcDbLine
 10
10431.902
 20
4698.884999999998
 30
0.0
 11
10431.902
 21
4495.520999999998
 31
0.0
  0
LINE
  5
E4D
330
1E
100
AcDbEntity
  8
0
  6
Continuous
 62
     7
370
    13
100
AcDbLine
 10
10486.902
 20
4515.520999999996
 30
0.0
 11
10434.90199999999
 21
4515.520999999996
 31
0.0
  0
LINE
  5
E4E
330
1E
100
AcDbEntity
  8
0
  6
Continuous
 62
     7
370
    13
100
AcDbLine
 10
10460.902
 20
4522.469599999999
 30
0.0
 11
10434.90199999999
 21
4515.502999999997
 31
0.0
  0
LINE
  5
E4F
330
1E
100
AcDbEntity
  8
0
  6
Continuous
 62
     7
370
    13
100
AcDbLine
 10
10434.90199999999
 20
4515.502999999997
 30
0.0
 11
10460.902
 21
4508.536199999999
 31
0.0
  0
LINE
  5
E50
330
1E
100
AcDbEntity
  8
0
  6
Continuous
 62
     7
370
    13
100
AcDbLine
 10
10431.902
 20
4515.520999999996
 30
0.0
 11
10379.902
 21
4515.520999999996
 31
0.0
  0
LINE
  5
E51
330
1E
100
AcDbEntity
  8
0
  6
Continuous
 62
     7
370
    13
100
AcDbLine
 10
10405.90199999999
 20
4508.536199999999
 30
0.0
 11
10431.902
 21
4515.502999999997
 31
0.0
  0
LINE
  5
E52
330
1E
100
AcDbEntity
  8
0
  6
Continuous
 62
     7
370
    13
100
AcDbLine
 10
10431.902
 20
4515.502999999997
 30
0.0
 11
10405.90199999999
 21
4522.469599999999
 31
0.0
  0
LINE
  5
E53
330
1E
100
AcDbEntity
  8
0
  6
Continuous
 62
     7
370
    13
100
AcDbLine
 10
10379.902
 20
4515.520999999996
 30
0.0
 11
10319.90199999999
 21
4515.520999999996
 31
0.0
  0
TEXT
  5
E54
330
1E
100
AcDbEntity
  8
0
  6
Continuous
 62
     7
370
    13
100
AcDbText
 10
10319.90199999999
 20
4527.520999999998
 30
0.0
 40
64.0
  1
３
 41
0.875
  7
BIGFONT
100
AcDbText
  0
LINE
  5
E55
330
1E
100
AcDbEntity
  8
0
  6
Continuous
 62
     7
370
    13
100
AcDbLine
 10
8439.901999999998
 20
4515.520999999996
 30
0.0
 11
8442.901999999998
 21
4515.520999999996
 31
0.0
  0
LINE
  5
E56
330
1E
100
AcDbEntity
  8
0
  6
Continuous
 62
     7
370
    13
100
AcDbLine
 10
8442.901999999998
 20
4700.726999999996
 30
0.0
 11
8442.901999999998
 21
4495.520999999998
 31
0.0
  0
LINE
  5
E57
330
1E
100
AcDbEntity
  8
0
  6
Continuous
 62
     7
370
    13
100
AcDbLine
 10
8439.901999999998
 20
4518.730999999997
 30
0.0
 11
8439.901999999998
 21
4495.520999999998
 31
0.0
  0
LINE
  5
E58
330
1E
100
AcDbEntity
  8
0
  6
Continuous
 62
     7
370
    13
100
AcDbLine
 10
8494.901999999999
 20
4515.520999999996
 30
0.0
 11
8442.901999999998
 21
4515.520999999996
 31
0.0
  0
LINE
  5
E59
330
1E
100
AcDbEntity
  8
0
  6
Continuous
 62
     7
370
    13
100
AcDbLine
 10
8468.901999999998
 20
4522.469599999999
 30
0.0
 11
8442.901999999998
 21
4515.502999999997
 31
0.0
  0
LINE
  5
E5A
330
1E
100
AcDbEntity
  8
0
  6
Continuous
 62
     7
370
    13
100
AcDbLine
 10
8442.901999999998
 20
4515.502999999997
 30
0.0
 11
8468.901999999998
 21
4508.536199999999
 31
0.0
  0
LINE
  5
E5B
330
1E
100
AcDbEntity
  8
0
  6
Continuous
 62
     7
370
    13
100
AcDbLine
 10
8439.901999999998
 20
4515.520999999996
 30
0.0
 11
8387.901999999998
 21
4515.520999999996
 31
0.0
  0
LINE
  5
E5C
330
1E
100
AcDbEntity
  8
0
  6
Continuous
 62
     7
370
    13
100
AcDbLine
 10
8413.901999999998
 20
4508.536199999999
 30
0.0
 11
8439.901999999998
 21
4515.502999999997
 31
0.0
  0
LINE
  5
E5D
330
1E
100
AcDbEntity
  8
0
  6
Continuous
 62
     7
370
    13
100
AcDbLine
 10
8439.901999999998
 20
4515.502999999997
 30
0.0
 11
8413.901999999998
 21
4522.469599999999
 31
0.0
  0
LINE
  5
E5E
330
1E
100
AcDbEntity
  8
0
  6
Continuous
 62
     7
370
    13
100
AcDbLine
 10
8494.901999999999
 20
4515.520999999996
 30
0.0
 11
8554.901999999998
 21
4515.520999999996
 31
0.0
  0
TEXT
  5
E5F
330
1E
100
AcDbEntity
  8
0
  6
Continuous
 62
     7
370
    13
100
AcDbText
 10
8498.901999999999
 20
4527.520999999998
 30
0.0
 40
64.0
  1
3
 41
0.875
  7
BIGFONT
100
AcDbText
  0
TEXT
  5
E60
330
1E
100
AcDbEntity
  8
0
  6
Continuous
 62
     7
370
    13
100
AcDbText
 10
3403.911241299411
 20
6331.943999999998
 30
0.0
 40
100.0
  1
前面
  7
BIGFONT
100
AcDbText
  0
TEXT
  5
E61
330
1E
100
AcDbEntity
  8
0
  6
Continuous
 62
     7
370
    13
100
AcDbText
 10
4183.112241299411
 20
6339.116999999998
 30
0.0
 40
100.0
  1
背面
  7
BIGFONT
100
AcDbText
  0
TEXT
  5
E62
330
1E
100
AcDbEntity
  8
0
  6
Continuous
 62
     7
370
    13
100
AcDbText
 10
3696.484
 20
6573.281999999998
 30
0.0
 40
120.0
  1
たて壁
  7
BIGFONT
100
AcDbText
  0
TEXT
  5
E63
330
1E
100
AcDbEntity
  8
0
  6
Continuous
 62
     7
370
    13
100
AcDbText
 10
1245.182999999999
 20
6566.899999999998
 30
0.0
 40
120.0
  1
断面図
  7
BIGFONT
100
AcDbText
  0
TEXT
  5
E64
330
1E
100
AcDbEntity
  8
0
  6
Continuous
 62
     7
370
    13
100
AcDbText
 10
1185.767
 20
6830.117999999997
 30
0.0
 40
150.0
  1
配筋図
  7
BIGFONT
100
AcDbText
  0
TEXT
  5
E65
330
1E
100
AcDbEntity
  8
0
  6
Continuous
 62
     7
370
    13
100
AcDbText
 10
6761.289000000001
 20
6846.342999999999
 30
0.0
 40
150.0
  1
製品図
  7
BIGFONT
100
AcDbText
  0
LINE
  5
E66
330
1E
100
AcDbEntity
  8
0
  6
Continuous
 62
     7
370
    13
100
AcDbLine
 10
4058.970999999997
 20
6314.116999999997
 30
0.0
 11
4558.970999999997
 21
6314.116999999997
 31
0.0
  0
LINE
  5
E67
330
1E
100
AcDbEntity
  8
0
  6
Continuous
 62
     7
370
    13
100
AcDbLine
 10
3275.041000000001
 20
6314.116999999997
 30
0.0
 11
3775.041
 21
6314.116999999997
 31
0.0
  0
LINE
  5
E68
330
1E
100
AcDbEntity
  8
0
  6
Continuous
 62
     7
370
    13
100
AcDbLine
 10
3651.187999999998
 20
6548.281999999997
 30
0.0
 11
4176.630000000001
 21
6548.281999999997
 31
0.0
  0
LINE
  5
E69
330
1E
100
AcDbEntity
  8
0
  6
Continuous
 62
     7
370
    13
100
AcDbLine
 10
1194.138999999999
 20
6548.281999999997
 30
0.0
 11
1719.581
 21
6548.281999999997
 31
0.0
  0
LINE
  5
E6A
330
1E
100
AcDbEntity
  8
0
  6
Continuous
 62
     7
370
    13
100
AcDbLine
 10
6711.363999999997
 20
6812.515999999998
 30
0.0
 11
7352.315999999999
 21
6812.515999999998
 31
0.0
  0
LINE
  5
E6B
330
1E
100
AcDbEntity
  8
0
  6
Continuous
 62
     7
370
    13
100
AcDbLine
 10
1143.42
 20
6812.515999999998
 30
0.0
 11
1784.371999999999
 21
6812.515999999998
 31
0.0
  0
TEXT
  5
E6C
330
1E
100
AcDbEntity
  8
0
  6
Continuous
 62
     7
370
    13
100
AcDbText
 10
3023.853000000003
 20
7254.030999999996
 30
0.0
 40
200.0
  1
ＫＬウォール３型．一般部構造図
  7
BIGFONT
100
AcDbText
  0
LINE
  5
E6D
330
1E
100
AcDbEntity
  8
0
  6
Continuous
 62
     7
370
    13
100
AcDbLine
 10
2902.300999999999
 20
7194.074999999997
 30
0.0
 11
8499.871999999999
 21
7194.074999999997
 31
0.0
  0
TEXT
  5
E6E
330
1E
100
AcDbEntity
  8
0
  6
Continuous
 62
     7
370
    13
100
AcDbText
 10
6585.256000000001
 20
7250.903999999998
 30
0.0
 40
130.0
  1
（Ｈ＝１２５０）
  7
BIGFONT
100
AcDbText
  0
TEXT
  5
E6F
330
1E
100
AcDbEntity
  8
0
  6
Continuous
 62
     7
370
    13
100
AcDbText
 10
7757.823000000001
 20
7255.561999999996
 30
0.0
 40
110.0
  1
Ｓ＝１：２０
  7
BIGFONT
100
AcDbText
  0
LINE
  5
E70
330
1E
100
AcDbEntity
  8
0
  6
Continuous
 62
     7
370
    13
100
AcDbLine
 10
6037.202000000001
 20
4715.520999999997
 30
0.0
 11
6037.202000000001
 21
4850.622999999995
 31
0.0
  0
LINE
  5
E71
330
1E
100
AcDbEntity
  8
0
  6
Continuous
 62
     7
370
    13
100
AcDbLine
 10
6070.819
 20
4850.622999999995
 30
0.0
 11
6017.202000000001
 21
4850.622999999995
 31
0.0
  0
LINE
  5
E72
330
1E
100
AcDbEntity
  8
0
  6
Continuous
 62
     7
370
    13
100
AcDbLine
 10
6070.403999999999
 20
4715.520999999997
 30
0.0
 11
6017.202000000001
 21
4715.520999999997
 31
0.0
  0
LINE
  5
E73
330
1E
100
AcDbEntity
  8
0
  6
Continuous
 62
     7
370
    13
100
AcDbLine
 10
6044.168600000001
 20
4824.622999999998
 30
0.0
 11
6037.202000000001
 21
4850.622999999995
 31
0.0
  0
LINE
  5
E74
330
1E
100
AcDbEntity
  8
0
  6
Continuous
 62
     7
370
    13
100
AcDbLine
 10
6037.202000000001
 20
4850.622999999995
 30
0.0
 11
6030.235199999999
 21
4824.622999999998
 31
0.0
  0
LINE
  5
E75
330
1E
100
AcDbEntity
  8
0
  6
Continuous
 62
     7
370
    13
100
AcDbLine
 10
6030.235199999999
 20
4741.502999999998
 30
0.0
 11
6037.202000000001
 21
4715.502999999998
 31
0.0
  0
LINE
  5
E76
330
1E
100
AcDbEntity
  8
0
  6
Continuous
 62
     7
370
    13
100
AcDbLine
 10
6037.202000000001
 20
4715.502999999998
 30
0.0
 11
6044.168600000001
 21
4741.502999999998
 31
0.0
  0
TEXT
  5
E77
330
1E
100
AcDbEntity
  8
0
  6
Continuous
 62
     7
370
    13
100
AcDbText
 10
6025.202000000001
 20
4699.071999999998
 30
0.0
 40
64.0
  1
135
 50
90.0
 41
0.875
  7
BIGFONT
100
AcDbText
  0
LINE
  5
E78
330
1E
100
AcDbEntity
  8
0
  6
Continuous
 62
     7
370
    13
100
AcDbLine
 10
6537.202
 20
4365.520999999998
 30
0.0
 11
7087.201999999997
 21
4365.520999999998
 31
0.0
  0
LINE
  5
E79
330
1E
100
AcDbEntity
  8
0
  6
Continuous
 62
     7
370
    13
100
AcDbLine
 10
7087.201999999997
 20
4458.416999999998
 30
0.0
 11
7087.201999999997
 21
4345.520999999997
 31
0.0
  0
LINE
  5
E7A
330
1E
100
AcDbEntity
  8
0
  6
Continuous
 62
     7
370
    13
100
AcDbLine
 10
6537.202
 20
4365.520999999998
 30
0.0
 11
6537.202
 21
4345.520999999997
 31
0.0
  0
LINE
  5
E7B
330
1E
100
AcDbEntity
  8
0
  6
Continuous
 62
     7
370
    13
100
AcDbLine
 10
7061.202000000001
 20
4358.536199999995
 30
0.0
 11
7087.201999999997
 21
4365.502999999996
 31
0.0
  0
LINE
  5
E7C
330
1E
100
AcDbEntity
  8
0
  6
Continuous
 62
     7
370
    13
100
AcDbLine
 10
7087.201999999997
 20
4365.502999999996
 30
0.0
 11
7061.202000000001
 21
4372.469599999998
 31
0.0
  0
LINE
  5
E7D
330
1E
100
AcDbEntity
  8
0
  6
Continuous
 62
     7
370
    13
100
AcDbLine
 10
6563.202000000001
 20
4372.469599999998
 30
0.0
 11
6537.202
 21
4365.502999999996
 31
0.0
  0
LINE
  5
E7E
330
1E
100
AcDbEntity
  8
0
  6
Continuous
 62
     7
370
    13
100
AcDbLine
 10
6537.202
 20
4365.502999999996
 30
0.0
 11
6563.202000000001
 21
4358.536199999995
 31
0.0
  0
TEXT
  5
E7F
330
1E
100
AcDbEntity
  8
0
  6
Continuous
 62
     7
370
    13
100
AcDbText
 10
6728.202000000002
 20
4377.520999999997
 30
0.0
 40
64.0
  1
550
 41
0.875
  7
BIGFONT
100
AcDbText
  0
LINE
  5
E80
330
1E
100
AcDbEntity
  8
0
  6
Continuous
 62
     7
370
    13
100
AcDbLine
 10
7087.201999999997
 20
4365.520999999998
 30
0.0
 11
7437.201999999998
 21
4365.520999999998
 31
0.0
  0
LINE
  5
E81
330
1E
100
AcDbEntity
  8
0
  6
Continuous
 62
     7
370
    13
100
AcDbLine
 10
7437.201999999998
 20
4393.571999999998
 30
0.0
 11
7437.201999999998
 21
4345.520999999997
 31
0.0
  0
LINE
  5
E82
330
1E
100
AcDbEntity
  8
0
  6
Continuous
 62
     7
370
    13
100
AcDbLine
 10
7411.202000000002
 20
4358.536199999995
 30
0.0
 11
7437.201999999998
 21
4365.502999999996
 31
0.0
  0
LINE
  5
E83
330
1E
100
AcDbEntity
  8
0
  6
Continuous
 62
     7
370
    13
100
AcDbLine
 10
7437.201999999998
 20
4365.502999999996
 30
0.0
 11
7411.202000000002
 21
4372.469599999998
 31
0.0
  0
LINE
  5
E84
330
1E
100
AcDbEntity
  8
0
  6
Continuous
 62
     7
370
    13
100
AcDbLine
 10
7113.202000000001
 20
4372.469599999998
 30
0.0
 11
7087.201999999997
 21
4365.502999999996
 31
0.0
  0
LINE
  5
E85
330
1E
100
AcDbEntity
  8
0
  6
Continuous
 62
     7
370
    13
100
AcDbLine
 10
7087.201999999997
 20
4365.502999999996
 30
0.0
 11
7113.202000000001
 21
4358.536199999995
 31
0.0
  0
TEXT
  5
E86
330
1E
100
AcDbEntity
  8
0
  6
Continuous
 62
     7
370
    13
100
AcDbText
 10
7178.202000000002
 20
4377.520999999997
 30
0.0
 40
64.0
  1
350
 41
0.875
  7
BIGFONT
100
AcDbText
  0
LINE
  5
E87
330
1E
100
AcDbEntity
  8
0
  6
Continuous
 62
     7
370
    13
100
AcDbLine
 10
6217.513999999999
 20
4850.145999999998
 30
0.0
 11
6517.617000000003
 21
4850.145999999998
 31
0.0
  0
LINE
  5
E88
330
1E
100
AcDbEntity
  8
0
  6
Continuous
 62
     7
370
    13
100
AcDbLine
 10
6537.202
 20
4215.486999999998
 30
0.0
 11
6672.202000000002
 21
4215.486999999998
 31
0.0
  0
LINE
  5
E89
330
1E
100
AcDbEntity
  8
0
  6
Continuous
 62
     7
370
    13
100
AcDbLine
 10
6672.202000000002
 20
4317.382999999998
 30
0.0
 11
6672.202000000002
 21
4195.486999999999
 31
0.0
  0
LINE
  5
E8A
330
1E
100
AcDbEntity
  8
0
  6
Continuous
 62
     7
370
    13
100
AcDbLine
 10
6537.202
 20
4236.131999999997
 30
0.0
 11
6537.202
 21
4195.486999999999
 31
0.0
  0
LINE
  5
E8B
330
1E
100
AcDbEntity
  8
0
  6
Continuous
 62
     7
370
    13
100
AcDbLine
 10
6646.201999999998
 20
4208.516199999998
 30
0.0
 11
6672.202000000002
 21
4215.482999999998
 31
0.0
  0
LINE
  5
E8C
330
1E
100
AcDbEntity
  8
0
  6
Continuous
 62
     7
370
    13
100
AcDbLine
 10
6672.202000000002
 20
4215.482999999998
 30
0.0
 11
6646.201999999998
 21
4222.449599999998
 31
0.0
  0
LINE
  5
E8D
330
1E
100
AcDbEntity
  8
0
  6
Continuous
 62
     7
370
    13
100
AcDbLine
 10
6563.202000000001
 20
4222.449599999998
 30
0.0
 11
6537.202
 21
4215.482999999998
 31
0.0
  0
LINE
  5
E8E
330
1E
100
AcDbEntity
  8
0
  6
Continuous
 62
     7
370
    13
100
AcDbLine
 10
6537.202
 20
4215.482999999998
 30
0.0
 11
6563.202000000001
 21
4208.516199999998
 31
0.0
  0
TEXT
  5
E8F
330
1E
100
AcDbEntity
  8
0
  6
Continuous
 62
     7
370
    13
100
AcDbText
 10
6520.702000000001
 20
4227.486999999996
 30
0.0
 40
64.0
  1
135
 41
0.875
  7
BIGFONT
100
AcDbText
  0
LINE
  5
E90
330
1E
100
AcDbEntity
  8
0
  6
Continuous
 62
     7
370
    13
100
AcDbLine
 10
6672.202000000002
 20
4404.900999999997
 30
0.0
 11
6672.202000000002
 21
4696.936999999998
 31
0.0
  0
LINE
  5
E91
330
1E
100
AcDbEntity
  8
0
  6
Continuous
 62
     7
370
    13
100
AcDbLine
 10
7087.201999999997
 20
4569.271999999998
 30
0.0
 11
7087.201999999997
 21
4696.929999999998
 31
0.0
  0
TEXT
  5
E92
330
1E
100
AcDbEntity
  8
0
  6
Continuous
 62
     7
370
    13
100
AcDbText
 10
7275.671999999999
 20
4946.637999999998
 30
0.0
 40
60.0
  1
（4-継手フランジ）
 41
0.9333332999999999
  7
BIGFONT
100
AcDbText
  0
LINE
  5
E93
330
1E
100
AcDbEntity
  8
0
  6
Continuous
 62
     7
370
    13
100
AcDbLine
 10
6992.738999999997
 20
4801.094999999996
 30
0.0
 11
7189.309000000001
 21
5017.123999999997
 31
0.0
  0
LINE
  5
E94
330
1E
100
AcDbEntity
  8
0
  6
Continuous
 62
     7
370
    13
100
AcDbLine
 10
7005.0674
 20
4825.001999999998
 30
0.0
 11
6992.721999999997
 21
4801.082999999998
 31
0.0
  0
LINE
  5
E95
330
1E
100
AcDbEntity
  8
0
  6
Continuous
 62
     7
370
    13
100
AcDbLine
 10
6992.721999999997
 20
4801.082999999998
 30
0.0
 11
7015.373
 21
4815.624799999999
 31
0.0
  0
LINE
  5
E96
330
1E
100
AcDbEntity
  8
0
  6
Continuous
 62
     7
370
    13
100
AcDbLine
 10
7189.309000000001
 20
5017.123999999997
 30
0.0
 11
8024.273044898382
 21
5017.123999999997
 31
0.0
  0
TEXT
  5
E97
330
1E
100
AcDbEntity
  8
0
  6
Continuous
 62
     7
370
    13
100
AcDbText
 10
7189.309000000001
 20
5029.123999999998
 30
0.0
 40
64.0
  1
ボルト接合（W1/2×38)
 41
0.875
  7
BIGFONT
100
AcDbText
  0
LINE
  5
E98
330
1E
100
AcDbEntity
  8
0
  6
Continuous
 62
     7
370
    13
100
AcDbLine
 10
8439.901999999998
 20
4213.158999999998
 30
0.0
 11
8911.413999999998
 21
4213.158999999998
 31
0.0
  0
LINE
  5
E99
330
1E
100
AcDbEntity
  8
0
  6
Continuous
 62
     7
370
    13
100
AcDbLine
 10
8911.413999999998
 20
5292.514999999998
 30
0.0
 11
8911.413999999998
 21
4193.158999999997
 31
0.0
  0
LINE
  5
E9A
330
1E
100
AcDbEntity
  8
0
  6
Continuous
 62
     7
370
    13
100
AcDbLine
 10
8439.901999999998
 20
4249.911999999998
 30
0.0
 11
8439.901999999998
 21
4193.158999999997
 31
0.0
  0
LINE
  5
E9B
330
1E
100
AcDbEntity
  8
0
  6
Continuous
 62
     7
370
    13
100
AcDbLine
 10
8885.401999999997
 20
4206.176199999998
 30
0.0
 11
8911.401999999998
 21
4213.142999999997
 31
0.0
  0
LINE
  5
E9C
330
1E
100
AcDbEntity
  8
0
  6
Continuous
 62
     7
370
    13
100
AcDbLine
 10
8911.401999999998
 20
4213.142999999997
 30
0.0
 11
8885.401999999997
 21
4220.109599999997
 31
0.0
  0
LINE
  5
E9D
330
1E
100
AcDbEntity
  8
0
  6
Continuous
 62
     7
370
    13
100
AcDbLine
 10
8465.901999999998
 20
4220.109599999997
 30
0.0
 11
8439.901999999998
 21
4213.142999999997
 31
0.0
  0
LINE
  5
E9E
330
1E
100
AcDbEntity
  8
0
  6
Continuous
 62
     7
370
    13
100
AcDbLine
 10
8439.901999999998
 20
4213.142999999997
 30
0.0
 11
8465.901999999998
 21
4206.176199999998
 31
0.0
  0
TEXT
  5
E9F
330
1E
100
AcDbEntity
  8
0
  6
Continuous
 62
     7
370
    13
100
AcDbText
 10
8574.858
 20
4225.158999999997
 30
0.0
 40
64.0
  1
472.5
 41
0.875
  7
BIGFONT
100
AcDbText
  0
LINE
  5
EA0
330
1E
100
AcDbEntity
  8
0
  6
Continuous
 62
     7
370
    13
100
AcDbLine
 10
8911.413999999998
 20
4213.158999999998
 30
0.0
 11
9962.490999999999
 21
4213.158999999998
 31
0.0
  0
LINE
  5
EA1
330
1E
100
AcDbEntity
  8
0
  6
Continuous
 62
     7
370
    13
100
AcDbLine
 10
9962.490999999999
 20
5292.514999999998
 30
0.0
 11
9962.490999999999
 21
4193.158999999997
 31
0.0
  0
LINE
  5
EA2
330
1E
100
AcDbEntity
  8
0
  6
Continuous
 62
     7
370
    13
100
AcDbLine
 10
9936.482000000001
 20
4206.176199999998
 30
0.0
 11
9962.482000000001
 21
4213.142999999997
 31
0.0
  0
LINE
  5
EA3
330
1E
100
AcDbEntity
  8
0
  6
Continuous
 62
     7
370
    13
100
AcDbLine
 10
9962.482000000001
 20
4213.142999999997
 30
0.0
 11
9936.482000000001
 21
4220.109599999997
 31
0.0
  0
LINE
  5
EA4
330
1E
100
AcDbEntity
  8
0
  6
Continuous
 62
     7
370
    13
100
AcDbLine
 10
8937.401999999998
 20
4220.109599999997
 30
0.0
 11
8911.401999999998
 21
4213.142999999997
 31
0.0
  0
LINE
  5
EA5
330
1E
100
AcDbEntity
  8
0
  6
Continuous
 62
     7
370
    13
100
AcDbLine
 10
8911.401999999998
 20
4213.142999999997
 30
0.0
 11
8937.401999999998
 21
4206.176199999998
 31
0.0
  0
TEXT
  5
EA6
330
1E
100
AcDbEntity
  8
0
  6
Continuous
 62
     7
370
    13
100
AcDbText
 10
9324.952399999999
 20
4225.158999999997
 30
0.0
 40
64.0
  1
1050
 41
0.875
  7
BIGFONT
100
AcDbText
  0
LINE
  5
EA7
330
1E
100
AcDbEntity
  8
0
  6
Continuous
 62
     7
370
    13
100
AcDbLine
 10
9962.490999999999
 20
4213.158999999998
 30
0.0
 11
10434.90199999999
 21
4213.158999999998
 31
0.0
  0
LINE
  5
EA8
330
1E
100
AcDbEntity
  8
0
  6
Continuous
 62
     7
370
    13
100
AcDbLine
 10
10434.90199999999
 20
4245.341999999998
 30
0.0
 11
10434.90199999999
 21
4193.158999999997
 31
0.0
  0
LINE
  5
EA9
330
1E
100
AcDbEntity
  8
0
  6
Continuous
 62
     7
370
    13
100
AcDbLine
 10
10408.90199999999
 20
4206.176199999998
 30
0.0
 11
10434.90199999999
 21
4213.142999999997
 31
0.0
  0
LINE
  5
EAA
330
1E
100
AcDbEntity
  8
0
  6
Continuous
 62
     7
370
    13
100
AcDbLine
 10
10434.90199999999
 20
4213.142999999997
 30
0.0
 11
10408.90199999999
 21
4220.109599999997
 31
0.0
  0
LINE
  5
EAB
330
1E
100
AcDbEntity
  8
0
  6
Continuous
 62
     7
370
    13
100
AcDbLine
 10
9988.482000000001
 20
4220.109599999997
 30
0.0
 11
9962.482000000001
 21
4213.142999999997
 31
0.0
  0
LINE
  5
EAC
330
1E
100
AcDbEntity
  8
0
  6
Continuous
 62
     7
370
    13
100
AcDbLine
 10
9962.482000000001
 20
4213.142999999997
 30
0.0
 11
9988.482000000001
 21
4206.176199999998
 31
0.0
  0
TEXT
  5
EAD
330
1E
100
AcDbEntity
  8
0
  6
Continuous
 62
     7
370
    13
100
AcDbText
 10
10097.8964
 20
4225.158999999997
 30
0.0
 40
64.0
  1
472.5
 41
0.875
  7
BIGFONT
100
AcDbText
  0
LINE
  5
EAE
330
1E
100
AcDbEntity
  8
0
  6
Continuous
 62
     7
370
    13
100
AcDbLine
 10
8936.844999999998
 20
5387.518999999998
 30
0.0
 11
9080.949999999997
 21
5154.556999999996
 31
0.0
  0
LINE
  5
EAF
330
1E
100
AcDbEntity
  8
0
  6
Continuous
 62
     7
370
    13
100
AcDbLine
 10
8956.4444
 20
5369.056199999997
 30
0.0
 11
8936.841999999996
 21
5387.502999999998
 31
0.0
  0
LINE
  5
EB0
330
1E
100
AcDbEntity
  8
0
  6
Continuous
 62
     7
370
    13
100
AcDbLine
 10
8936.841999999996
 20
5387.502999999998
 30
0.0
 11
8944.594799999995
 21
5361.726399999998
 31
0.0
  0
LINE
  5
EB1
330
1E
100
AcDbEntity
  8
0
  6
Continuous
 62
     7
370
    13
100
AcDbLine
 10
9080.949999999997
 20
5154.556999999996
 30
0.0
 11
9589.600806048066
 21
5154.556999999996
 31
0.0
  0
TEXT
  5
EB2
330
1E
100
AcDbEntity
  8
0
  6
Continuous
 62
     7
370
    13
100
AcDbText
 10
9080.949999999997
 20
5166.556999999999
 30
0.0
 40
64.0
  1
2-φ75水抜穴
 41
0.875
  7
BIGFONT
100
AcDbText
  0
LINE
  5
EB3
330
1E
100
AcDbEntity
  8
0
  6
Continuous
 62
     7
370
    13
100
AcDbLine
 10
2939.702
 20
4727.520999999998
 30
0.0
 11
2939.702
 21
5025.520999999997
 31
0.0
  0
LINE
  5
EB4
330
1E
100
AcDbEntity
  8
0
  6
Continuous
 62
     7
370
    13
100
AcDbLine
 10
2939.702
 20
5025.520999999997
 30
0.0
 11
2942.702
 21
5028.520999999999
 31
0.0
  0
LINE
  5
EB5
330
1E
100
AcDbEntity
  8
0
  6
Continuous
 62
     7
370
    13
100
AcDbLine
 10
2942.702
 20
5028.520999999999
 30
0.0
 11
2942.702
 21
5812.520999999998
 31
0.0
  0
LINE
  5
EB6
330
1E
100
AcDbEntity
  8
0
  6
Continuous
 62
     7
370
    13
100
AcDbLine
 10
2939.702
 20
5815.520999999999
 30
0.0
 11
2942.702
 21
5812.520999999998
 31
0.0
  0
LINE
  5
EB7
330
1E
100
AcDbEntity
  8
0
  6
Continuous
 62
     7
370
    13
100
AcDbLine
 10
2939.702
 20
5965.520999999998
 30
0.0
 11
4934.701999999997
 21
5965.520999999998
 31
0.0
  0
LINE
  5
EB8
330
1E
100
AcDbEntity
  8
0
  6
Continuous
 62
     7
370
    13
100
AcDbLine
 10
4931.702000000001
 20
5812.520999999998
 30
0.0
 11
4934.701999999997
 21
5815.520999999999
 31
0.0
  0
LINE
  5
EB9
330
1E
100
AcDbEntity
  8
0
  6
Continuous
 62
     7
370
    13
100
AcDbLine
 10
4931.702000000001
 20
5028.520999999999
 30
0.0
 11
4931.702000000001
 21
5812.520999999998
 31
0.0
  0
LINE
  5
EBA
330
1E
100
AcDbEntity
  8
0
  6
Continuous
 62
     7
370
    13
100
AcDbLine
 10
4931.702000000001
 20
5028.520999999999
 30
0.0
 11
4934.701999999997
 21
5025.520999999997
 31
0.0
  0
LINE
  5
EBB
330
1E
100
AcDbEntity
  8
0
  6
Continuous
 62
     7
370
    13
100
AcDbLine
 10
4934.701999999997
 20
4727.520999999998
 30
0.0
 11
4934.701999999997
 21
5025.520999999997
 31
0.0
  0
LINE
  5
EBC
330
1E
100
AcDbEntity
  8
0
  6
Continuous
 62
     7
370
    13
100
AcDbLine
 10
2939.702
 20
4727.520999999998
 30
0.0
 11
2951.702
 21
4715.520999999997
 31
0.0
  0
LINE
  5
EBD
330
1E
100
AcDbEntity
  8
0
  6
Continuous
 62
     7
370
    13
100
AcDbLine
 10
4922.702000000001
 20
4715.520999999997
 30
0.0
 11
4934.701999999997
 21
4727.520999999998
 31
0.0
  0
LINE
  5
EBE
330
1E
100
AcDbEntity
  8
0
  6
Continuous
 62
     7
370
    13
100
AcDbLine
 10
4891.701999999998
 20
5590.520999999998
 30
0.0
 11
4931.702000000001
 21
5590.520999999998
 31
0.0
  0
LINE
  5
EBF
330
1E
100
AcDbEntity
  8
0
  6
Continuous
 62
     7
370
    13
100
AcDbLine
 10
4931.702000000001
 20
5590.520999999998
 30
0.0
 11
4931.702000000001
 21
5680.520999999998
 31
0.0
  0
LINE
  5
EC0
330
1E
100
AcDbEntity
  8
0
  6
Continuous
 62
     7
370
    13
100
AcDbLine
 10
4891.701999999998
 20
5680.520999999998
 30
0.0
 11
4931.702000000001
 21
5680.520999999998
 31
0.0
  0
LINE
  5
EC1
330
1E
100
AcDbEntity
  8
0
  6
Continuous
 62
     7
370
    13
100
AcDbLine
 10
4721.701999999997
 20
5690.520999999999
 30
0.0
 11
4921.701999999998
 21
5690.520999999999
 31
0.0
  0
LINE
  5
EC2
330
1E
100
AcDbEntity
  8
0
  6
Continuous
 62
     7
370
    13
100
AcDbLine
 10
4721.701999999997
 20
5580.520999999999
 30
0.0
 11
4921.701999999998
 21
5580.520999999999
 31
0.0
  0
LINE
  5
EC3
330
1E
100
AcDbEntity
  8
0
  6
HIDDEN
 62
     7
370
    13
100
AcDbLine
 10
4839.768
 20
5635.520999999998
 30
0.0
 11
4984.358
 21
5635.520999999998
 31
0.0
  0
LINE
  5
EC4
330
1E
100
AcDbEntity
  8
0
  6
Continuous
 62
     7
370
    13
100
AcDbLine
 10
2951.702
 20
4715.520999999997
 30
0.0
 11
3293.163000000001
 21
4715.520999999997
 31
0.0
  0
LINE
  5
EC5
330
1E
100
AcDbEntity
  8
0
  6
Continuous
 62
     7
370
    13
100
AcDbLine
 10
3293.163000000001
 20
4715.520999999997
 30
0.0
 11
3598.082999999999
 21
4715.520999999997
 31
0.0
  0
LINE
  5
EC6
330
1E
100
AcDbEntity
  8
0
  6
Continuous
 62
     7
370
    13
100
AcDbLine
 10
3598.082999999999
 20
4715.520999999997
 30
0.0
 11
4922.702000000001
 21
4715.520999999997
 31
0.0
  0
LINE
  5
EC7
330
1E
100
AcDbEntity
  8
0
  6
Continuous
 62
     1
370
    25
100
AcDbLine
 10
3937.201999999999
 20
4760.520999999997
 30
0.0
 11
4882.201999999997
 21
4760.520999999997
 31
0.0
  0
CIRCLE
  5
EC8
330
1E
100
AcDbEntity
  8
0
  6
Continuous
 62
     7
370
    13
100
AcDbCircle
 10
5054.110000000001
 20
4984.076999999999
 30
0.0
 40
55.0
  0
CIRCLE
  5
EC9
330
1E
100
AcDbEntity
  8
0
  6
Continuous
 62
     7
370
    13
100
AcDbCircle
 10
5053.165999999997
 20
5213.7283926348
 30
0.0
 40
55.0
  0
CIRCLE
  5
ECA
330
1E
100
AcDbEntity
  8
0
  6
Continuous
 62
     7
370
    13
100
AcDbCircle
 10
5053.908999999996
 20
5895.310999999998
 30
0.0
 40
55.0
  0
TEXT
  5
ECB
330
1E
100
AcDbEntity
  8
0
  6
Continuous
 62
     7
370
    13
100
AcDbText
 10
5002.433000000001
 20
4946.947999999999
 30
0.0
 40
72.0
  1
Ｓ
  7
BIGFONT
100
AcDbText
  0
TEXT
  5
ECC
330
1E
100
AcDbEntity
  8
0
  6
Continuous
 62
     7
370
    13
100
AcDbText
 10
5001.488999999998
 20
5176.599392634803
 30
0.0
 40
72.0
  1
Ｓ
  7
BIGFONT
100
AcDbText
  0
TEXT
  5
ECD
330
1E
100
AcDbEntity
  8
0
  6
Continuous
 62
     7
370
    13
100
AcDbText
 10
5000.232
 20
5858.181999999996
 30
0.0
 40
72.0
  1
Ｓ
  7
BIGFONT
100
AcDbText
  0
TEXT
  5
ECE
330
1E
100
AcDbEntity
  8
0
  6
Continuous
 62
     7
370
    13
100
AcDbText
 10
5062.585000000002
 20
4952.702999999999
 30
0.0
 40
40.0
  1
１
  7
BIGFONT
100
AcDbText
  0
TEXT
  5
ECF
330
1E
100
AcDbEntity
  8
0
  6
Continuous
 62
     7
370
    13
100
AcDbText
 10
5061.344000000001
 20
5181.647392634802
 30
0.0
 40
40.0
  1
２
  7
BIGFONT
100
AcDbText
  0
TEXT
  5
ED0
330
1E
100
AcDbEntity
  8
0
  6
Continuous
 62
     7
370
    13
100
AcDbText
 10
5058.935999999998
 20
5863.157999999997
 30
0.0
 40
40.0
  1
３
  7
BIGFONT
100
AcDbText
  0
CIRCLE
  5
ED1
330
1E
100
AcDbEntity
  8
0
  6
Continuous
 62
     7
370
    13
100
AcDbCircle
 10
4268.022999999997
 20
4570.520999999998
 30
0.0
 40
55.0
  0
TEXT
  5
ED2
330
1E
100
AcDbEntity
  8
0
  6
Continuous
 62
     7
370
    13
100
AcDbText
 10
4214.345999999998
 20
4533.391999999998
 30
0.0
 40
72.0
  1
Ｓ
  7
BIGFONT
100
AcDbText
  0
TEXT
  5
ED3
330
1E
100
AcDbEntity
  8
0
  6
Continuous
 62
     7
370
    13
100
AcDbText
 10
4270.434999999998
 20
4538.491999999998
 30
0.0
 40
40.0
  1
９
  7
BIGFONT
100
AcDbText
  0
CIRCLE
  5
ED4
330
1E
100
AcDbEntity
  8
0
  6
Continuous
 62
     7
370
    13
100
AcDbCircle
 10
2616.851999999999
 20
5252.108999999999
 30
0.0
 40
55.0
  0
TEXT
  5
ED5
330
1E
100
AcDbEntity
  8
0
  6
Continuous
 62
     7
370
    13
100
AcDbText
 10
2563.174999999999
 20
5214.979999999998
 30
0.0
 40
72.0
  1
Ｓ
  7
BIGFONT
100
AcDbText
  0
TEXT
  5
ED6
330
1E
100
AcDbEntity
  8
0
  6
Continuous
 62
     7
370
    13
100
AcDbText
 10
2622.990999999998
 20
5219.921999999999
 30
0.0
 40
40.0
  1
４
  7
BIGFONT
100
AcDbText
  0
CIRCLE
  5
ED7
330
1E
100
AcDbEntity
  8
0
  6
Continuous
 62
     7
370
    13
100
AcDbCircle
 10
2618.657000000001
 20
4986.072999999999
 30
0.0
 40
55.0
  0
TEXT
  5
ED8
330
1E
100
AcDbEntity
  8
0
  6
Continuous
 62
     7
370
    13
100
AcDbText
 10
2564.98
 20
4948.943999999999
 30
0.0
 40
72.0
  1
Ｓ
  7
BIGFONT
100
AcDbText
  0
TEXT
  5
ED9
330
1E
100
AcDbEntity
  8
0
  6
Continuous
 62
     7
370
    13
100
AcDbText
 10
2620.394999999999
 20
4953.724999999998
 30
0.0
 40
40.0
  1
８
  7
BIGFONT
100
AcDbText
  0
LINE
  5
EDA
330
1E
100
AcDbEntity
  8
0
  6
Continuous
 62
     7
370
    13
100
AcDbLine
 10
5340.005000000001
 20
5156.804392634803
 30
0.0
 11
4882.201999999997
 21
5156.804392634803
 31
0.0
  0
LINE
  5
EDB
330
1E
100
AcDbEntity
  8
0
  6
Continuous
 62
     7
370
    13
100
AcDbLine
 10
4908.202000000001
 20
5163.760992634802
 30
0.0
 11
4882.201999999997
 21
5156.794392634803
 31
0.0
  0
LINE
  5
EDC
330
1E
100
AcDbEntity
  8
0
  6
Continuous
 62
     7
370
    13
100
AcDbLine
 10
4882.201999999997
 20
5156.794392634803
 30
0.0
 11
4908.202000000001
 21
5149.827592634802
 31
0.0
  0
LINE
  5
EDD
330
1E
100
AcDbEntity
  8
0
  6
Continuous
 62
     7
370
    13
100
AcDbLine
 10
5339.431000000001
 20
5840.345999999998
 30
0.0
 11
4881.628
 21
5840.345999999998
 31
0.0
  0
LINE
  5
EDE
330
1E
100
AcDbEntity
  8
0
  6
Continuous
 62
     7
370
    13
100
AcDbLine
 10
4907.642
 20
5847.309599999998
 30
0.0
 11
4881.642
 21
5840.342999999998
 31
0.0
  0
LINE
  5
EDF
330
1E
100
AcDbEntity
  8
0
  6
Continuous
 62
     7
370
    13
100
AcDbLine
 10
4881.642
 20
5840.342999999998
 30
0.0
 11
4907.642
 21
5833.376199999998
 31
0.0
  0
LINE
  5
EE0
330
1E
100
AcDbEntity
  8
0
  6
Continuous
 62
     7
370
    13
100
AcDbLine
 10
4087.201999999999
 20
4928.846999999998
 30
0.0
 11
3937.201999999999
 21
4928.846999999998
 31
0.0
  0
LINE
  5
EE1
330
1E
100
AcDbEntity
  8
0
  6
Continuous
 62
     7
370
    13
100
AcDbLine
 10
3963.202
 20
4935.809599999998
 30
0.0
 11
3937.201999999999
 21
4928.842999999996
 31
0.0
  0
LINE
  5
EE2
330
1E
100
AcDbEntity
  8
0
  6
Continuous
 62
     7
370
    13
100
AcDbLine
 10
3937.201999999999
 20
4928.842999999996
 30
0.0
 11
3963.202
 21
4921.876199999996
 31
0.0
  0
LINE
  5
EE3
330
1E
100
AcDbEntity
  8
0
  6
Continuous
 62
     7
370
    13
100
AcDbLine
 10
4237.201999999999
 20
4928.846999999998
 30
0.0
 11
4087.201999999999
 21
4928.846999999998
 31
0.0
  0
LINE
  5
EE4
330
1E
100
AcDbEntity
  8
0
  6
Continuous
 62
     7
370
    13
100
AcDbLine
 10
4113.202000000001
 20
4935.809599999998
 30
0.0
 11
4087.201999999999
 21
4928.842999999996
 31
0.0
  0
LINE
  5
EE5
330
1E
100
AcDbEntity
  8
0
  6
Continuous
 62
     7
370
    13
100
AcDbLine
 10
4087.201999999999
 20
4928.842999999996
 30
0.0
 11
4113.202000000001
 21
4921.876199999996
 31
0.0
  0
LINE
  5
EE6
330
1E
100
AcDbEntity
  8
0
  6
Continuous
 62
     7
370
    13
100
AcDbLine
 10
4387.202000000001
 20
4928.846999999998
 30
0.0
 11
4237.023000000001
 21
4928.846999999998
 31
0.0
  0
LINE
  5
EE7
330
1E
100
AcDbEntity
  8
0
  6
Continuous
 62
     7
370
    13
100
AcDbLine
 10
4237.023000000001
 20
4928.846999999998
 30
0.0
 11
4185.023000000001
 21
4928.846999999998
 31
0.0
  0
LINE
  5
EE8
330
1E
100
AcDbEntity
  8
0
  6
Continuous
 62
     7
370
    13
100
AcDbLine
 10
4263.042000000001
 20
4935.809599999998
 30
0.0
 11
4237.041999999997
 21
4928.842999999996
 31
0.0
  0
LINE
  5
EE9
330
1E
100
AcDbEntity
  8
0
  6
Continuous
 62
     7
370
    13
100
AcDbLine
 10
4237.041999999997
 20
4928.842999999996
 30
0.0
 11
4263.042000000001
 21
4921.876199999996
 31
0.0
  0
LINE
  5
EEA
330
1E
100
AcDbEntity
  8
0
  6
Continuous
 62
     7
370
    13
100
AcDbLine
 10
4537.201999999997
 20
4928.846999999998
 30
0.0
 11
4387.202000000001
 21
4928.846999999998
 31
0.0
  0
LINE
  5
EEB
330
1E
100
AcDbEntity
  8
0
  6
Continuous
 62
     7
370
    13
100
AcDbLine
 10
4413.202
 20
4935.809599999998
 30
0.0
 11
4387.202000000001
 21
4928.842999999996
 31
0.0
  0
LINE
  5
EEC
330
1E
100
AcDbEntity
  8
0
  6
Continuous
 62
     7
370
    13
100
AcDbLine
 10
4387.202000000001
 20
4928.842999999996
 30
0.0
 11
4413.202
 21
4921.876199999996
 31
0.0
  0
LINE
  5
EED
330
1E
100
AcDbEntity
  8
0
  6
Continuous
 62
     7
370
    13
100
AcDbLine
 10
4687.201999999998
 20
4928.846999999998
 30
0.0
 11
4536.756000000001
 21
4928.846999999998
 31
0.0
  0
LINE
  5
EEE
330
1E
100
AcDbEntity
  8
0
  6
Continuous
 62
     7
370
    13
100
AcDbLine
 10
4562.761999999998
 20
4935.809599999998
 30
0.0
 11
4536.761999999998
 21
4928.842999999996
 31
0.0
  0
LINE
  5
EEF
330
1E
100
AcDbEntity
  8
0
  6
Continuous
 62
     7
370
    13
100
AcDbLine
 10
4536.761999999998
 20
4928.842999999996
 30
0.0
 11
4562.761999999998
 21
4921.876199999996
 31
0.0
  0
LINE
  5
EF0
330
1E
100
AcDbEntity
  8
0
  6
Continuous
 62
     7
370
    13
100
AcDbLine
 10
4787.201999999997
 20
4928.846999999998
 30
0.0
 11
4686.154999999998
 21
4928.846999999998
 31
0.0
  0
LINE
  5
EF1
330
1E
100
AcDbEntity
  8
0
  6
Continuous
 62
     7
370
    13
100
AcDbLine
 10
4712.162
 20
4935.809599999998
 30
0.0
 11
4686.162000000002
 21
4928.842999999996
 31
0.0
  0
LINE
  5
EF2
330
1E
100
AcDbEntity
  8
0
  6
Continuous
 62
     7
370
    13
100
AcDbLine
 10
4686.162000000002
 20
4928.842999999996
 30
0.0
 11
4712.162
 21
4921.876199999996
 31
0.0
  0
LINE
  5
EF3
330
1E
100
AcDbEntity
  8
0
  6
Continuous
 62
     7
370
    13
100
AcDbLine
 10
3484.814999999999
 20
5197.116999999998
 30
0.0
 11
3784.814999999999
 21
5197.116999999998
 31
0.0
  0
LINE
  5
EF4
330
1E
100
AcDbEntity
  8
0
  6
Continuous
 62
     7
370
    13
100
AcDbLine
 10
3758.822
 20
5190.136199999998
 30
0.0
 11
3784.822000000001
 21
5197.102999999998
 31
0.0
  0
LINE
  5
EF5
330
1E
100
AcDbEntity
  8
0
  6
Continuous
 62
     7
370
    13
100
AcDbLine
 10
3784.822000000001
 20
5197.102999999998
 30
0.0
 11
3758.822
 21
5204.069599999998
 31
0.0
  0
LINE
  5
EF6
330
1E
100
AcDbEntity
  8
0
  6
Continuous
 62
     7
370
    13
100
AcDbLine
 10
3184.815000000003
 20
5197.116999999998
 30
0.0
 11
3484.814999999999
 21
5197.116999999998
 31
0.0
  0
LINE
  5
EF7
330
1E
100
AcDbEntity
  8
0
  6
Continuous
 62
     7
370
    13
100
AcDbLine
 10
3458.821999999999
 20
5190.136199999998
 30
0.0
 11
3484.821999999998
 21
5197.102999999998
 31
0.0
  0
LINE
  5
EF8
330
1E
100
AcDbEntity
  8
0
  6
Continuous
 62
     7
370
    13
100
AcDbLine
 10
3484.821999999998
 20
5197.102999999998
 30
0.0
 11
3458.821999999999
 21
5204.069599999998
 31
0.0
  0
LINE
  5
EF9
330
1E
100
AcDbEntity
  8
0
  6
Continuous
 62
     7
370
    13
100
AcDbLine
 10
2989.815
 20
5197.116999999998
 30
0.0
 11
3184.815000000003
 21
5197.116999999998
 31
0.0
  0
LINE
  5
EFA
330
1E
100
AcDbEntity
  8
0
  6
Continuous
 62
     7
370
    13
100
AcDbLine
 10
3158.822000000001
 20
5190.136199999998
 30
0.0
 11
3184.822
 21
5197.102999999998
 31
0.0
  0
LINE
  5
EFB
330
1E
100
AcDbEntity
  8
0
  6
Continuous
 62
     7
370
    13
100
AcDbLine
 10
3184.822
 20
5197.102999999998
 30
0.0
 11
3158.822000000001
 21
5204.069599999998
 31
0.0
  0
LINE
  5
EFC
330
1E
100
AcDbEntity
  8
0
  6
Continuous
 62
     7
370
    13
100
AcDbLine
 10
2535.929
 20
5197.116999999998
 30
0.0
 11
2989.815
 21
5197.116999999998
 31
0.0
  0
LINE
  5
EFD
330
1E
100
AcDbEntity
  8
0
  6
Continuous
 62
     7
370
    13
100
AcDbLine
 10
2963.822
 20
5190.136199999998
 30
0.0
 11
2989.822
 21
5197.102999999998
 31
0.0
  0
LINE
  5
EFE
330
1E
100
AcDbEntity
  8
0
  6
Continuous
 62
     7
370
    13
100
AcDbLine
 10
2989.822
 20
5197.102999999998
 30
0.0
 11
2963.822
 21
5204.069599999998
 31
0.0
  0
LINE
  5
EFF
330
1E
100
AcDbEntity
  8
0
  6
Continuous
 62
     7
370
    13
100
AcDbLine
 10
4168.324000000001
 20
4515.520999999996
 30
0.0
 11
4572.201000000001
 21
4515.520999999996
 31
0.0
  0
TEXT
  5
F00
330
1E
100
AcDbEntity
  8
0
  6
Continuous
 62
     7
370
    13
100
AcDbText
 10
4359.923999999999
 20
4534.897999999999
 30
0.0
 40
64.0
  1
D10
  7
BIGFONT
100
AcDbText
  0
CIRCLE
  5
F01
330
1E
100
AcDbEntity
  8
0
  6
Continuous
 62
     7
370
    13
100
AcDbCircle
 10
3436.422
 20
4570.520999999998
 30
0.0
 40
55.0
  0
TEXT
  5
F02
330
1E
100
AcDbEntity
  8
0
  6
Continuous
 62
     7
370
    13
100
AcDbText
 10
3382.745000000003
 20
4533.391999999998
 30
0.0
 40
72.0
  1
Ｓ
  7
BIGFONT
100
AcDbText
  0
TEXT
  5
F03
330
1E
100
AcDbEntity
  8
0
  6
Continuous
 62
     7
370
    13
100
AcDbText
 10
3438.833999999999
 20
4538.491999999998
 30
0.0
 40
40.0
  1
９
  7
BIGFONT
100
AcDbText
  0
LINE
  5
F04
330
1E
100
AcDbEntity
  8
0
  6
Continuous
 62
     7
370
    13
100
AcDbLine
 10
3336.723
 20
4515.520999999996
 30
0.0
 11
3740.600000000001
 21
4515.520999999996
 31
0.0
  0
TEXT
  5
F05
330
1E
100
AcDbEntity
  8
0
  6
Continuous
 62
     7
370
    13
100
AcDbText
 10
3528.323
 20
4534.897999999999
 30
0.0
 40
64.0
  1
D10
  7
BIGFONT
100
AcDbText
  0
LINE
  5
F06
330
1E
100
AcDbEntity
  8
0
  6
Continuous
 62
     7
370
    13
100
AcDbLine
 10
4168.324000000001
 20
4515.520999999996
 30
0.0
 11
4168.324000000001
 21
4760.520999999997
 31
0.0
  0
LINE
  5
F07
330
1E
100
AcDbEntity
  8
0
  6
Continuous
 62
     7
370
    13
100
AcDbLine
 10
4175.308799999998
 20
4734.502999999999
 30
0.0
 11
4168.341999999999
 21
4760.502999999998
 31
0.0
  0
LINE
  5
F08
330
1E
100
AcDbEntity
  8
0
  6
Continuous
 62
     7
370
    13
100
AcDbLine
 10
4168.341999999999
 20
4760.502999999998
 30
0.0
 11
4161.375399999997
 21
4734.502999999999
 31
0.0
  0
LINE
  5
F09
330
1E
100
AcDbEntity
  8
0
  6
Continuous
 62
     7
370
    13
100
AcDbLine
 10
3494.622
 20
4929.304999999999
 30
0.0
 11
3794.621999999998
 21
4929.304999999999
 31
0.0
  0
LINE
  5
F0A
330
1E
100
AcDbEntity
  8
0
  6
Continuous
 62
     7
370
    13
100
AcDbLine
 10
3768.621999999999
 20
4922.336199999998
 30
0.0
 11
3794.621999999998
 21
4929.302999999998
 31
0.0
  0
LINE
  5
F0B
330
1E
100
AcDbEntity
  8
0
  6
Continuous
 62
     7
370
    13
100
AcDbLine
 10
3794.621999999998
 20
4929.302999999998
 30
0.0
 11
3768.621999999999
 21
4936.269599999998
 31
0.0
  0
LINE
  5
F0C
330
1E
100
AcDbEntity
  8
0
  6
Continuous
 62
     7
370
    13
100
AcDbLine
 10
3194.622000000002
 20
4929.304999999999
 30
0.0
 11
3494.622
 21
4929.304999999999
 31
0.0
  0
LINE
  5
F0D
330
1E
100
AcDbEntity
  8
0
  6
Continuous
 62
     7
370
    13
100
AcDbLine
 10
3468.621999999999
 20
4922.336199999998
 30
0.0
 11
3494.622
 21
4929.302999999998
 31
0.0
  0
LINE
  5
F0E
330
1E
100
AcDbEntity
  8
0
  6
Continuous
 62
     7
370
    13
100
AcDbLine
 10
3494.622
 20
4929.302999999998
 30
0.0
 11
3468.621999999999
 21
4936.269599999998
 31
0.0
  0
LINE
  5
F0F
330
1E
100
AcDbEntity
  8
0
  6
Continuous
 62
     7
370
    13
100
AcDbLine
 10
2999.622000000003
 20
4929.304999999999
 30
0.0
 11
3194.622000000002
 21
4929.304999999999
 31
0.0
  0
LINE
  5
F10
330
1E
100
AcDbEntity
  8
0
  6
Continuous
 62
     7
370
    13
100
AcDbLine
 10
3168.622
 20
4922.336199999998
 30
0.0
 11
3194.622000000002
 21
4929.302999999998
 31
0.0
  0
LINE
  5
F11
330
1E
100
AcDbEntity
  8
0
  6
Continuous
 62
     7
370
    13
100
AcDbLine
 10
3194.622000000002
 20
4929.302999999998
 30
0.0
 11
3168.622
 21
4936.269599999998
 31
0.0
  0
LINE
  5
F12
330
1E
100
AcDbEntity
  8
0
  6
Continuous
 62
     7
370
    13
100
AcDbLine
 10
2535.736000000003
 20
4929.304999999999
 30
0.0
 11
2999.622000000003
 21
4929.304999999999
 31
0.0
  0
LINE
  5
F13
330
1E
100
AcDbEntity
  8
0
  6
Continuous
 62
     7
370
    13
100
AcDbLine
 10
2973.622
 20
4922.336199999998
 30
0.0
 11
2999.622000000003
 21
4929.302999999998
 31
0.0
  0
LINE
  5
F14
330
1E
100
AcDbEntity
  8
0
  6
Continuous
 62
     7
370
    13
100
AcDbLine
 10
2999.622000000003
 20
4929.302999999998
 30
0.0
 11
2973.622
 21
4936.269599999998
 31
0.0
  0
TEXT
  5
F15
330
1E
100
AcDbEntity
  8
0
  6
Continuous
 62
     7
370
    13
100
AcDbText
 10
2722.783000000001
 20
5210.941999999997
 30
0.0
 40
64.0
  1
D10
  7
BIGFONT
100
AcDbText
  0
LINE
  5
F16
330
1E
100
AcDbEntity
  8
0
  6
Continuous
 62
     7
370
    13
100
AcDbLine
 10
2939.232
 20
4064.992999999997
 30
0.0
 11
2989.680999999999
 21
4064.992999999997
 31
0.0
  0
LINE
  5
F17
330
1E
100
AcDbEntity
  8
0
  6
Continuous
 62
     7
370
    13
100
AcDbLine
 10
2989.680999999999
 20
4695.520999999998
 30
0.0
 11
2989.680999999999
 21
4044.992999999998
 31
0.0
  0
LINE
  5
F18
330
1E
100
AcDbEntity
  8
0
  6
Continuous
 62
     7
370
    13
100
AcDbLine
 10
2939.232
 20
4694.989999999997
 30
0.0
 11
2939.232
 21
4044.992999999998
 31
0.0
  0
LINE
  5
F19
330
1E
100
AcDbEntity
  8
0
  6
Continuous
 62
     7
370
    13
100
AcDbLine
 10
3041.680999999999
 20
4064.992999999997
 30
0.0
 11
2989.680999999999
 21
4064.992999999997
 31
0.0
  0
LINE
  5
F1A
330
1E
100
AcDbEntity
  8
0
  6
Continuous
 62
     7
370
    13
100
AcDbLine
 10
3015.682000000001
 20
4071.949599999999
 30
0.0
 11
2989.682000000001
 21
4064.982999999998
 31
0.0
  0
LINE
  5
F1B
330
1E
100
AcDbEntity
  8
0
  6
Continuous
 62
     7
370
    13
100
AcDbLine
 10
2989.682000000001
 20
4064.982999999998
 30
0.0
 11
3015.682000000001
 21
4058.016199999998
 31
0.0
  0
LINE
  5
F1C
330
1E
100
AcDbEntity
  8
0
  6
Continuous
 62
     7
370
    13
100
AcDbLine
 10
2939.232
 20
4064.992999999997
 30
0.0
 11
2887.232
 21
4064.992999999997
 31
0.0
  0
LINE
  5
F1D
330
1E
100
AcDbEntity
  8
0
  6
Continuous
 62
     7
370
    13
100
AcDbLine
 10
2913.242
 20
4058.016199999998
 30
0.0
 11
2939.242
 21
4064.982999999998
 31
0.0
  0
LINE
  5
F1E
330
1E
100
AcDbEntity
  8
0
  6
Continuous
 62
     7
370
    13
100
AcDbLine
 10
2939.242
 20
4064.982999999998
 30
0.0
 11
2913.242
 21
4071.949599999999
 31
0.0
  0
LINE
  5
F1F
330
1E
100
AcDbEntity
  8
0
  6
Continuous
 62
     7
370
    13
100
AcDbLine
 10
2887.232
 20
4064.992999999997
 30
0.0
 11
2687.232000000004
 21
4064.992999999997
 31
0.0
  0
TEXT
  5
F20
330
1E
100
AcDbEntity
  8
0
  6
Continuous
 62
     7
370
    13
100
AcDbText
 10
2715.477955981344
 20
4076.992999999998
 30
0.0
 40
64.0
  1
52.5
 41
0.875
  7
BIGFONT
100
AcDbText
  0
LINE
  5
F21
330
1E
100
AcDbEntity
  8
0
  6
Continuous
 62
     7
370
    13
100
AcDbLine
 10
2989.680999999999
 20
4064.992999999997
 30
0.0
 11
4882.506000000002
 21
4064.992999999997
 31
0.0
  0
LINE
  5
F22
330
1E
100
AcDbEntity
  8
0
  6
Continuous
 62
     7
370
    13
100
AcDbLine
 10
4882.506000000002
 20
4695.520999999998
 30
0.0
 11
4882.506000000002
 21
4044.992999999998
 31
0.0
  0
LINE
  5
F23
330
1E
100
AcDbEntity
  8
0
  6
Continuous
 62
     7
370
    13
100
AcDbLine
 10
4856.522000000001
 20
4058.016199999998
 30
0.0
 11
4882.522000000001
 21
4064.982999999998
 31
0.0
  0
LINE
  5
F24
330
1E
100
AcDbEntity
  8
0
  6
Continuous
 62
     7
370
    13
100
AcDbLine
 10
4882.522000000001
 20
4064.982999999998
 30
0.0
 11
4856.522000000001
 21
4071.949599999999
 31
0.0
  0
LINE
  5
F25
330
1E
100
AcDbEntity
  8
0
  6
Continuous
 62
     7
370
    13
100
AcDbLine
 10
3015.682000000001
 20
4071.949599999999
 30
0.0
 11
2989.682000000001
 21
4064.982999999998
 31
0.0
  0
LINE
  5
F26
330
1E
100
AcDbEntity
  8
0
  6
Continuous
 62
     7
370
    13
100
AcDbLine
 10
2989.682000000001
 20
4064.982999999998
 30
0.0
 11
3015.682000000001
 21
4058.016199999998
 31
0.0
  0
TEXT
  5
F27
330
1E
100
AcDbEntity
  8
0
  6
Continuous
 62
     7
370
    13
100
AcDbText
 10
3836.923893718758
 20
4076.992999999998
 30
0.0
 40
64.0
  1
1890
 41
0.875
  7
BIGFONT
100
AcDbText
  0
LINE
  5
F28
330
1E
100
AcDbEntity
  8
0
  6
Continuous
 62
     7
370
    13
100
AcDbLine
 10
4882.506000000002
 20
4064.992999999997
 30
0.0
 11
4935.067
 21
4064.992999999997
 31
0.0
  0
LINE
  5
F29
330
1E
100
AcDbEntity
  8
0
  6
Continuous
 62
     7
370
    13
100
AcDbLine
 10
4935.067
 20
4695.967999999997
 30
0.0
 11
4935.067
 21
4044.992999999998
 31
0.0
  0
LINE
  5
F2A
330
1E
100
AcDbEntity
  8
0
  6
Continuous
 62
     7
370
    13
100
AcDbLine
 10
4987.066999999999
 20
4064.992999999997
 30
0.0
 11
4935.067
 21
4064.992999999997
 31
0.0
  0
LINE
  5
F2B
330
1E
100
AcDbEntity
  8
0
  6
Continuous
 62
     7
370
    13
100
AcDbLine
 10
4961.081999999999
 20
4071.949599999999
 30
0.0
 11
4935.081999999998
 21
4064.982999999998
 31
0.0
  0
LINE
  5
F2C
330
1E
100
AcDbEntity
  8
0
  6
Continuous
 62
     7
370
    13
100
AcDbLine
 10
4935.081999999998
 20
4064.982999999998
 30
0.0
 11
4961.081999999999
 21
4058.016199999998
 31
0.0
  0
LINE
  5
F2D
330
1E
100
AcDbEntity
  8
0
  6
Continuous
 62
     7
370
    13
100
AcDbLine
 10
4882.506000000002
 20
4064.992999999997
 30
0.0
 11
4830.505999999997
 21
4064.992999999997
 31
0.0
  0
LINE
  5
F2E
330
1E
100
AcDbEntity
  8
0
  6
Continuous
 62
     7
370
    13
100
AcDbLine
 10
4856.522000000001
 20
4058.016199999998
 30
0.0
 11
4882.522000000001
 21
4064.982999999998
 31
0.0
  0
LINE
  5
F2F
330
1E
100
AcDbEntity
  8
0
  6
Continuous
 62
     7
370
    13
100
AcDbLine
 10
4882.522000000001
 20
4064.982999999998
 30
0.0
 11
4856.522000000001
 21
4071.949599999999
 31
0.0
  0
LINE
  5
F30
330
1E
100
AcDbEntity
  8
0
  6
Continuous
 62
     7
370
    13
100
AcDbLine
 10
4987.066999999999
 20
4064.992999999997
 30
0.0
 11
5215.066999999999
 21
4064.992999999997
 31
0.0
  0
TEXT
  5
F31
330
1E
100
AcDbEntity
  8
0
  6
Continuous
 62
     7
370
    13
100
AcDbText
 10
4991.066999999999
 20
4076.992999999998
 30
0.0
 40
64.0
  1
52.5
 41
0.875
  7
BIGFONT
100
AcDbText
  0
LINE
  5
F32
330
1E
100
AcDbEntity
  8
0
  6
Continuous
 62
     7
370
    13
100
AcDbLine
 10
4686.974999999999
 20
4215.520999999997
 30
0.0
 11
4787.234
 21
4215.520999999997
 31
0.0
  0
LINE
  5
F33
330
1E
100
AcDbEntity
  8
0
  6
Continuous
 62
     7
370
    13
100
AcDbLine
 10
4787.234
 20
4695.520999999998
 30
0.0
 11
4787.234
 21
4195.520999999998
 31
0.0
  0
LINE
  5
F34
330
1E
100
AcDbEntity
  8
0
  6
Continuous
 62
     7
370
    13
100
AcDbLine
 10
4686.974999999999
 20
4695.520999999998
 30
0.0
 11
4686.974999999999
 21
4195.520999999998
 31
0.0
  0
LINE
  5
F35
330
1E
100
AcDbEntity
  8
0
  6
Continuous
 62
     7
370
    13
100
AcDbLine
 10
4761.242000000001
 20
4208.536199999997
 30
0.0
 11
4787.242000000001
 21
4215.502999999998
 31
0.0
  0
LINE
  5
F36
330
1E
100
AcDbEntity
  8
0
  6
Continuous
 62
     7
370
    13
100
AcDbLine
 10
4787.242000000001
 20
4215.502999999998
 30
0.0
 11
4761.242000000001
 21
4222.469599999996
 31
0.0
  0
LINE
  5
F37
330
1E
100
AcDbEntity
  8
0
  6
Continuous
 62
     7
370
    13
100
AcDbLine
 10
4712.982
 20
4222.469599999996
 30
0.0
 11
4686.981999999999
 21
4215.502999999998
 31
0.0
  0
LINE
  5
F38
330
1E
100
AcDbEntity
  8
0
  6
Continuous
 62
     7
370
    13
100
AcDbLine
 10
4686.981999999999
 20
4215.502999999998
 30
0.0
 11
4712.982
 21
4208.536199999997
 31
0.0
  0
TEXT
  5
F39
330
1E
100
AcDbEntity
  8
0
  6
Continuous
 62
     7
370
    13
100
AcDbText
 10
4653.104599999997
 20
4139.520999999997
 30
0.0
 40
64.0
  1
100
 41
0.875
  7
BIGFONT
100
AcDbText
  0
LINE
  5
F3A
330
1E
100
AcDbEntity
  8
0
  6
Continuous
 62
     7
370
    13
100
AcDbLine
 10
4787.234
 20
4215.520999999997
 30
0.0
 11
4882.506000000002
 21
4215.520999999997
 31
0.0
  0
LINE
  5
F3B
330
1E
100
AcDbEntity
  8
0
  6
Continuous
 62
     7
370
    13
100
AcDbLine
 10
4882.506000000002
 20
4225.149999999998
 30
0.0
 11
4882.506000000002
 21
4195.520999999998
 31
0.0
  0
LINE
  5
F3C
330
1E
100
AcDbEntity
  8
0
  6
Continuous
 62
     7
370
    13
100
AcDbLine
 10
4856.522000000001
 20
4208.536199999997
 30
0.0
 11
4882.522000000001
 21
4215.502999999998
 31
0.0
  0
LINE
  5
F3D
330
1E
100
AcDbEntity
  8
0
  6
Continuous
 62
     7
370
    13
100
AcDbLine
 10
4882.522000000001
 20
4215.502999999998
 30
0.0
 11
4856.522000000001
 21
4222.469599999996
 31
0.0
  0
LINE
  5
F3E
330
1E
100
AcDbEntity
  8
0
  6
Continuous
 62
     7
370
    13
100
AcDbLine
 10
4813.241999999998
 20
4222.469599999996
 30
0.0
 11
4787.242000000001
 21
4215.502999999998
 31
0.0
  0
LINE
  5
F3F
330
1E
100
AcDbEntity
  8
0
  6
Continuous
 62
     7
370
    13
100
AcDbLine
 10
4787.242000000001
 20
4215.502999999998
 30
0.0
 11
4813.241999999998
 21
4208.536199999997
 31
0.0
  0
TEXT
  5
F40
330
1E
100
AcDbEntity
  8
0
  6
Continuous
 62
     7
370
    13
100
AcDbText
 10
4778.869999999999
 20
4227.520999999998
 30
0.0
 40
64.0
  1
95
 41
0.875
  7
BIGFONT
100
AcDbText
  0
LINE
  5
F41
330
1E
100
AcDbEntity
  8
0
  6
Continuous
 62
     7
370
    13
100
AcDbLine
 10
2989.680999999999
 20
4365.520999999998
 30
0.0
 11
3184.419
 21
4365.520999999998
 31
0.0
  0
LINE
  5
F42
330
1E
100
AcDbEntity
  8
0
  6
Continuous
 62
     7
370
    13
100
AcDbLine
 10
3184.419
 20
4695.520999999998
 30
0.0
 11
3184.419
 21
4345.520999999997
 31
0.0
  0
LINE
  5
F43
330
1E
100
AcDbEntity
  8
0
  6
Continuous
 62
     7
370
    13
100
AcDbLine
 10
2989.680999999999
 20
4419.561999999998
 30
0.0
 11
2989.680999999999
 21
4345.520999999997
 31
0.0
  0
LINE
  5
F44
330
1E
100
AcDbEntity
  8
0
  6
Continuous
 62
     7
370
    13
100
AcDbLine
 10
3158.422000000001
 20
4358.536199999995
 30
0.0
 11
3184.421999999999
 21
4365.502999999996
 31
0.0
  0
LINE
  5
F45
330
1E
100
AcDbEntity
  8
0
  6
Continuous
 62
     7
370
    13
100
AcDbLine
 10
3184.421999999999
 20
4365.502999999996
 30
0.0
 11
3158.422000000001
 21
4372.469599999998
 31
0.0
  0
LINE
  5
F46
330
1E
100
AcDbEntity
  8
0
  6
Continuous
 62
     7
370
    13
100
AcDbLine
 10
3015.682000000001
 20
4372.469599999998
 30
0.0
 11
2989.682000000001
 21
4365.502999999996
 31
0.0
  0
LINE
  5
F47
330
1E
100
AcDbEntity
  8
0
  6
Continuous
 62
     7
370
    13
100
AcDbLine
 10
2989.682000000001
 20
4365.502999999996
 30
0.0
 11
3015.682000000001
 21
4358.536199999995
 31
0.0
  0
TEXT
  5
F48
330
1E
100
AcDbEntity
  8
0
  6
Continuous
 62
     7
370
    13
100
AcDbText
 10
3003.050000000003
 20
4377.520999999997
 30
0.0
 40
64.0
  1
195
 41
0.875
  7
BIGFONT
100
AcDbText
  0
LINE
  5
F49
330
1E
100
AcDbEntity
  8
0
  6
Continuous
 62
     7
370
    13
100
AcDbLine
 10
3933.599
 20
4215.520999999997
 30
0.0
 11
4687.435999999999
 21
4215.520999999997
 31
0.0
  0
LINE
  5
F4A
330
1E
100
AcDbEntity
  8
0
  6
Continuous
 62
     7
370
    13
100
AcDbLine
 10
4661.441999999999
 20
4208.536199999997
 30
0.0
 11
4687.441999999999
 21
4215.502999999998
 31
0.0
  0
LINE
  5
F4B
330
1E
100
AcDbEntity
  8
0
  6
Continuous
 62
     7
370
    13
100
AcDbLine
 10
4687.441999999999
 20
4215.502999999998
 30
0.0
 11
4661.441999999999
 21
4222.469599999996
 31
0.0
  0
LINE
  5
F4C
330
1E
100
AcDbEntity
  8
0
  6
Continuous
 62
     7
370
    13
100
AcDbLine
 10
3930.909
 20
4365.520999999998
 30
0.0
 11
3184.279999999999
 21
4365.520999999998
 31
0.0
  0
LINE
  5
F4D
330
1E
100
AcDbEntity
  8
0
  6
Continuous
 62
     7
370
    13
100
AcDbLine
 10
3210.282000000001
 20
4372.469599999998
 30
0.0
 11
3184.282
 21
4365.502999999996
 31
0.0
  0
LINE
  5
F4E
330
1E
100
AcDbEntity
  8
0
  6
Continuous
 62
     7
370
    13
100
AcDbLine
 10
3184.282
 20
4365.502999999996
 30
0.0
 11
3210.282000000001
 21
4358.536199999995
 31
0.0
  0
TEXT
  5
F4F
330
1E
100
AcDbEntity
  8
0
  6
Continuous
 62
     7
370
    13
100
AcDbText
 10
3322.660000000002
 20
4376.812999999998
 30
0.0
 40
64.0
  1
5×300=1500
  7
BIGFONT
100
AcDbText
  0
TEXT
  5
F50
330
1E
100
AcDbEntity
  8
0
  6
Continuous
 62
     7
370
    13
100
AcDbText
 10
3985.833999999999
 20
4228.740999999998
 30
0.0
 40
64.0
  1
10×150=1500
  7
BIGFONT
100
AcDbText
  0
LINE
  5
F51
330
1E
100
AcDbEntity
  8
0
  6
Continuous
 62
     7
370
    13
100
AcDbLine
 10
4934.701999999997
 20
5815.520999999999
 30
0.0
 11
4934.701999999997
 21
5965.520999999998
 31
0.0
  0
LINE
  5
F52
330
1E
100
AcDbEntity
  8
0
  6
Continuous
 62
     7
370
    13
100
AcDbLine
 10
4375.416000000001
 20
5415.520999999999
 30
0.0
 11
4563.940999999998
 21
5415.520999999999
 31
0.0
  0
LINE
  5
F53
330
1E
100
AcDbEntity
  8
0
  6
Continuous
 62
     7
370
    13
100
AcDbLine
 10
4462.202000000001
 20
5321.520999999997
 30
0.0
 11
4462.202000000001
 21
5509.520999999999
 31
0.0
  0
CIRCLE
  5
F54
330
1E
100
AcDbEntity
  8
0
  6
Continuous
 62
     7
370
    13
100
AcDbCircle
 10
4462.202000000001
 20
5415.520999999999
 30
0.0
 40
37.5
  0
LINE
  5
F55
330
1E
100
AcDbEntity
  8
0
  6
Continuous
 62
     7
370
    13
100
AcDbLine
 10
3325.415999999999
 20
5415.520999999999
 30
0.0
 11
3513.940999999999
 21
5415.520999999999
 31
0.0
  0
LINE
  5
F56
330
1E
100
AcDbEntity
  8
0
  6
Continuous
 62
     7
370
    13
100
AcDbLine
 10
3412.201999999999
 20
5321.520999999997
 30
0.0
 11
3412.201999999999
 21
5509.520999999999
 31
0.0
  0
CIRCLE
  5
F57
330
1E
100
AcDbEntity
  8
0
  6
Continuous
 62
     7
370
    13
100
AcDbCircle
 10
3412.201999999999
 20
5415.520999999999
 30
0.0
 40
37.5
  0
LINE
  5
F58
330
1E
100
AcDbEntity
  8
0
  6
Continuous
 62
     7
370
    13
100
AcDbLine
 10
2939.702
 20
5815.520999999999
 30
0.0
 11
2939.702
 21
5965.520999999998
 31
0.0
  0
LINE
  5
F59
330
1E
100
AcDbEntity
  8
0
  6
Continuous
 62
     1
370
    25
100
AcDbLine
 10
3937.201999999999
 20
5911.520999999998
 30
0.0
 11
4882.201999999997
 21
5911.520999999998
 31
0.0
  0
LINE
  5
F5A
330
1E
100
AcDbEntity
  8
0
  6
Continuous
 62
     1
370
    25
100
AcDbLine
 10
4786.987000000001
 20
4760.520999999997
 30
0.0
 11
4786.987000000001
 21
5911.520999999998
 31
0.0
  0
LINE
  5
F5B
330
1E
100
AcDbEntity
  8
0
  6
Continuous
 62
     1
370
    25
100
AcDbLine
 10
4686.987000000001
 20
4760.520999999997
 30
0.0
 11
4686.987000000001
 21
5911.520999999998
 31
0.0
  0
LINE
  5
F5C
330
1E
100
AcDbEntity
  8
0
  6
Continuous
 62
     1
370
    25
100
AcDbLine
 10
4536.987000000001
 20
4760.520999999997
 30
0.0
 11
4536.987000000001
 21
5911.520999999998
 31
0.0
  0
LINE
  5
F5D
330
1E
100
AcDbEntity
  8
0
  6
Continuous
 62
     1
370
    25
100
AcDbLine
 10
4386.987000000001
 20
4760.520999999997
 30
0.0
 11
4386.987000000001
 21
5911.520999999998
 31
0.0
  0
LINE
  5
F5E
330
1E
100
AcDbEntity
  8
0
  6
Continuous
 62
     1
370
    25
100
AcDbLine
 10
4236.987000000001
 20
4760.520999999997
 30
0.0
 11
4236.987000000001
 21
5911.520999999998
 31
0.0
  0
LINE
  5
F5F
330
1E
100
AcDbEntity
  8
0
  6
Continuous
 62
     1
370
    25
100
AcDbLine
 10
4086.987000000001
 20
4760.520999999997
 30
0.0
 11
4086.987000000001
 21
5911.520999999998
 31
0.0
  0
LINE
  5
F60
330
1E
100
AcDbEntity
  8
0
  6
Continuous
 62
     7
370
    13
100
AcDbLine
 10
3936.987000000002
 20
4760.520999999997
 30
0.0
 11
3936.987000000002
 21
5911.520999999998
 31
0.0
  0
LINE
  5
F61
330
1E
100
AcDbEntity
  8
0
  6
Continuous
 62
     1
370
    25
100
AcDbLine
 10
2989.622
 20
4810.520999999997
 30
0.0
 11
3934.622
 21
4810.520999999997
 31
0.0
  0
LINE
  5
F62
330
1E
100
AcDbEntity
  8
0
  6
Continuous
 62
     1
370
    25
100
AcDbLine
 10
4881.987000000001
 20
4760.520999999997
 30
0.0
 11
4881.987000000001
 21
5541.520999999998
 31
0.0
  0
LINE
  5
F63
330
1E
100
AcDbEntity
  8
0
  6
Continuous
 62
     1
370
    25
100
AcDbLine
 10
4881.987000000001
 20
5751.520999999998
 30
0.0
 11
4881.987000000001
 21
5911.520999999998
 31
0.0
  0
LINE
  5
F64
330
1E
100
AcDbEntity
  8
0
  6
DASHED
 62
     1
370
    25
100
AcDbLine
 10
3794.621999999998
 20
4760.520999999997
 30
0.0
 11
3794.621999999998
 21
5061.563999999998
 31
0.0
  0
LINE
  5
F65
330
1E
100
AcDbEntity
  8
0
  6
DASHED
 62
     1
370
    25
100
AcDbLine
 10
3494.622
 20
4760.520999999997
 30
0.0
 11
3494.622
 21
5061.563999999998
 31
0.0
  0
LINE
  5
F66
330
1E
100
AcDbEntity
  8
0
  6
DASHED
 62
     1
370
    25
100
AcDbLine
 10
3194.622000000002
 20
4760.520999999997
 30
0.0
 11
3194.622000000002
 21
5061.563999999998
 31
0.0
  0
LINE
  5
F67
330
1E
100
AcDbEntity
  8
0
  6
DASHED
 62
     1
370
    25
100
AcDbLine
 10
2999.622000000003
 20
4760.520999999997
 30
0.0
 11
2999.622000000003
 21
5061.563999999998
 31
0.0
  0
LINE
  5
F68
330
1E
100
AcDbEntity
  8
0
  6
Continuous
 62
     1
370
    25
100
AcDbLine
 10
3937.201999999999
 20
5010.520999999998
 30
0.0
 11
4882.201999999997
 21
5010.520999999998
 31
0.0
  0
LINE
  5
F69
330
1E
100
AcDbEntity
  8
0
  6
Continuous
 62
     1
370
    25
100
AcDbLine
 10
3937.201999999999
 20
5260.520999999998
 30
0.0
 11
4882.201999999997
 21
5260.520999999998
 31
0.0
  0
LINE
  5
F6A
330
1E
100
AcDbEntity
  8
0
  6
Continuous
 62
     1
370
    25
100
AcDbLine
 10
3937.201999999999
 20
5510.520999999998
 30
0.0
 11
4882.201999999997
 21
5510.520999999998
 31
0.0
  0
LINE
  5
F6B
330
1E
100
AcDbEntity
  8
0
  6
Continuous
 62
     1
370
    25
100
AcDbLine
 10
3937.201999999999
 20
5760.520999999998
 30
0.0
 11
4882.201999999997
 21
5760.520999999998
 31
0.0
  0
LINE
  5
F6C
330
1E
100
AcDbEntity
  8
0
  6
Continuous
 62
     1
370
    25
100
AcDbLine
 10
3784.622
 20
4760.520999999997
 30
0.0
 11
3784.622
 21
5260.520999999998
 31
0.0
  0
LINE
  5
F6D
330
1E
100
AcDbEntity
  8
0
  6
Continuous
 62
     1
370
    25
100
AcDbLine
 10
3484.622
 20
4760.520999999997
 30
0.0
 11
3484.622
 21
5260.520999999998
 31
0.0
  0
LINE
  5
F6E
330
1E
100
AcDbEntity
  8
0
  6
Continuous
 62
     1
370
    25
100
AcDbLine
 10
3184.622000000001
 20
4760.520999999997
 30
0.0
 11
3184.622000000001
 21
5260.520999999998
 31
0.0
  0
LINE
  5
F6F
330
1E
100
AcDbEntity
  8
0
  6
Continuous
 62
     1
370
    25
100
AcDbLine
 10
2989.622
 20
4760.520999999997
 30
0.0
 11
2989.622
 21
5260.520999999998
 31
0.0
  0
LINE
  5
F70
330
1E
100
AcDbEntity
  8
0
  6
Continuous
 62
     1
370
    25
100
AcDbLine
 10
2989.622
 20
5110.520999999998
 30
0.0
 11
3934.622
 21
5110.520999999998
 31
0.0
  0
LINE
  5
F71
330
1E
100
AcDbEntity
  8
0
  6
Continuous
 62
     7
370
    13
100
AcDbLine
 10
1686.768999999998
 20
851.3119999999981
 30
0.0
 11
1689.768999999998
 21
854.311999999998
 31
0.0
  0
LINE
  5
F72
330
1E
100
AcDbEntity
  8
0
  6
Continuous
 62
     7
370
    13
100
AcDbLine
 10
1686.768999999998
 20
2846.311999999998
 30
0.0
 11
1689.768999999998
 21
2843.311999999999
 31
0.0
  0
LINE
  5
F73
330
1E
100
AcDbEntity
  8
0
  6
Continuous
 62
     7
370
    13
100
AcDbLine
 10
936.7690000000003
 20
2846.311999999998
 30
0.0
 11
1686.768999999998
 21
2846.311999999998
 31
0.0
  0
LINE
  5
F74
330
1E
100
AcDbEntity
  8
0
  6
Continuous
 62
     7
370
    13
100
AcDbLine
 10
1431.769
 20
2800.956999999998
 30
0.0
 11
1431.769
 21
2840.956999999998
 31
0.0
  0
LINE
  5
F75
330
1E
100
AcDbEntity
  8
0
  6
Continuous
 62
     7
370
    13
100
AcDbLine
 10
1341.768999999998
 20
2840.956999999998
 30
0.0
 11
1431.769
 21
2840.956999999998
 31
0.0
  0
LINE
  5
F76
330
1E
100
AcDbEntity
  8
0
  6
Continuous
 62
     7
370
    13
100
AcDbLine
 10
1341.768999999998
 20
2800.956999999998
 30
0.0
 11
1341.768999999998
 21
2840.956999999998
 31
0.0
  0
LINE
  5
F77
330
1E
100
AcDbEntity
  8
0
  6
Continuous
 62
     7
370
    13
100
AcDbLine
 10
1331.769
 20
2630.956999999998
 30
0.0
 11
1331.769
 21
2830.956999999998
 31
0.0
  0
LINE
  5
F78
330
1E
100
AcDbEntity
  8
0
  6
Continuous
 62
     7
370
    13
100
AcDbLine
 10
1441.769
 20
2630.956999999998
 30
0.0
 11
1441.769
 21
2830.956999999998
 31
0.0
  0
LINE
  5
F79
330
1E
100
AcDbEntity
  8
0
  6
HIDDEN
 62
     7
370
    13
100
AcDbLine
 10
1386.768999999998
 20
2749.022999999997
 30
0.0
 11
1386.768999999998
 21
2893.612999999998
 31
0.0
  0
LINE
  5
F7A
330
1E
100
AcDbEntity
  8
0
  6
Continuous
 62
     1
370
    25
100
AcDbLine
 10
981.7690000000002
 20
1848.811999999996
 30
0.0
 11
981.7690000000002
 21
2796.311999999999
 31
0.0
  0
TEXT
  5
F7B
330
1E
100
AcDbEntity
  8
0
  6
Continuous
 62
     7
370
    13
100
AcDbText
 10
571.0319999999992
 20
2123.27627580101
 30
0.0
 40
100.0
  1
上面
 50
90.0
  7
BIGFONT
100
AcDbText
  0
TEXT
  5
F7C
330
1E
100
AcDbEntity
  8
0
  6
Continuous
 62
     7
370
    13
100
AcDbText
 10
569.5460000000003
 20
1336.896275801012
 30
0.0
 40
100.0
  1
下面
 50
90.0
  7
BIGFONT
100
AcDbText
  0
TEXT
  5
F7D
330
1E
100
AcDbEntity
  8
0
  6
Continuous
 62
     7
370
    13
100
AcDbText
 10
329.1380000000008
 20
1707.67727580101
 30
0.0
 40
120.0
  1
底版
 50
90.0
  7
BIGFONT
100
AcDbText
  0
LINE
  5
F7E
330
1E
100
AcDbEntity
  8
0
  6
Continuous
 62
     7
370
    13
100
AcDbLine
 10
588.3029999999998
 20
1985.065999999997
 30
0.0
 11
588.3029999999998
 21
2485.065999999997
 31
0.0
  0
LINE
  5
F7F
330
1E
100
AcDbEntity
  8
0
  6
Continuous
 62
     7
370
    13
100
AcDbLine
 10
588.3029999999998
 20
1201.136
 30
0.0
 11
588.3029999999998
 21
1701.136
 31
0.0
  0
LINE
  5
F80
330
1E
100
AcDbEntity
  8
0
  6
Continuous
 62
     7
370
    13
100
AcDbLine
 10
354.137999999999
 20
1577.283
 30
0.0
 11
354.137999999999
 21
2102.724999999996
 31
0.0
  0
CIRCLE
  5
F81
330
1E
100
AcDbEntity
  8
0
  6
Continuous
 62
     7
370
    13
100
AcDbCircle
 10
758.1230000000013
 20
3151.121999999998
 30
0.0
 40
55.0
  0
CIRCLE
  5
F82
330
1E
100
AcDbEntity
  8
0
  6
Continuous
 62
     7
370
    13
100
AcDbCircle
 10
1297.634999999998
 20
3154.388999999998
 30
0.0
 40
55.0
  0
CIRCLE
  5
F83
330
1E
100
AcDbEntity
  8
0
  6
Continuous
 62
     7
370
    13
100
AcDbCircle
 10
1779.995999999999
 20
3150.180999999998
 30
0.0
 40
55.0
  0
TEXT
  5
F84
330
1E
100
AcDbEntity
  8
0
  6
Continuous
 62
     7
370
    13
100
AcDbText
 10
704.4459999999999
 20
3113.992999999998
 30
0.0
 40
72.0
  1
Ｓ
  7
BIGFONT
100
AcDbText
  0
TEXT
  5
F85
330
1E
100
AcDbEntity
  8
0
  6
Continuous
 62
     7
370
    13
100
AcDbText
 10
1243.957999999999
 20
3117.259999999999
 30
0.0
 40
72.0
  1
Ｓ
  7
BIGFONT
100
AcDbText
  0
TEXT
  5
F86
330
1E
100
AcDbEntity
  8
0
  6
Continuous
 62
     7
370
    13
100
AcDbText
 10
1726.318999999999
 20
3113.051999999999
 30
0.0
 40
72.0
  1
Ｓ
  7
BIGFONT
100
AcDbText
  0
TEXT
  5
F87
330
1E
100
AcDbEntity
  8
0
  6
Continuous
 62
     7
370
    13
100
AcDbText
 10
764.7559999999994
 20
3118.773999999998
 30
0.0
 40
40.0
  1
５
  7
BIGFONT
100
AcDbText
  0
TEXT
  5
F88
330
1E
100
AcDbEntity
  8
0
  6
Continuous
 62
     7
370
    13
100
AcDbText
 10
1301.543999999998
 20
3122.152999999999
 30
0.0
 40
40.0
  1
６
  7
BIGFONT
100
AcDbText
  0
TEXT
  5
F89
330
1E
100
AcDbEntity
  8
0
  6
Continuous
 62
     7
370
    13
100
AcDbText
 10
1779.931999999999
 20
3118.401999999998
 30
0.0
 40
40.0
  1
７
  7
BIGFONT
100
AcDbText
  0
LINE
  5
F8A
330
1E
100
AcDbEntity
  8
0
  6
Continuous
 62
     1
370
    25
100
AcDbLine
 10
1030.769000000002
 20
903.8119999999983
 30
0.0
 11
1030.769000000002
 21
1848.811999999996
 31
0.0
  0
LINE
  5
F8B
330
1E
100
AcDbEntity
  8
0
  6
DASHED
 62
     1
370
    25
100
AcDbLine
 10
981.7690000000002
 20
1708.811999999997
 30
0.0
 11
1269.769
 21
1708.811999999997
 31
0.0
  0
LINE
  5
F8C
330
1E
100
AcDbEntity
  8
0
  6
Continuous
 62
     7
370
    13
100
AcDbLine
 10
2486.769000000001
 20
854.311999999998
 30
0.0
 11
2486.769000000001
 21
904.0519999999983
 31
0.0
  0
LINE
  5
F8D
330
1E
100
AcDbEntity
  8
0
  6
Continuous
 62
     7
370
    13
100
AcDbLine
 10
1856.768999999998
 20
904.0519999999983
 30
0.0
 11
2506.768999999998
 21
904.0519999999983
 31
0.0
  0
LINE
  5
F8E
330
1E
100
AcDbEntity
  8
0
  6
Continuous
 62
     7
370
    13
100
AcDbLine
 10
1856.768999999998
 20
854.311999999998
 30
0.0
 11
2506.768999999998
 21
854.311999999998
 31
0.0
  0
LINE
  5
F8F
330
1E
100
AcDbEntity
  8
0
  6
Continuous
 62
     7
370
    13
100
AcDbLine
 10
2486.769000000001
 20
956.0519999999979
 30
0.0
 11
2486.769000000001
 21
904.0519999999983
 31
0.0
  0
LINE
  5
F90
330
1E
100
AcDbEntity
  8
0
  6
Continuous
 62
     7
370
    13
100
AcDbLine
 10
2479.815400000003
 20
930.0630000000003
 30
0.0
 11
2486.782
 21
904.062999999998
 31
0.0
  0
LINE
  5
F91
330
1E
100
AcDbEntity
  8
0
  6
Continuous
 62
     7
370
    13
100
AcDbLine
 10
2486.782
 20
904.062999999998
 30
0.0
 11
2493.7488
 21
930.0630000000003
 31
0.0
  0
LINE
  5
F92
330
1E
100
AcDbEntity
  8
0
  6
Continuous
 62
     7
370
    13
100
AcDbLine
 10
2486.769000000001
 20
854.311999999998
 30
0.0
 11
2486.769000000001
 21
802.3119999999998
 31
0.0
  0
LINE
  5
F93
330
1E
100
AcDbEntity
  8
0
  6
Continuous
 62
     7
370
    13
100
AcDbLine
 10
2493.7488
 20
828.3230000000004
 30
0.0
 11
2486.782
 21
854.3229999999983
 31
0.0
  0
LINE
  5
F94
330
1E
100
AcDbEntity
  8
0
  6
Continuous
 62
     7
370
    13
100
AcDbLine
 10
2486.782
 20
854.3229999999983
 30
0.0
 11
2479.815400000003
 21
828.3230000000004
 31
0.0
  0
LINE
  5
F95
330
1E
100
AcDbEntity
  8
0
  6
Continuous
 62
     7
370
    13
100
AcDbLine
 10
2486.769000000001
 20
802.3119999999998
 30
0.0
 11
2486.769000000001
 21
602.3119999999997
 31
0.0
  0
TEXT
  5
F96
330
1E
100
AcDbEntity
  8
0
  6
Continuous
 62
     7
370
    13
100
AcDbText
 10
2474.769
 20
641.5529917332595
 30
0.0
 40
64.0
  1
52.5
 50
90.0
 41
0.875
  7
BIGFONT
100
AcDbText
  0
LINE
  5
F97
330
1E
100
AcDbEntity
  8
0
  6
Continuous
 62
     7
370
    13
100
AcDbLine
 10
2486.769000000001
 20
904.0519999999983
 30
0.0
 11
2486.769000000001
 21
2793.811999999998
 31
0.0
  0
LINE
  5
F98
330
1E
100
AcDbEntity
  8
0
  6
Continuous
 62
     7
370
    13
100
AcDbLine
 10
1856.768999999998
 20
2793.811999999998
 30
0.0
 11
2506.768999999998
 21
2793.811999999998
 31
0.0
  0
LINE
  5
F99
330
1E
100
AcDbEntity
  8
0
  6
Continuous
 62
     7
370
    13
100
AcDbLine
 10
2493.7488
 20
2767.822999999997
 30
0.0
 11
2486.782
 21
2793.822999999998
 31
0.0
  0
LINE
  5
F9A
330
1E
100
AcDbEntity
  8
0
  6
Continuous
 62
     7
370
    13
100
AcDbLine
 10
2486.782
 20
2793.822999999998
 30
0.0
 11
2479.815400000003
 21
2767.822999999997
 31
0.0
  0
LINE
  5
F9B
330
1E
100
AcDbEntity
  8
0
  6
Continuous
 62
     7
370
    13
100
AcDbLine
 10
2479.815400000003
 20
930.0630000000003
 30
0.0
 11
2486.782
 21
904.062999999998
 31
0.0
  0
LINE
  5
F9C
330
1E
100
AcDbEntity
  8
0
  6
Continuous
 62
     7
370
    13
100
AcDbLine
 10
2486.782
 20
904.062999999998
 30
0.0
 11
2493.7488
 21
930.0630000000003
 31
0.0
  0
TEXT
  5
F9D
330
1E
100
AcDbEntity
  8
0
  6
Continuous
 62
     7
370
    13
100
AcDbText
 10
2474.769
 20
1669.731999999996
 30
0.0
 40
64.0
  1
1890
 50
90.0
 41
0.875
  7
BIGFONT
100
AcDbText
  0
LINE
  5
F9E
330
1E
100
AcDbEntity
  8
0
  6
Continuous
 62
     7
370
    13
100
AcDbLine
 10
2486.769000000001
 20
2793.811999999998
 30
0.0
 11
2486.769000000001
 21
2843.311999999999
 31
0.0
  0
LINE
  5
F9F
330
1E
100
AcDbEntity
  8
0
  6
Continuous
 62
     7
370
    13
100
AcDbLine
 10
1856.768999999998
 20
2843.311999999999
 30
0.0
 11
2506.768999999998
 21
2843.311999999999
 31
0.0
  0
LINE
  5
FA0
330
1E
100
AcDbEntity
  8
0
  6
Continuous
 62
     7
370
    13
100
AcDbLine
 10
2486.769000000001
 20
2895.311999999998
 30
0.0
 11
2486.769000000001
 21
2843.311999999999
 31
0.0
  0
LINE
  5
FA1
330
1E
100
AcDbEntity
  8
0
  6
Continuous
 62
     7
370
    13
100
AcDbLine
 10
2479.815400000003
 20
2869.322999999998
 30
0.0
 11
2486.782
 21
2843.322999999998
 31
0.0
  0
LINE
  5
FA2
330
1E
100
AcDbEntity
  8
0
  6
Continuous
 62
     7
370
    13
100
AcDbLine
 10
2486.782
 20
2843.322999999998
 30
0.0
 11
2493.7488
 21
2869.322999999998
 31
0.0
  0
LINE
  5
FA3
330
1E
100
AcDbEntity
  8
0
  6
Continuous
 62
     7
370
    13
100
AcDbLine
 10
2486.769000000001
 20
2793.811999999998
 30
0.0
 11
2486.769000000001
 21
2741.811999999998
 31
0.0
  0
LINE
  5
FA4
330
1E
100
AcDbEntity
  8
0
  6
Continuous
 62
     7
370
    13
100
AcDbLine
 10
2493.7488
 20
2767.822999999997
 30
0.0
 11
2486.782
 21
2793.822999999998
 31
0.0
  0
LINE
  5
FA5
330
1E
100
AcDbEntity
  8
0
  6
Continuous
 62
     7
370
    13
100
AcDbLine
 10
2486.782
 20
2793.822999999998
 30
0.0
 11
2479.815400000003
 21
2767.822999999997
 31
0.0
  0
LINE
  5
FA6
330
1E
100
AcDbEntity
  8
0
  6
Continuous
 62
     7
370
    13
100
AcDbLine
 10
2486.769000000001
 20
2895.311999999998
 30
0.0
 11
2486.769000000001
 21
3123.311999999998
 31
0.0
  0
TEXT
  5
FA7
330
1E
100
AcDbEntity
  8
0
  6
Continuous
 62
     7
370
    13
100
AcDbText
 10
2474.769
 20
2899.311999999998
 30
0.0
 40
64.0
  1
52.5
 50
90.0
 41
0.875
  7
BIGFONT
100
AcDbText
  0
LINE
  5
FA8
330
1E
100
AcDbEntity
  8
0
  6
Continuous
 62
     7
370
    13
100
AcDbLine
 10
2336.769
 20
2601.323999999998
 30
0.0
 11
2336.769
 21
2701.693999999998
 31
0.0
  0
LINE
  5
FA9
330
1E
100
AcDbEntity
  8
0
  6
Continuous
 62
     7
370
    13
100
AcDbLine
 10
1856.768999999998
 20
2701.693999999998
 30
0.0
 11
2356.768999999999
 21
2701.693999999998
 31
0.0
  0
LINE
  5
FAA
330
1E
100
AcDbEntity
  8
0
  6
Continuous
 62
     7
370
    13
100
AcDbLine
 10
1856.768999999998
 20
2601.323999999998
 30
0.0
 11
2356.768999999999
 21
2601.323999999998
 31
0.0
  0
LINE
  5
FAB
330
1E
100
AcDbEntity
  8
0
  6
Continuous
 62
     7
370
    13
100
AcDbLine
 10
2343.7488
 20
2675.702999999999
 30
0.0
 11
2336.782000000003
 21
2701.702999999998
 31
0.0
  0
LINE
  5
FAC
330
1E
100
AcDbEntity
  8
0
  6
Continuous
 62
     7
370
    13
100
AcDbLine
 10
2336.782000000003
 20
2701.702999999998
 30
0.0
 11
2329.8154
 21
2675.702999999999
 31
0.0
  0
LINE
  5
FAD
330
1E
100
AcDbEntity
  8
0
  6
Continuous
 62
     7
370
    13
100
AcDbLine
 10
2329.8154
 20
2627.342999999997
 30
0.0
 11
2336.782000000003
 21
2601.342999999998
 31
0.0
  0
LINE
  5
FAE
330
1E
100
AcDbEntity
  8
0
  6
Continuous
 62
     7
370
    13
100
AcDbLine
 10
2336.782000000003
 20
2601.342999999998
 30
0.0
 11
2343.7488
 21
2627.342999999997
 31
0.0
  0
TEXT
  5
FAF
330
1E
100
AcDbEntity
  8
0
  6
Continuous
 62
     7
370
    13
100
AcDbText
 10
2412.768999999999
 20
2592.949752529947
 30
0.0
 40
64.0
  1
100
 50
90.0
 41
0.875
  7
BIGFONT
100
AcDbText
  0
LINE
  5
FB0
330
1E
100
AcDbEntity
  8
0
  6
Continuous
 62
     7
370
    13
100
AcDbLine
 10
2336.769
 20
2701.693999999998
 30
0.0
 11
2336.769
 21
2793.811999999998
 31
0.0
  0
LINE
  5
FB1
330
1E
100
AcDbEntity
  8
0
  6
Continuous
 62
     7
370
    13
100
AcDbLine
 10
2307.716
 20
2793.811999999998
 30
0.0
 11
2356.768999999999
 21
2793.811999999998
 31
0.0
  0
LINE
  5
FB2
330
1E
100
AcDbEntity
  8
0
  6
Continuous
 62
     7
370
    13
100
AcDbLine
 10
2343.7488
 20
2767.822999999997
 30
0.0
 11
2336.782000000003
 21
2793.822999999998
 31
0.0
  0
LINE
  5
FB3
330
1E
100
AcDbEntity
  8
0
  6
Continuous
 62
     7
370
    13
100
AcDbLine
 10
2336.782000000003
 20
2793.822999999998
 30
0.0
 11
2329.8154
 21
2767.822999999997
 31
0.0
  0
LINE
  5
FB4
330
1E
100
AcDbEntity
  8
0
  6
Continuous
 62
     7
370
    13
100
AcDbLine
 10
2329.8154
 20
2727.702999999998
 30
0.0
 11
2336.782000000003
 21
2701.702999999998
 31
0.0
  0
LINE
  5
FB5
330
1E
100
AcDbEntity
  8
0
  6
Continuous
 62
     7
370
    13
100
AcDbLine
 10
2336.782000000003
 20
2701.702999999998
 30
0.0
 11
2343.7488
 21
2727.702999999998
 31
0.0
  0
TEXT
  5
FB6
330
1E
100
AcDbEntity
  8
0
  6
Continuous
 62
     7
370
    13
100
AcDbText
 10
2324.769
 20
2691.752999999998
 30
0.0
 40
64.0
  1
95
 50
90.0
 41
0.875
  7
BIGFONT
100
AcDbText
  0
LINE
  5
FB7
330
1E
100
AcDbEntity
  8
0
  6
Continuous
 62
     7
370
    13
100
AcDbLine
 10
2186.768999999999
 20
904.0519999999983
 30
0.0
 11
2186.768999999999
 21
1101.762999999998
 31
0.0
  0
LINE
  5
FB8
330
1E
100
AcDbEntity
  8
0
  6
Continuous
 62
     7
370
    13
100
AcDbLine
 10
1856.768999999998
 20
1101.762999999998
 30
0.0
 11
2206.769000000002
 21
1101.762999999998
 31
0.0
  0
LINE
  5
FB9
330
1E
100
AcDbEntity
  8
0
  6
Continuous
 62
     7
370
    13
100
AcDbLine
 10
2092.143999999999
 20
904.0519999999983
 30
0.0
 11
2206.769000000002
 21
904.0519999999983
 31
0.0
  0
LINE
  5
FBA
330
1E
100
AcDbEntity
  8
0
  6
Continuous
 62
     7
370
    13
100
AcDbLine
 10
2193.748799999999
 20
1075.762999999998
 30
0.0
 11
2186.782000000003
 21
1101.762999999998
 31
0.0
  0
LINE
  5
FBB
330
1E
100
AcDbEntity
  8
0
  6
Continuous
 62
     7
370
    13
100
AcDbLine
 10
2186.782000000003
 20
1101.762999999998
 30
0.0
 11
2179.815400000003
 21
1075.762999999998
 31
0.0
  0
LINE
  5
FBC
330
1E
100
AcDbEntity
  8
0
  6
Continuous
 62
     7
370
    13
100
AcDbLine
 10
2179.815400000003
 20
930.0630000000003
 30
0.0
 11
2186.782000000003
 21
904.062999999998
 31
0.0
  0
LINE
  5
FBD
330
1E
100
AcDbEntity
  8
0
  6
Continuous
 62
     7
370
    13
100
AcDbLine
 10
2186.782000000003
 20
904.062999999998
 30
0.0
 11
2193.748799999999
 21
930.0630000000003
 31
0.0
  0
TEXT
  5
FBE
330
1E
100
AcDbEntity
  8
0
  6
Continuous
 62
     7
370
    13
100
AcDbText
 10
2174.769000000002
 20
934.9245368758957
 30
0.0
 40
64.0
  1
195
 50
90.0
 41
0.875
  7
BIGFONT
100
AcDbText
  0
LINE
  5
FBF
330
1E
100
AcDbEntity
  8
0
  6
Continuous
 62
     7
370
    13
100
AcDbLine
 10
2336.769
 20
1848.292999999997
 30
0.0
 11
2336.769
 21
2602.129999999997
 31
0.0
  0
LINE
  5
FC0
330
1E
100
AcDbEntity
  8
0
  6
Continuous
 62
     7
370
    13
100
AcDbLine
 10
2343.7488
 20
2576.142999999995
 30
0.0
 11
2336.782000000003
 21
2602.142999999997
 31
0.0
  0
LINE
  5
FC1
330
1E
100
AcDbEntity
  8
0
  6
Continuous
 62
     7
370
    13
100
AcDbLine
 10
2336.782000000003
 20
2602.142999999997
 30
0.0
 11
2329.8154
 21
2576.142999999995
 31
0.0
  0
LINE
  5
FC2
330
1E
100
AcDbEntity
  8
0
  6
Continuous
 62
     7
370
    13
100
AcDbLine
 10
2186.768999999999
 20
1848.292999999997
 30
0.0
 11
2186.768999999999
 21
1101.664
 31
0.0
  0
LINE
  5
FC3
330
1E
100
AcDbEntity
  8
0
  6
Continuous
 62
     7
370
    13
100
AcDbLine
 10
2179.815400000003
 20
1127.683000000002
 30
0.0
 11
2186.782000000003
 21
1101.683
 31
0.0
  0
LINE
  5
FC4
330
1E
100
AcDbEntity
  8
0
  6
Continuous
 62
     7
370
    13
100
AcDbLine
 10
2186.782000000003
 20
1101.683
 30
0.0
 11
2193.748799999999
 21
1127.683000000002
 31
0.0
  0
TEXT
  5
FC5
330
1E
100
AcDbEntity
  8
0
  6
Continuous
 62
     7
370
    13
100
AcDbText
 10
2175.476999999999
 20
1240.043999999997
 30
0.0
 40
64.0
  1
5×300=1500
 50
90.0
  7
BIGFONT
100
AcDbText
  0
TEXT
  5
FC6
330
1E
100
AcDbEntity
  8
0
  6
Continuous
 62
     7
370
    13
100
AcDbText
 10
2323.548999999999
 20
1900.527999999997
 30
0.0
 40
64.0
  1
10×150=1500
 50
90.0
  7
BIGFONT
100
AcDbText
  0
CIRCLE
  5
FC7
330
1E
100
AcDbEntity
  8
0
  6
Continuous
 62
     7
370
    13
100
AcDbCircle
 10
1974.728999999999
 20
2193.908999999997
 30
0.0
 40
55.0
  0
TEXT
  5
FC8
330
1E
100
AcDbEntity
  8
0
  6
Continuous
 62
     7
370
    13
100
AcDbText
 10
2011.858
 20
2140.231999999999
 30
0.0
 40
72.0
  1
Ｓ
 50
90.0
  7
BIGFONT
100
AcDbText
  0
TEXT
  5
FC9
330
1E
100
AcDbEntity
  8
0
  6
Continuous
 62
     7
370
    13
100
AcDbText
 10
2006.757999999998
 20
2196.320999999996
 30
0.0
 40
40.0
  1
９
 50
90.0
  7
BIGFONT
100
AcDbText
  0
LINE
  5
FCA
330
1E
100
AcDbEntity
  8
0
  6
Continuous
 62
     7
370
    13
100
AcDbLine
 10
2029.672000000001
 20
2080.091999999997
 30
0.0
 11
2029.672000000001
 21
2483.968999999995
 31
0.0
  0
TEXT
  5
FCB
330
1E
100
AcDbEntity
  8
0
  6
Continuous
 62
     7
370
    13
100
AcDbText
 10
2017.448999999999
 20
2285.809999999998
 30
0.0
 40
64.0
  1
D10
 50
90.0
  7
BIGFONT
100
AcDbText
  0
LINE
  5
FCC
330
1E
100
AcDbEntity
  8
0
  6
Continuous
 62
     7
370
    13
100
AcDbLine
 10
1679.717
 20
3095.188999999997
 30
0.0
 11
2083.593999999997
 21
3095.188999999997
 31
0.0
  0
LINE
  5
FCD
330
1E
100
AcDbEntity
  8
0
  6
Continuous
 62
     7
370
    13
100
AcDbLine
 10
670.5430000000014
 20
3096.311999999998
 30
0.0
 11
1074.42
 21
3096.311999999998
 31
0.0
  0
LINE
  5
FCE
330
1E
100
AcDbEntity
  8
0
  6
Continuous
 62
     7
370
    13
100
AcDbLine
 10
1200.437000000001
 20
3098.811999999998
 30
0.0
 11
1604.314000000002
 21
3098.811999999998
 31
0.0
  0
CIRCLE
  5
FCF
330
1E
100
AcDbEntity
  8
0
  6
Continuous
 62
     7
370
    13
100
AcDbCircle
 10
761.7890000000007
 20
603.8119999999978
 30
0.0
 40
55.0
  0
TEXT
  5
FD0
330
1E
100
AcDbEntity
  8
0
  6
Continuous
 62
     7
370
    13
100
AcDbText
 10
708.1119999999991
 20
566.6829999999979
 30
0.0
 40
72.0
  1
Ｓ
  7
BIGFONT
100
AcDbText
  0
TEXT
  5
FD1
330
1E
100
AcDbEntity
  8
0
  6
Continuous
 62
     7
370
    13
100
AcDbText
 10
763.527
 20
571.4639999999978
 30
0.0
 40
40.0
  1
８
  7
BIGFONT
100
AcDbText
  0
LINE
  5
FD2
330
1E
100
AcDbEntity
  8
0
  6
Continuous
 62
     7
370
    13
100
AcDbLine
 10
670.5430000000014
 20
548.812000000002
 30
0.0
 11
1074.42
 21
548.812000000002
 31
0.0
  0
LINE
  5
FD3
330
1E
100
AcDbEntity
  8
0
  6
Continuous
 62
     7
370
    13
100
AcDbLine
 10
670.5430000000014
 20
548.812000000002
 30
0.0
 11
1074.42
 21
548.812000000002
 31
0.0
  0
LINE
  5
FD4
330
1E
100
AcDbEntity
  8
0
  6
Continuous
 62
     7
370
    13
100
AcDbLine
 10
1074.42
 20
1408.811999999998
 30
0.0
 11
1074.42
 21
1708.811999999997
 31
0.0
  0
LINE
  5
FD5
330
1E
100
AcDbEntity
  8
0
  6
Continuous
 62
     7
370
    13
100
AcDbLine
 10
1081.3888
 20
1682.822999999998
 30
0.0
 11
1074.421999999998
 21
1708.823
 31
0.0
  0
LINE
  5
FD6
330
1E
100
AcDbEntity
  8
0
  6
Continuous
 62
     7
370
    13
100
AcDbLine
 10
1074.421999999998
 20
1708.823
 30
0.0
 11
1067.455399999999
 21
1682.822999999998
 31
0.0
  0
LINE
  5
FD7
330
1E
100
AcDbEntity
  8
0
  6
Continuous
 62
     7
370
    13
100
AcDbLine
 10
1074.42
 20
1108.811999999998
 30
0.0
 11
1074.42
 21
1408.914999999998
 31
0.0
  0
LINE
  5
FD8
330
1E
100
AcDbEntity
  8
0
  6
Continuous
 62
     7
370
    13
100
AcDbLine
 10
1081.3888
 20
1382.922999999998
 30
0.0
 11
1074.421999999998
 21
1408.922999999998
 31
0.0
  0
LINE
  5
FD9
330
1E
100
AcDbEntity
  8
0
  6
Continuous
 62
     7
370
    13
100
AcDbLine
 10
1074.421999999998
 20
1408.922999999998
 30
0.0
 11
1067.455399999999
 21
1382.922999999998
 31
0.0
  0
LINE
  5
FDA
330
1E
100
AcDbEntity
  8
0
  6
Continuous
 62
     7
370
    13
100
AcDbLine
 10
1074.42
 20
913.8119999999982
 30
0.0
 11
1074.42
 21
1109.440999999998
 31
0.0
  0
LINE
  5
FDB
330
1E
100
AcDbEntity
  8
0
  6
Continuous
 62
     7
370
    13
100
AcDbLine
 10
1081.3888
 20
1083.442999999998
 30
0.0
 11
1074.421999999998
 21
1109.442999999998
 31
0.0
  0
LINE
  5
FDC
330
1E
100
AcDbEntity
  8
0
  6
Continuous
 62
     7
370
    13
100
AcDbLine
 10
1074.421999999998
 20
1109.442999999998
 30
0.0
 11
1067.455399999999
 21
1083.442999999998
 31
0.0
  0
LINE
  5
FDD
330
1E
100
AcDbEntity
  8
0
  6
Continuous
 62
     7
370
    13
100
AcDbLine
 10
1074.42
 20
548.812000000002
 30
0.0
 11
1074.42
 21
913.8119999999982
 31
0.0
  0
LINE
  5
FDE
330
1E
100
AcDbEntity
  8
0
  6
Continuous
 62
     7
370
    13
100
AcDbLine
 10
1081.3888
 20
887.8229999999986
 30
0.0
 11
1074.421999999998
 21
913.822999999998
 31
0.0
  0
LINE
  5
FDF
330
1E
100
AcDbEntity
  8
0
  6
Continuous
 62
     7
370
    13
100
AcDbLine
 10
1074.421999999998
 20
913.822999999998
 30
0.0
 11
1067.455399999999
 21
887.8229999999986
 31
0.0
  0
LINE
  5
FE0
330
1E
100
AcDbEntity
  8
0
  6
Continuous
 62
     7
370
    13
100
AcDbLine
 10
2029.672000000001
 20
2080.091999999997
 30
0.0
 11
1779.672
 21
2080.091999999997
 31
0.0
  0
LINE
  5
FE1
330
1E
100
AcDbEntity
  8
0
  6
Continuous
 62
     7
370
    13
100
AcDbLine
 10
1805.681999999999
 20
2087.069799999997
 30
0.0
 11
1779.682000000001
 21
2080.102999999998
 31
0.0
  0
LINE
  5
FE2
330
1E
100
AcDbEntity
  8
0
  6
Continuous
 62
     7
370
    13
100
AcDbLine
 10
1779.682000000001
 20
2080.102999999998
 30
0.0
 11
1805.681999999999
 21
2073.136399999998
 31
0.0
  0
CIRCLE
  5
FE3
330
1E
100
AcDbEntity
  8
0
  6
Continuous
 62
     7
370
    13
100
AcDbCircle
 10
1974.728999999999
 20
1368.976999999997
 30
0.0
 40
55.0
  0
TEXT
  5
FE4
330
1E
100
AcDbEntity
  8
0
  6
Continuous
 62
     7
370
    13
100
AcDbText
 10
2011.858
 20
1315.3
 30
0.0
 40
72.0
  1
Ｓ
 50
90.0
  7
BIGFONT
100
AcDbText
  0
TEXT
  5
FE5
330
1E
100
AcDbEntity
  8
0
  6
Continuous
 62
     7
370
    13
100
AcDbText
 10
2006.757999999998
 20
1371.388999999998
 30
0.0
 40
40.0
  1
９
 50
90.0
  7
BIGFONT
100
AcDbText
  0
LINE
  5
FE6
330
1E
100
AcDbEntity
  8
0
  6
Continuous
 62
     7
370
    13
100
AcDbLine
 10
2029.672000000001
 20
1255.16
 30
0.0
 11
2029.672000000001
 21
1659.036999999997
 31
0.0
  0
TEXT
  5
FE7
330
1E
100
AcDbEntity
  8
0
  6
Continuous
 62
     7
370
    13
100
AcDbText
 10
2010.351999999999
 20
1460.877999999998
 30
0.0
 40
64.0
  1
D10
 50
90.0
  7
BIGFONT
100
AcDbText
  0
LINE
  5
FE8
330
1E
100
AcDbEntity
  8
0
  6
Continuous
 62
     7
370
    13
100
AcDbLine
 10
1679.717
 20
3095.188999999997
 30
0.0
 11
1679.717
 21
2792.688999999998
 31
0.0
  0
LINE
  5
FE9
330
1E
100
AcDbEntity
  8
0
  6
Continuous
 62
     7
370
    13
100
AcDbLine
 10
1672.755399999996
 20
2818.702999999998
 30
0.0
 11
1679.722000000001
 21
2792.702999999998
 31
0.0
  0
LINE
  5
FEA
330
1E
100
AcDbEntity
  8
0
  6
Continuous
 62
     7
370
    13
100
AcDbLine
 10
1679.722000000001
 20
2792.702999999998
 30
0.0
 11
1686.6888
 21
2818.702999999998
 31
0.0
  0
LINE
  5
FEB
330
1E
100
AcDbEntity
  8
0
  6
Continuous
 62
     7
370
    13
100
AcDbLine
 10
1200.437000000001
 20
3098.811999999998
 30
0.0
 11
1200.437000000001
 21
2796.311999999999
 31
0.0
  0
LINE
  5
FEC
330
1E
100
AcDbEntity
  8
0
  6
Continuous
 62
     7
370
    13
100
AcDbLine
 10
1193.475400000003
 20
2822.322999999998
 30
0.0
 11
1200.442000000001
 21
2796.322999999998
 31
0.0
  0
LINE
  5
FED
330
1E
100
AcDbEntity
  8
0
  6
Continuous
 62
     7
370
    13
100
AcDbLine
 10
1200.442000000001
 20
2796.322999999998
 30
0.0
 11
1207.408799999999
 21
2822.322999999998
 31
0.0
  0
LINE
  5
FEE
330
1E
100
AcDbEntity
  8
0
  6
Continuous
 62
     7
370
    13
100
AcDbLine
 10
1074.42
 20
2701.311999999998
 30
0.0
 11
1074.42
 21
2601.311999999998
 31
0.0
  0
LINE
  5
FEF
330
1E
100
AcDbEntity
  8
0
  6
Continuous
 62
     7
370
    13
100
AcDbLine
 10
1067.455399999999
 20
2627.322999999998
 30
0.0
 11
1074.421999999998
 21
2601.322999999998
 31
0.0
  0
LINE
  5
FF0
330
1E
100
AcDbEntity
  8
0
  6
Continuous
 62
     7
370
    13
100
AcDbLine
 10
1074.421999999998
 20
2601.322999999998
 30
0.0
 11
1081.3888
 21
2627.322999999998
 31
0.0
  0
LINE
  5
FF1
330
1E
100
AcDbEntity
  8
0
  6
Continuous
 62
     7
370
    13
100
AcDbLine
 10
1074.42
 20
2601.311999999998
 30
0.0
 11
1074.42
 21
2451.311999999998
 31
0.0
  0
LINE
  5
FF2
330
1E
100
AcDbEntity
  8
0
  6
Continuous
 62
     7
370
    13
100
AcDbLine
 10
1067.455399999999
 20
2477.322999999997
 30
0.0
 11
1074.421999999998
 21
2451.322999999997
 31
0.0
  0
LINE
  5
FF3
330
1E
100
AcDbEntity
  8
0
  6
Continuous
 62
     7
370
    13
100
AcDbLine
 10
1074.421999999998
 20
2451.322999999997
 30
0.0
 11
1081.3888
 21
2477.322999999997
 31
0.0
  0
LINE
  5
FF4
330
1E
100
AcDbEntity
  8
0
  6
Continuous
 62
     7
370
    13
100
AcDbLine
 10
1074.42
 20
2451.311999999998
 30
0.0
 11
1074.42
 21
2301.311999999998
 31
0.0
  0
LINE
  5
FF5
330
1E
100
AcDbEntity
  8
0
  6
Continuous
 62
     7
370
    13
100
AcDbLine
 10
1067.455399999999
 20
2327.322999999998
 30
0.0
 11
1074.421999999998
 21
2301.322999999998
 31
0.0
  0
LINE
  5
FF6
330
1E
100
AcDbEntity
  8
0
  6
Continuous
 62
     7
370
    13
100
AcDbLine
 10
1074.421999999998
 20
2301.322999999998
 30
0.0
 11
1081.3888
 21
2327.322999999998
 31
0.0
  0
LINE
  5
FF7
330
1E
100
AcDbEntity
  8
0
  6
Continuous
 62
     7
370
    13
100
AcDbLine
 10
1074.42
 20
2301.311999999998
 30
0.0
 11
1074.42
 21
2151.311999999997
 31
0.0
  0
LINE
  5
FF8
330
1E
100
AcDbEntity
  8
0
  6
Continuous
 62
     7
370
    13
100
AcDbLine
 10
1067.455399999999
 20
2177.322999999997
 30
0.0
 11
1074.421999999998
 21
2151.322999999998
 31
0.0
  0
LINE
  5
FF9
330
1E
100
AcDbEntity
  8
0
  6
Continuous
 62
     7
370
    13
100
AcDbLine
 10
1074.421999999998
 20
2151.322999999998
 30
0.0
 11
1081.3888
 21
2177.322999999997
 31
0.0
  0
LINE
  5
FFA
330
1E
100
AcDbEntity
  8
0
  6
Continuous
 62
     7
370
    13
100
AcDbLine
 10
1074.42
 20
2151.311999999997
 30
0.0
 11
1074.42
 21
2001.311999999997
 31
0.0
  0
LINE
  5
FFB
330
1E
100
AcDbEntity
  8
0
  6
Continuous
 62
     7
370
    13
100
AcDbLine
 10
1067.455399999999
 20
2027.322999999998
 30
0.0
 11
1074.421999999998
 21
2001.322999999998
 31
0.0
  0
LINE
  5
FFC
330
1E
100
AcDbEntity
  8
0
  6
Continuous
 62
     7
370
    13
100
AcDbLine
 10
1074.421999999998
 20
2001.322999999998
 30
0.0
 11
1081.3888
 21
2027.322999999998
 31
0.0
  0
LINE
  5
FFD
330
1E
100
AcDbEntity
  8
0
  6
Continuous
 62
     7
370
    13
100
AcDbLine
 10
1074.42
 20
2001.311999999997
 30
0.0
 11
1074.42
 21
1851.311999999996
 31
0.0
  0
LINE
  5
FFE
330
1E
100
AcDbEntity
  8
0
  6
Continuous
 62
     7
370
    13
100
AcDbLine
 10
1067.455399999999
 20
1877.322999999997
 30
0.0
 11
1074.421999999998
 21
1851.322999999998
 31
0.0
  0
LINE
  5
FFF
330
1E
100
AcDbEntity
  8
0
  6
Continuous
 62
     7
370
    13
100
AcDbLine
 10
1074.421999999998
 20
1851.322999999998
 30
0.0
 11
1081.3888
 21
1877.322999999997
 31
0.0
  0
LINE
  5
1000
330
1E
100
AcDbEntity
  8
0
  6
Continuous
 62
     1
370
    25
100
AcDbLine
 10
981.7690000000002
 20
2701.311999999998
 30
0.0
 11
1707.866000000002
 21
2701.311999999998
 31
0.0
  0
LINE
  5
1001
330
1E
100
AcDbEntity
  8
0
  6
Continuous
 62
     7
370
    13
100
AcDbLine
 10
936.7690000000003
 20
851.3119999999981
 30
0.0
 11
936.7690000000003
 21
1435.859999999997
 31
0.0
  0
LINE
  5
1002
330
1E
100
AcDbEntity
  8
0
  6
Continuous
 62
     7
370
    13
100
AcDbLine
 10
936.7690000000003
 20
1435.859999999997
 30
0.0
 11
936.7690000000003
 21
1669.827999999997
 31
0.0
  0
LINE
  5
1003
330
1E
100
AcDbEntity
  8
0
  6
Continuous
 62
     7
370
    13
100
AcDbLine
 10
936.7690000000003
 20
851.3119999999981
 30
0.0
 11
944.5540000000001
 21
851.3119999999981
 31
0.0
  0
LINE
  5
1004
330
1E
100
AcDbEntity
  8
0
  6
Continuous
 62
     7
370
    13
100
AcDbLine
 10
944.5540000000001
 20
851.3119999999981
 30
0.0
 11
1686.768999999998
 21
851.3119999999981
 31
0.0
  0
LINE
  5
1005
330
1E
100
AcDbEntity
  8
0
  6
Continuous
 62
     7
370
    13
100
AcDbLine
 10
936.7690000000003
 20
1669.827999999997
 30
0.0
 11
936.7690000000003
 21
1796.84
 31
0.0
  0
LINE
  5
1006
330
1E
100
AcDbEntity
  8
0
  6
Continuous
 62
     7
370
    13
100
AcDbLine
 10
936.7690000000003
 20
1796.84
 30
0.0
 11
936.7690000000003
 21
2846.311999999998
 31
0.0
  0
LINE
  5
1007
330
1E
100
AcDbEntity
  8
0
  6
Continuous
 62
     7
370
    13
100
AcDbLine
 10
1336.769
 20
851.3119999999981
 30
0.0
 11
1344.554
 21
851.3119999999981
 31
0.0
  0
CIRCLE
  5
1008
330
1E
100
AcDbEntity
  8
0
  6
Continuous
 62
     7
370
    13
100
AcDbCircle
 10
1251.564
 20
606.4889999999977
 30
0.0
 40
55.0
  0
TEXT
  5
1009
330
1E
100
AcDbEntity
  8
0
  6
Continuous
 62
     7
370
    13
100
AcDbText
 10
1197.886999999999
 20
569.3599999999981
 30
0.0
 40
72.0
  1
Ｓ
  7
BIGFONT
100
AcDbText
  0
TEXT
  5
100A
330
1E
100
AcDbEntity
  8
0
  6
Continuous
 62
     7
370
    13
100
AcDbText
 10
1257.702999999999
 20
574.3019999999983
 30
0.0
 40
40.0
  1
４
  7
BIGFONT
100
AcDbText
  0
LINE
  5
100B
330
1E
100
AcDbEntity
  8
0
  6
Continuous
 62
     7
370
    13
100
AcDbLine
 10
1136.883
 20
548.812000000002
 30
0.0
 11
1540.76
 21
548.812000000002
 31
0.0
  0
TEXT
  5
100C
330
1E
100
AcDbEntity
  8
0
  6
Continuous
 62
     7
370
    13
100
AcDbText
 10
1341.062999999998
 20
570.4759999999979
 30
0.0
 40
64.0
  1
D10
  7
BIGFONT
100
AcDbText
  0
LINE
  5
100D
330
1E
100
AcDbEntity
  8
0
  6
Continuous
 62
     7
370
    13
100
AcDbLine
 10
1136.289999999999
 20
1398.812
 30
0.0
 11
1136.289999999999
 21
1698.811999999996
 31
0.0
  0
LINE
  5
100E
330
1E
100
AcDbEntity
  8
0
  6
Continuous
 62
     7
370
    13
100
AcDbLine
 10
1143.268800000001
 20
1672.823
 30
0.0
 11
1136.302000000001
 21
1698.822999999999
 31
0.0
  0
LINE
  5
100F
330
1E
100
AcDbEntity
  8
0
  6
Continuous
 62
     7
370
    13
100
AcDbLine
 10
1136.302000000001
 20
1698.822999999999
 30
0.0
 11
1129.335400000002
 21
1672.823
 31
0.0
  0
LINE
  5
1010
330
1E
100
AcDbEntity
  8
0
  6
Continuous
 62
     7
370
    13
100
AcDbLine
 10
1136.289999999999
 20
1098.811999999998
 30
0.0
 11
1136.289999999999
 21
1398.812
 31
0.0
  0
LINE
  5
1011
330
1E
100
AcDbEntity
  8
0
  6
Continuous
 62
     7
370
    13
100
AcDbLine
 10
1143.268800000001
 20
1372.822999999999
 30
0.0
 11
1136.302000000001
 21
1398.822999999999
 31
0.0
  0
LINE
  5
1012
330
1E
100
AcDbEntity
  8
0
  6
Continuous
 62
     7
370
    13
100
AcDbLine
 10
1136.302000000001
 20
1398.822999999999
 30
0.0
 11
1129.335400000002
 21
1372.822999999999
 31
0.0
  0
LINE
  5
1013
330
1E
100
AcDbEntity
  8
0
  6
Continuous
 62
     7
370
    13
100
AcDbLine
 10
1136.289999999999
 20
903.8119999999983
 30
0.0
 11
1136.289999999999
 21
1098.811999999998
 31
0.0
  0
LINE
  5
1014
330
1E
100
AcDbEntity
  8
0
  6
Continuous
 62
     7
370
    13
100
AcDbLine
 10
1143.268800000001
 20
1072.823
 30
0.0
 11
1136.302000000001
 21
1098.822999999998
 31
0.0
  0
LINE
  5
1015
330
1E
100
AcDbEntity
  8
0
  6
Continuous
 62
     7
370
    13
100
AcDbLine
 10
1136.302000000001
 20
1098.822999999998
 30
0.0
 11
1129.335400000002
 21
1072.823
 31
0.0
  0
LINE
  5
1016
330
1E
100
AcDbEntity
  8
0
  6
Continuous
 62
     7
370
    13
100
AcDbLine
 10
1136.883
 20
548.812000000002
 30
0.0
 11
1136.289999999999
 21
903.8879999999982
 31
0.0
  0
LINE
  5
1017
330
1E
100
AcDbEntity
  8
0
  6
Continuous
 62
     7
370
    13
100
AcDbLine
 10
1143.3122
 20
877.9147999999977
 30
0.0
 11
1136.302000000001
 21
903.9030000000002
 31
0.0
  0
LINE
  5
1018
330
1E
100
AcDbEntity
  8
0
  6
Continuous
 62
     7
370
    13
100
AcDbLine
 10
1136.302000000001
 20
903.9030000000002
 30
0.0
 11
1129.378799999998
 21
877.891600000002
 31
0.0
  0
LINE
  5
1019
330
1E
100
AcDbEntity
  8
0
  6
Continuous
 62
     7
370
    13
100
AcDbLine
 10
1836.769
 20
851.3119999999981
 30
0.0
 11
1836.769
 21
1435.859999999997
 31
0.0
  0
LINE
  5
101A
330
1E
100
AcDbEntity
  8
0
  6
Continuous
 62
     7
370
    13
100
AcDbLine
 10
1836.769
 20
1435.859999999997
 30
0.0
 11
1836.769
 21
1669.827999999997
 31
0.0
  0
LINE
  5
101B
330
1E
100
AcDbEntity
  8
0
  6
Continuous
 62
     7
370
    13
100
AcDbLine
 10
1836.769
 20
1669.827999999997
 30
0.0
 11
1836.769
 21
1796.84
 31
0.0
  0
LINE
  5
101C
330
1E
100
AcDbEntity
  8
0
  6
Continuous
 62
     7
370
    13
100
AcDbLine
 10
1689.768999999998
 20
2843.311999999999
 30
0.0
 11
1836.769
 21
2843.311999999999
 31
0.0
  0
LINE
  5
101D
330
1E
100
AcDbEntity
  8
0
  6
Continuous
 62
     7
370
    13
100
AcDbLine
 10
1689.768999999998
 20
854.311999999998
 30
0.0
 11
1836.769
 21
854.311999999998
 31
0.0
  0
LINE
  5
101E
330
1E
100
AcDbEntity
  8
0
  6
Continuous
 62
     7
370
    13
100
AcDbLine
 10
1836.769
 20
1796.84
 30
0.0
 11
1836.769
 21
2843.311999999999
 31
0.0
  0
LINE
  5
101F
330
1E
100
AcDbEntity
  8
0
  6
Continuous
 62
     7
370
    13
100
AcDbLine
 10
1780.769
 20
851.3119999999981
 30
0.0
 11
1780.769
 21
854.311999999998
 31
0.0
  0
LINE
  5
1020
330
1E
100
AcDbEntity
  8
0
  6
Continuous
 62
     1
370
    25
100
AcDbLine
 10
981.7690000000002
 20
2001.311999999997
 30
0.0
 11
1780.769
 21
2001.311999999997
 31
0.0
  0
LINE
  5
1021
330
1E
100
AcDbEntity
  8
0
  6
Continuous
 62
     1
370
    25
100
AcDbLine
 10
981.7690000000002
 20
2151.311999999997
 30
0.0
 11
1780.769
 21
2151.311999999997
 31
0.0
  0
LINE
  5
1022
330
1E
100
AcDbEntity
  8
0
  6
Continuous
 62
     1
370
    25
100
AcDbLine
 10
981.7690000000002
 20
2301.311999999998
 30
0.0
 11
1780.769
 21
2301.311999999998
 31
0.0
  0
LINE
  5
1023
330
1E
100
AcDbEntity
  8
0
  6
Continuous
 62
     1
370
    25
100
AcDbLine
 10
981.7690000000002
 20
2451.311999999998
 30
0.0
 11
1780.769
 21
2451.311999999998
 31
0.0
  0
LINE
  5
1024
330
1E
100
AcDbEntity
  8
0
  6
Continuous
 62
     1
370
    25
100
AcDbLine
 10
981.7690000000002
 20
2601.311999999998
 30
0.0
 11
1780.769
 21
2601.311999999998
 31
0.0
  0
LINE
  5
1025
330
1E
100
AcDbEntity
  8
0
  6
Continuous
 62
     1
370
    25
100
AcDbLine
 10
1707.866000000002
 20
2701.311999999998
 30
0.0
 11
1780.769
 21
2701.311999999998
 31
0.0
  0
LINE
  5
1026
330
1E
100
AcDbEntity
  8
0
  6
Continuous
 62
     7
370
    13
100
AcDbLine
 10
1780.769
 20
1848.811999999996
 30
0.0
 11
1780.769
 21
2796.311999999999
 31
0.0
  0
LINE
  5
1027
330
1E
100
AcDbEntity
  8
0
  6
Continuous
 62
     1
370
    25
100
AcDbLine
 10
1780.769
 20
1848.811999999996
 30
0.0
 11
1780.769
 21
2796.311999999999
 31
0.0
  0
LINE
  5
1028
330
1E
100
AcDbEntity
  8
0
  6
Continuous
 62
     7
370
    13
100
AcDbLine
 10
1280.769
 20
2080.091999999997
 30
0.0
 11
981.7690000000002
 21
2080.091999999997
 31
0.0
  0
LINE
  5
1029
330
1E
100
AcDbEntity
  8
0
  6
Continuous
 62
     7
370
    13
100
AcDbLine
 10
1007.782000000001
 20
2087.069799999997
 30
0.0
 11
981.7820000000009
 21
2080.102999999998
 31
0.0
  0
LINE
  5
102A
330
1E
100
AcDbEntity
  8
0
  6
Continuous
 62
     7
370
    13
100
AcDbLine
 10
981.7820000000009
 20
2080.102999999998
 30
0.0
 11
1007.782000000001
 21
2073.136399999998
 31
0.0
  0
LINE
  5
102B
330
1E
100
AcDbEntity
  8
0
  6
DASHED
 62
     1
370
    25
100
AcDbLine
 10
981.7690000000002
 20
1408.811999999998
 30
0.0
 11
1269.769
 21
1408.811999999998
 31
0.0
  0
LINE
  5
102C
330
1E
100
AcDbEntity
  8
0
  6
DASHED
 62
     1
370
    25
100
AcDbLine
 10
981.7690000000002
 20
1108.811999999998
 30
0.0
 11
1269.769
 21
1108.811999999998
 31
0.0
  0
LINE
  5
102D
330
1E
100
AcDbEntity
  8
0
  6
DASHED
 62
     1
370
    25
100
AcDbLine
 10
981.7690000000002
 20
913.8119999999982
 30
0.0
 11
1269.769
 21
913.8119999999982
 31
0.0
  0
LINE
  5
102E
330
1E
100
AcDbEntity
  8
0
  6
Continuous
 62
     1
370
    25
100
AcDbLine
 10
1280.769
 20
1848.811999999996
 30
0.0
 11
1280.769
 21
2796.311999999999
 31
0.0
  0
LINE
  5
102F
330
1E
100
AcDbEntity
  8
0
  6
Continuous
 62
     1
370
    25
100
AcDbLine
 10
1530.769
 20
1848.811999999996
 30
0.0
 11
1530.769
 21
2796.311999999999
 31
0.0
  0
LINE
  5
1030
330
1E
100
AcDbEntity
  8
0
  6
Continuous
 62
     1
370
    25
100
AcDbLine
 10
1177.769
 20
903.8119999999983
 30
0.0
 11
1177.769
 21
1848.811999999996
 31
0.0
  0
LINE
  5
1031
330
1E
100
AcDbEntity
  8
0
  6
Continuous
 62
     1
370
    25
100
AcDbLine
 10
981.7690000000002
 20
1698.811999999996
 30
0.0
 11
1281.007999999998
 21
1698.811999999996
 31
0.0
  0
LINE
  5
1032
330
1E
100
AcDbEntity
  8
0
  6
Continuous
 62
     1
370
    25
100
AcDbLine
 10
981.7690000000002
 20
1398.812
 30
0.0
 11
1281.007999999998
 21
1398.812
 31
0.0
  0
LINE
  5
1033
330
1E
100
AcDbEntity
  8
0
  6
Continuous
 62
     1
370
    25
100
AcDbLine
 10
981.7690000000002
 20
1098.811999999998
 30
0.0
 11
1281.007999999998
 21
1098.811999999998
 31
0.0
  0
LINE
  5
1034
330
1E
100
AcDbEntity
  8
0
  6
Continuous
 62
     1
370
    25
100
AcDbLine
 10
981.7690000000002
 20
903.8119999999983
 30
0.0
 11
1281.007999999998
 21
903.8119999999983
 31
0.0
  0
TEXT
  5
1035
330
1E
100
AcDbEntity
  8
0
  6
Continuous
 62
     7
370
    13
100
AcDbText
 10
848.7500000000018
 20
3118.957999999998
 30
0.0
 40
64.0
  1
D10
  7
BIGFONT
100
AcDbText
  0
TEXT
  5
1036
330
1E
100
AcDbEntity
  8
0
  6
Continuous
 62
     7
370
    13
100
AcDbText
 10
1389.000999999998
 20
3118.315999999999
 30
0.0
 40
64.0
  1
D10
  7
BIGFONT
100
AcDbText
  0
TEXT
  5
1037
330
1E
100
AcDbEntity
  8
0
  6
Continuous
 62
     7
370
    13
100
AcDbText
 10
1863.982
 20
3119.015999999998
 30
0.0
 40
64.0
  1
D10
  7
BIGFONT
100
AcDbText
  0
TEXT
  5
1038
330
1E
100
AcDbEntity
  8
0
  6
Continuous
 62
     7
370
    13
100
AcDbText
 10
870.5079999999998
 20
560.4759999999997
 30
0.0
 40
64.0
  1
D10
  7
BIGFONT
100
AcDbText
  0
TEXT
  5
1039
330
1E
100
AcDbEntity
  8
0
  6
Continuous
 62
     7
370
    13
100
AcDbText
 10
2722.783000000001
 20
4941.683999999998
 30
0.0
 40
64.0
  1
D10
  7
BIGFONT
100
AcDbText
  0
TEXT
  5
103A
330
1E
100
AcDbEntity
  8
0
  6
Continuous
 62
     7
370
    13
100
AcDbText
 10
5167.68
 20
4947.766999999996
 30
0.0
 40
64.0
  1
D10
  7
BIGFONT
100
AcDbText
  0
TEXT
  5
103B
330
1E
100
AcDbEntity
  8
0
  6
Continuous
 62
     7
370
    13
100
AcDbText
 10
5158.013999999999
 20
5172.617392634801
 30
0.0
 40
64.0
  1
D10
  7
BIGFONT
100
AcDbText
  0
TEXT
  5
103C
330
1E
100
AcDbEntity
  8
0
  6
Continuous
 62
     7
370
    13
100
AcDbText
 10
5157.654999999999
 20
5859.711999999998
 30
0.0
 40
64.0
  1
D10
  7
BIGFONT
100
AcDbText
  0
LINE
  5
103D
330
1E
100
AcDbEntity
  8
0
  6
Continuous
 62
     1
370
    25
100
AcDbLine
 10
1707.866000000002
 20
2796.311999999999
 30
0.0
 11
1780.769
 21
2796.311999999999
 31
0.0
  0
LINE
  5
103E
330
1E
100
AcDbEntity
  8
0
  6
Continuous
 62
     1
370
    25
100
AcDbLine
 10
1480.769
 20
2796.311999999999
 30
0.0
 11
1707.866000000002
 21
2796.311999999999
 31
0.0
  0
LINE
  5
103F
330
1E
100
AcDbEntity
  8
0
  6
Continuous
 62
     1
370
    25
100
AcDbLine
 10
981.7690000000002
 20
2796.311999999999
 30
0.0
 11
1282.768999999996
 21
2796.311999999999
 31
0.0
  0
LINE
  5
1040
330
1E
100
AcDbEntity
  8
0
  6
Continuous
 62
     1
370
    25
100
AcDbLine
 10
1010.202000000001
 20
4758.520999999998
 30
0.0
 11
1281.576000000001
 21
4758.520999999998
 31
0.0
  0
LINE
  5
1041
330
1E
100
AcDbEntity
  8
0
  6
Continuous
 62
     1
370
    25
100
AcDbLine
 10
980.2019999999993
 20
4788.520999999998
 30
0.0
 11
980.2019999999993
 21
5260.559999999997
 31
0.0
  0
LINE
  5
1042
330
1E
100
AcDbEntity
  8
0
  6
Continuous
 62
     7
370
    13
100
AcDbLine
 10
3336.723
 20
4810.520999999997
 30
0.0
 11
3336.723
 21
5110.520999999998
 31
0.0
  0
LINE
  5
1043
330
1E
100
AcDbEntity
  8
0
  6
Continuous
 62
     7
370
    13
100
AcDbLine
 10
3343.708800000003
 20
5084.502999999998
 30
0.0
 11
3336.741999999998
 21
5110.502999999997
 31
0.0
  0
LINE
  5
1044
330
1E
100
AcDbEntity
  8
0
  6
Continuous
 62
     7
370
    13
100
AcDbLine
 10
3336.741999999998
 20
5110.502999999997
 30
0.0
 11
3329.775400000003
 21
5084.502999999998
 31
0.0
  0
LINE
  5
1045
330
1E
100
AcDbEntity
  8
0
  6
Continuous
 62
     7
370
    13
100
AcDbLine
 10
3336.723
 20
4515.520999999996
 30
0.0
 11
3336.723
 21
4811.305999999999
 31
0.0
  0
LINE
  5
1046
330
1E
100
AcDbEntity
  8
0
  6
Continuous
 62
     7
370
    13
100
AcDbLine
 10
3343.708800000003
 20
4785.302999999998
 30
0.0
 11
3336.741999999998
 21
4811.302999999998
 31
0.0
  0
LINE
  5
1047
330
1E
100
AcDbEntity
  8
0
  6
Continuous
 62
     7
370
    13
100
AcDbLine
 10
3336.741999999998
 20
4811.302999999998
 30
0.0
 11
3329.775400000003
 21
4785.302999999998
 31
0.0
  0
LINE
  5
1048
330
1E
100
AcDbEntity
  8
0
  6
Continuous
 62
     7
370
    13
100
AcDbLine
 10
4168.324000000001
 20
5760.520999999998
 30
0.0
 11
4168.324000000001
 21
5911.520999999998
 31
0.0
  0
LINE
  5
1049
330
1E
100
AcDbEntity
  8
0
  6
Continuous
 62
     7
370
    13
100
AcDbLine
 10
4175.308799999998
 20
5885.502999999998
 30
0.0
 11
4168.341999999999
 21
5911.502999999996
 31
0.0
  0
LINE
  5
104A
330
1E
100
AcDbEntity
  8
0
  6
Continuous
 62
     7
370
    13
100
AcDbLine
 10
4168.341999999999
 20
5911.502999999996
 30
0.0
 11
4161.375399999997
 21
5885.502999999998
 31
0.0
  0
LINE
  5
104B
330
1E
100
AcDbEntity
  8
0
  6
Continuous
 62
     7
370
    13
100
AcDbLine
 10
4168.324000000001
 20
5510.520999999998
 30
0.0
 11
4168.324000000001
 21
5760.520999999998
 31
0.0
  0
LINE
  5
104C
330
1E
100
AcDbEntity
  8
0
  6
Continuous
 62
     7
370
    13
100
AcDbLine
 10
4175.308799999998
 20
5734.502999999999
 30
0.0
 11
4168.341999999999
 21
5760.502999999998
 31
0.0
  0
LINE
  5
104D
330
1E
100
AcDbEntity
  8
0
  6
Continuous
 62
     7
370
    13
100
AcDbLine
 10
4168.341999999999
 20
5760.502999999998
 30
0.0
 11
4161.375399999997
 21
5734.502999999999
 31
0.0
  0
LINE
  5
104E
330
1E
100
AcDbEntity
  8
0
  6
Continuous
 62
     7
370
    13
100
AcDbLine
 10
4168.324000000001
 20
5260.520999999998
 30
0.0
 11
4168.324000000001
 21
5510.520999999998
 31
0.0
  0
LINE
  5
104F
330
1E
100
AcDbEntity
  8
0
  6
Continuous
 62
     7
370
    13
100
AcDbLine
 10
4175.308799999998
 20
5484.502999999999
 30
0.0
 11
4168.341999999999
 21
5510.502999999998
 31
0.0
  0
LINE
  5
1050
330
1E
100
AcDbEntity
  8
0
  6
Continuous
 62
     7
370
    13
100
AcDbLine
 10
4168.341999999999
 20
5510.502999999998
 30
0.0
 11
4161.375399999997
 21
5484.502999999999
 31
0.0
  0
LINE
  5
1051
330
1E
100
AcDbEntity
  8
0
  6
Continuous
 62
     7
370
    13
100
AcDbLine
 10
4168.324000000001
 20
5010.520999999998
 30
0.0
 11
4168.324000000001
 21
5260.520999999998
 31
0.0
  0
LINE
  5
1052
330
1E
100
AcDbEntity
  8
0
  6
Continuous
 62
     7
370
    13
100
AcDbLine
 10
4175.308799999998
 20
5234.502999999999
 30
0.0
 11
4168.341999999999
 21
5260.502999999998
 31
0.0
  0
LINE
  5
1053
330
1E
100
AcDbEntity
  8
0
  6
Continuous
 62
     7
370
    13
100
AcDbLine
 10
4168.341999999999
 20
5260.502999999998
 30
0.0
 11
4161.375399999997
 21
5234.502999999999
 31
0.0
  0
LINE
  5
1054
330
1E
100
AcDbEntity
  8
0
  6
Continuous
 62
     7
370
    13
100
AcDbLine
 10
4168.324000000001
 20
4760.520999999997
 30
0.0
 11
4168.324000000001
 21
5010.520999999998
 31
0.0
  0
LINE
  5
1055
330
1E
100
AcDbEntity
  8
0
  6
Continuous
 62
     7
370
    13
100
AcDbLine
 10
4175.308799999998
 20
4984.502999999999
 30
0.0
 11
4168.341999999999
 21
5010.502999999998
 31
0.0
  0
LINE
  5
1056
330
1E
100
AcDbEntity
  8
0
  6
Continuous
 62
     7
370
    13
100
AcDbLine
 10
4168.341999999999
 20
5010.502999999998
 30
0.0
 11
4161.375399999997
 21
4984.502999999999
 31
0.0
  0
POINT
  5
1057
330
1E
100
AcDbEntity
  8
0
  6
Continuous
 62
     1
370
    25
100
AcDbPoint
 10
1044.507000000001
 20
4773.520999999998
 30
0.0
  0
LINE
  5
1058
330
1E
100
AcDbEntity
  8
0
  6
Continuous
 62
     7
370
    13
100
AcDbLine
 10
937.2019999999993
 20
4064.992999999997
 30
0.0
 11
981.7690000000002
 21
4064.992999999997
 31
0.0
  0
LINE
  5
1059
330
1E
100
AcDbEntity
  8
0
  6
Continuous
 62
     7
370
    13
100
AcDbLine
 10
981.7690000000002
 20
4695.520999999998
 30
0.0
 11
981.7690000000002
 21
4044.992999999998
 31
0.0
  0
LINE
  5
105A
330
1E
100
AcDbEntity
  8
0
  6
Continuous
 62
     7
370
    13
100
AcDbLine
 10
937.2019999999993
 20
4695.520999999998
 30
0.0
 11
937.2019999999993
 21
4044.992999999998
 31
0.0
  0
LINE
  5
105B
330
1E
100
AcDbEntity
  8
0
  6
Continuous
 62
     7
370
    13
100
AcDbLine
 10
1033.769000000002
 20
4064.992999999997
 30
0.0
 11
981.7690000000002
 21
4064.992999999997
 31
0.0
  0
LINE
  5
105C
330
1E
100
AcDbEntity
  8
0
  6
Continuous
 62
     7
370
    13
100
AcDbLine
 10
1007.782000000001
 20
4071.949599999999
 30
0.0
 11
981.7820000000009
 21
4064.982999999998
 31
0.0
  0
LINE
  5
105D
330
1E
100
AcDbEntity
  8
0
  6
Continuous
 62
     7
370
    13
100
AcDbLine
 10
981.7820000000009
 20
4064.982999999998
 30
0.0
 11
1007.782000000001
 21
4058.016199999998
 31
0.0
  0
LINE
  5
105E
330
1E
100
AcDbEntity
  8
0
  6
Continuous
 62
     7
370
    13
100
AcDbLine
 10
937.2019999999993
 20
4064.992999999997
 30
0.0
 11
885.2020000000011
 21
4064.992999999997
 31
0.0
  0
LINE
  5
105F
330
1E
100
AcDbEntity
  8
0
  6
Continuous
 62
     7
370
    13
100
AcDbLine
 10
911.2020000000011
 20
4058.016199999998
 30
0.0
 11
937.2019999999993
 21
4064.982999999998
 31
0.0
  0
LINE
  5
1060
330
1E
100
AcDbEntity
  8
0
  6
Continuous
 62
     7
370
    13
100
AcDbLine
 10
937.2019999999993
 20
4064.982999999998
 30
0.0
 11
911.2020000000011
 21
4071.949599999999
 31
0.0
  0
LINE
  5
1061
330
1E
100
AcDbEntity
  8
0
  6
Continuous
 62
     7
370
    13
100
AcDbLine
 10
885.2020000000011
 20
4064.992999999997
 30
0.0
 11
769.2019999999993
 21
4064.992999999997
 31
0.0
  0
TEXT
  5
1062
330
1E
100
AcDbEntity
  8
0
  6
Continuous
 62
     7
370
    13
100
AcDbText
 10
769.2019999999993
 20
4076.992999999998
 30
0.0
 40
64.0
  1
45
 41
0.875
  7
BIGFONT
100
AcDbText
  0
LINE
  5
1063
330
1E
100
AcDbEntity
  8
0
  6
Continuous
 62
     7
370
    13
100
AcDbLine
 10
981.7690000000002
 20
4064.992999999997
 30
0.0
 11
1782.111000000001
 21
4064.992999999997
 31
0.0
  0
LINE
  5
1064
330
1E
100
AcDbEntity
  8
0
  6
Continuous
 62
     7
370
    13
100
AcDbLine
 10
1782.111000000001
 20
4695.520999999998
 30
0.0
 11
1782.111000000001
 21
4044.992999999998
 31
0.0
  0
LINE
  5
1065
330
1E
100
AcDbEntity
  8
0
  6
Continuous
 62
     7
370
    13
100
AcDbLine
 10
1756.121999999999
 20
4058.016199999998
 30
0.0
 11
1782.121999999999
 21
4064.982999999998
 31
0.0
  0
LINE
  5
1066
330
1E
100
AcDbEntity
  8
0
  6
Continuous
 62
     7
370
    13
100
AcDbLine
 10
1782.121999999999
 20
4064.982999999998
 30
0.0
 11
1756.121999999999
 21
4071.949599999999
 31
0.0
  0
LINE
  5
1067
330
1E
100
AcDbEntity
  8
0
  6
Continuous
 62
     7
370
    13
100
AcDbLine
 10
1007.782000000001
 20
4071.949599999999
 30
0.0
 11
981.7820000000009
 21
4064.982999999998
 31
0.0
  0
LINE
  5
1068
330
1E
100
AcDbEntity
  8
0
  6
Continuous
 62
     7
370
    13
100
AcDbLine
 10
981.7820000000009
 20
4064.982999999998
 30
0.0
 11
1007.782000000001
 21
4058.016199999998
 31
0.0
  0
TEXT
  5
1069
330
1E
100
AcDbEntity
  8
0
  6
Continuous
 62
     7
370
    13
100
AcDbText
 10
1297.940000000002
 20
4076.992999999998
 30
0.0
 40
64.0
  1
799
 41
0.875
  7
BIGFONT
100
AcDbText
  0
LINE
  5
106A
330
1E
100
AcDbEntity
  8
0
  6
Continuous
 62
     7
370
    13
100
AcDbLine
 10
1782.111000000001
 20
4064.992999999997
 30
0.0
 11
1837.201999999999
 21
4064.992999999997
 31
0.0
  0
LINE
  5
106B
330
1E
100
AcDbEntity
  8
0
  6
Continuous
 62
     7
370
    13
100
AcDbLine
 10
1837.201999999999
 20
4695.520999999998
 30
0.0
 11
1837.201999999999
 21
4044.992999999998
 31
0.0
  0
LINE
  5
106C
330
1E
100
AcDbEntity
  8
0
  6
Continuous
 62
     7
370
    13
100
AcDbLine
 10
1889.201999999999
 20
4064.992999999997
 30
0.0
 11
1837.201999999999
 21
4064.992999999997
 31
0.0
  0
LINE
  5
106D
330
1E
100
AcDbEntity
  8
0
  6
Continuous
 62
     7
370
    13
100
AcDbLine
 10
1863.201999999999
 20
4071.949599999999
 30
0.0
 11
1837.201999999999
 21
4064.982999999998
 31
0.0
  0
LINE
  5
106E
330
1E
100
AcDbEntity
  8
0
  6
Continuous
 62
     7
370
    13
100
AcDbLine
 10
1837.201999999999
 20
4064.982999999998
 30
0.0
 11
1863.201999999999
 21
4058.016199999998
 31
0.0
  0
LINE
  5
106F
330
1E
100
AcDbEntity
  8
0
  6
Continuous
 62
     7
370
    13
100
AcDbLine
 10
1782.111000000001
 20
4064.992999999997
 30
0.0
 11
1730.111000000001
 21
4064.992999999997
 31
0.0
  0
LINE
  5
1070
330
1E
100
AcDbEntity
  8
0
  6
Continuous
 62
     7
370
    13
100
AcDbLine
 10
1756.121999999999
 20
4058.016199999998
 30
0.0
 11
1782.121999999999
 21
4064.982999999998
 31
0.0
  0
LINE
  5
1071
330
1E
100
AcDbEntity
  8
0
  6
Continuous
 62
     7
370
    13
100
AcDbLine
 10
1782.121999999999
 20
4064.982999999998
 30
0.0
 11
1756.121999999999
 21
4071.949599999999
 31
0.0
  0
LINE
  5
1072
330
1E
100
AcDbEntity
  8
0
  6
Continuous
 62
     7
370
    13
100
AcDbLine
 10
1889.201999999999
 20
4064.992999999997
 30
0.0
 11
2005.202
 21
4064.992999999997
 31
0.0
  0
TEXT
  5
1073
330
1E
100
AcDbEntity
  8
0
  6
Continuous
 62
     7
370
    13
100
AcDbText
 10
1893.201999999999
 20
4076.992999999998
 30
0.0
 40
64.0
  1
56
 41
0.875
  7
BIGFONT
100
AcDbText
  0
LINE
  5
1074
330
1E
100
AcDbEntity
  8
0
  6
Continuous
 62
     7
370
    13
100
AcDbLine
 10
981.7690000000002
 20
4515.520999999996
 30
0.0
 11
1281.714
 21
4515.520999999996
 31
0.0
  0
LINE
  5
1075
330
1E
100
AcDbEntity
  8
0
  6
Continuous
 62
     7
370
    13
100
AcDbLine
 10
1281.714
 20
4695.520999999998
 30
0.0
 11
1281.714
 21
4495.520999999998
 31
0.0
  0
LINE
  5
1076
330
1E
100
AcDbEntity
  8
0
  6
Continuous
 62
     7
370
    13
100
AcDbLine
 10
981.7690000000002
 20
4556.099999999998
 30
0.0
 11
981.7690000000002
 21
4495.520999999998
 31
0.0
  0
LINE
  5
1077
330
1E
100
AcDbEntity
  8
0
  6
Continuous
 62
     7
370
    13
100
AcDbLine
 10
1255.722
 20
4508.536199999999
 30
0.0
 11
1281.721999999998
 21
4515.502999999997
 31
0.0
  0
LINE
  5
1078
330
1E
100
AcDbEntity
  8
0
  6
Continuous
 62
     7
370
    13
100
AcDbLine
 10
1281.721999999998
 20
4515.502999999997
 30
0.0
 11
1255.722
 21
4522.469599999999
 31
0.0
  0
LINE
  5
1079
330
1E
100
AcDbEntity
  8
0
  6
Continuous
 62
     7
370
    13
100
AcDbLine
 10
1007.782000000001
 20
4522.469599999999
 30
0.0
 11
981.7820000000009
 21
4515.502999999997
 31
0.0
  0
LINE
  5
107A
330
1E
100
AcDbEntity
  8
0
  6
Continuous
 62
     7
370
    13
100
AcDbLine
 10
981.7820000000009
 20
4515.502999999997
 30
0.0
 11
1007.782000000001
 21
4508.536199999999
 31
0.0
  0
TEXT
  5
107B
330
1E
100
AcDbEntity
  8
0
  6
Continuous
 62
     7
370
    13
100
AcDbText
 10
1047.741599999999
 20
4527.520999999998
 30
0.0
 40
64.0
  1
300
 41
0.875
  7
BIGFONT
100
AcDbText
  0
LINE
  5
107C
330
1E
100
AcDbEntity
  8
0
  6
Continuous
 62
     7
370
    13
100
AcDbLine
 10
981.7690000000002
 20
4215.520999999997
 30
0.0
 11
1036.990000000001
 21
4215.520999999997
 31
0.0
  0
LINE
  5
107D
330
1E
100
AcDbEntity
  8
0
  6
Continuous
 62
     7
370
    13
100
AcDbLine
 10
1036.990000000001
 20
4495.520999999998
 30
0.0
 11
1036.990000000001
 21
4195.520999999998
 31
0.0
  0
LINE
  5
107E
330
1E
100
AcDbEntity
  8
0
  6
Continuous
 62
     7
370
    13
100
AcDbLine
 10
981.7690000000002
 20
4215.752999999998
 30
0.0
 11
981.7690000000002
 21
4195.520999999998
 31
0.0
  0
LINE
  5
107F
330
1E
100
AcDbEntity
  8
0
  6
Continuous
 62
     7
370
    13
100
AcDbLine
 10
1011.002
 20
4208.536199999997
 30
0.0
 11
1037.002
 21
4215.502999999998
 31
0.0
  0
LINE
  5
1080
330
1E
100
AcDbEntity
  8
0
  6
Continuous
 62
     7
370
    13
100
AcDbLine
 10
1037.002
 20
4215.502999999998
 30
0.0
 11
1011.002
 21
4222.469599999996
 31
0.0
  0
LINE
  5
1081
330
1E
100
AcDbEntity
  8
0
  6
Continuous
 62
     7
370
    13
100
AcDbLine
 10
1007.782000000001
 20
4222.469599999996
 30
0.0
 11
981.7820000000009
 21
4215.502999999998
 31
0.0
  0
LINE
  5
1082
330
1E
100
AcDbEntity
  8
0
  6
Continuous
 62
     7
370
    13
100
AcDbLine
 10
981.7820000000009
 20
4215.502999999998
 30
0.0
 11
1007.782000000001
 21
4208.536199999997
 31
0.0
  0
TEXT
  5
1083
330
1E
100
AcDbEntity
  8
0
  6
Continuous
 62
     7
370
    13
100
AcDbText
 10
953.3796000000002
 20
4227.520999999998
 30
0.0
 40
64.0
  1
49
 41
0.875
  7
BIGFONT
100
AcDbText
  0
LINE
  5
1084
330
1E
100
AcDbEntity
  8
0
  6
Continuous
 62
     7
370
    13
100
AcDbLine
 10
1036.990000000001
 20
4365.520999999998
 30
0.0
 11
1179.636999999999
 21
4365.520999999998
 31
0.0
  0
LINE
  5
1085
330
1E
100
AcDbEntity
  8
0
  6
Continuous
 62
     7
370
    13
100
AcDbLine
 10
1179.636999999999
 20
4495.520999999998
 30
0.0
 11
1179.636999999999
 21
4345.520999999997
 31
0.0
  0
LINE
  5
1086
330
1E
100
AcDbEntity
  8
0
  6
Continuous
 62
     7
370
    13
100
AcDbLine
 10
1036.990000000001
 20
4385.344999999999
 30
0.0
 11
1036.990000000001
 21
4345.520999999997
 31
0.0
  0
LINE
  5
1087
330
1E
100
AcDbEntity
  8
0
  6
Continuous
 62
     7
370
    13
100
AcDbLine
 10
1153.642000000003
 20
4358.536199999995
 30
0.0
 11
1179.642000000002
 21
4365.502999999996
 31
0.0
  0
LINE
  5
1088
330
1E
100
AcDbEntity
  8
0
  6
Continuous
 62
     7
370
    13
100
AcDbLine
 10
1179.642000000002
 20
4365.502999999996
 30
0.0
 11
1153.642000000003
 21
4372.469599999998
 31
0.0
  0
LINE
  5
1089
330
1E
100
AcDbEntity
  8
0
  6
Continuous
 62
     7
370
    13
100
AcDbLine
 10
1063.002
 20
4372.469599999998
 30
0.0
 11
1037.002
 21
4365.502999999996
 31
0.0
  0
LINE
  5
108A
330
1E
100
AcDbEntity
  8
0
  6
Continuous
 62
     7
370
    13
100
AcDbLine
 10
1037.002
 20
4365.502999999996
 30
0.0
 11
1063.002
 21
4358.536199999995
 31
0.0
  0
TEXT
  5
108B
330
1E
100
AcDbEntity
  8
0
  6
Continuous
 62
     7
370
    13
100
AcDbText
 10
1051.738384784639
 20
4377.520999999997
 30
0.0
 40
64.0
  1
150
 41
0.875
  7
BIGFONT
100
AcDbText
  0
LINE
  5
108C
330
1E
100
AcDbEntity
  8
0
  6
Continuous
 62
     7
370
    13
100
AcDbLine
 10
1036.701000000001
 20
4215.520999999997
 30
0.0
 11
1782.179999999998
 21
4215.520999999997
 31
0.0
  0
LINE
  5
108D
330
1E
100
AcDbEntity
  8
0
  6
Continuous
 62
     7
370
    13
100
AcDbLine
 10
1062.702000000001
 20
4222.469599999996
 30
0.0
 11
1036.701999999999
 21
4215.502999999998
 31
0.0
  0
LINE
  5
108E
330
1E
100
AcDbEntity
  8
0
  6
Continuous
 62
     7
370
    13
100
AcDbLine
 10
1036.701999999999
 20
4215.502999999998
 30
0.0
 11
1062.702000000001
 21
4208.536199999997
 31
0.0
  0
LINE
  5
108F
330
1E
100
AcDbEntity
  8
0
  6
Continuous
 62
     7
370
    13
100
AcDbLine
 10
1756.181999999999
 20
4208.536199999997
 30
0.0
 11
1782.182
 21
4215.502999999998
 31
0.0
  0
LINE
  5
1090
330
1E
100
AcDbEntity
  8
0
  6
Continuous
 62
     7
370
    13
100
AcDbLine
 10
1782.182
 20
4215.502999999998
 30
0.0
 11
1756.181999999999
 21
4222.469599999996
 31
0.0
  0
TEXT
  5
1091
330
1E
100
AcDbEntity
  8
0
  6
Continuous
 62
     7
370
    13
100
AcDbText
 10
1184.234
 20
4227.356999999998
 30
0.0
 40
64.0
  1
3×250=750
  7
BIGFONT
100
AcDbText
  0
LINE
  5
1092
330
1E
100
AcDbEntity
  8
0
  6
Continuous
 62
     7
370
    13
100
AcDbLine
 10
287.2019999999993
 20
4715.520999999997
 30
0.0
 11
287.2019999999993
 21
4758.707999999997
 31
0.0
  0
LINE
  5
1093
330
1E
100
AcDbEntity
  8
0
  6
Continuous
 62
     7
370
    13
100
AcDbLine
 10
917.202000000003
 20
4758.707999999997
 30
0.0
 11
267.2019999999993
 21
4758.707999999997
 31
0.0
  0
LINE
  5
1094
330
1E
100
AcDbEntity
  8
0
  6
Continuous
 62
     7
370
    13
100
AcDbLine
 10
917.202000000003
 20
4715.520999999997
 30
0.0
 11
267.2019999999993
 21
4715.520999999997
 31
0.0
  0
LINE
  5
1095
330
1E
100
AcDbEntity
  8
0
  6
Continuous
 62
     7
370
    13
100
AcDbLine
 10
287.2019999999993
 20
4810.707999999998
 30
0.0
 11
287.2019999999993
 21
4758.707999999997
 31
0.0
  0
LINE
  5
1096
330
1E
100
AcDbEntity
  8
0
  6
Continuous
 62
     7
370
    13
100
AcDbLine
 10
280.2354000000014
 20
4784.702999999999
 30
0.0
 11
287.2019999999993
 21
4758.702999999995
 31
0.0
  0
LINE
  5
1097
330
1E
100
AcDbEntity
  8
0
  6
Continuous
 62
     7
370
    13
100
AcDbLine
 10
287.2019999999993
 20
4758.702999999995
 30
0.0
 11
294.1687999999995
 21
4784.702999999999
 31
0.0
  0
LINE
  5
1098
330
1E
100
AcDbEntity
  8
0
  6
Continuous
 62
     7
370
    13
100
AcDbLine
 10
287.2019999999993
 20
4715.520999999997
 30
0.0
 11
287.2019999999993
 21
4663.520999999998
 31
0.0
  0
LINE
  5
1099
330
1E
100
AcDbEntity
  8
0
  6
Continuous
 62
     7
370
    13
100
AcDbLine
 10
294.1687999999995
 20
4689.502999999999
 30
0.0
 11
287.2019999999993
 21
4715.502999999998
 31
0.0
  0
LINE
  5
109A
330
1E
100
AcDbEntity
  8
0
  6
Continuous
 62
     7
370
    13
100
AcDbLine
 10
287.2019999999993
 20
4715.502999999998
 30
0.0
 11
280.2354000000014
 21
4689.502999999999
 31
0.0
  0
LINE
  5
109B
330
1E
100
AcDbEntity
  8
0
  6
Continuous
 62
     7
370
    13
100
AcDbLine
 10
287.2019999999993
 20
4663.520999999998
 30
0.0
 11
287.2019999999993
 21
4547.520999999996
 31
0.0
  0
TEXT
  5
109C
330
1E
100
AcDbEntity
  8
0
  6
Continuous
 62
     7
370
    13
100
AcDbText
 10
275.2019999999993
 20
4547.520999999996
 30
0.0
 40
64.0
  1
45
 50
90.0
 41
0.875
  7
BIGFONT
100
AcDbText
  0
LINE
  5
109D
330
1E
100
AcDbEntity
  8
0
  6
Continuous
 62
     7
370
    13
100
AcDbLine
 10
287.2019999999993
 20
4758.707999999997
 30
0.0
 11
287.2019999999993
 21
5910.289999999998
 31
0.0
  0
LINE
  5
109E
330
1E
100
AcDbEntity
  8
0
  6
Continuous
 62
     7
370
    13
100
AcDbLine
 10
917.202000000003
 20
5910.289999999998
 30
0.0
 11
267.2019999999993
 21
5910.289999999998
 31
0.0
  0
LINE
  5
109F
330
1E
100
AcDbEntity
  8
0
  6
Continuous
 62
     7
370
    13
100
AcDbLine
 10
294.1687999999995
 20
5884.282999999998
 30
0.0
 11
287.2019999999993
 21
5910.282999999997
 31
0.0
  0
LINE
  5
10A0
330
1E
100
AcDbEntity
  8
0
  6
Continuous
 62
     7
370
    13
100
AcDbLine
 10
287.2019999999993
 20
5910.282999999997
 30
0.0
 11
280.2354000000014
 21
5884.282999999998
 31
0.0
  0
LINE
  5
10A1
330
1E
100
AcDbEntity
  8
0
  6
Continuous
 62
     7
370
    13
100
AcDbLine
 10
280.2354000000014
 20
4784.702999999999
 30
0.0
 11
287.2019999999993
 21
4758.702999999995
 31
0.0
  0
LINE
  5
10A2
330
1E
100
AcDbEntity
  8
0
  6
Continuous
 62
     7
370
    13
100
AcDbLine
 10
287.2019999999993
 20
4758.702999999995
 30
0.0
 11
294.1687999999995
 21
4784.702999999999
 31
0.0
  0
TEXT
  5
10A3
330
1E
100
AcDbEntity
  8
0
  6
Continuous
 62
     7
370
    13
100
AcDbText
 10
275.2019999999993
 20
5222.498999999999
 30
0.0
 40
64.0
  1
1150
 50
90.0
 41
0.875
  7
BIGFONT
100
AcDbText
  0
LINE
  5
10A4
330
1E
100
AcDbEntity
  8
0
  6
Continuous
 62
     7
370
    13
100
AcDbLine
 10
287.2019999999993
 20
5910.289999999998
 30
0.0
 11
287.2019999999993
 21
5965.520999999998
 31
0.0
  0
LINE
  5
10A5
330
1E
100
AcDbEntity
  8
0
  6
Continuous
 62
     7
370
    13
100
AcDbLine
 10
917.202000000003
 20
5965.520999999998
 30
0.0
 11
267.2019999999993
 21
5965.520999999998
 31
0.0
  0
LINE
  5
10A6
330
1E
100
AcDbEntity
  8
0
  6
Continuous
 62
     7
370
    13
100
AcDbLine
 10
287.2019999999993
 20
6017.520999999998
 30
0.0
 11
287.2019999999993
 21
5965.520999999998
 31
0.0
  0
LINE
  5
10A7
330
1E
100
AcDbEntity
  8
0
  6
Continuous
 62
     7
370
    13
100
AcDbLine
 10
280.2354000000014
 20
5991.502999999996
 30
0.0
 11
287.2019999999993
 21
5965.502999999999
 31
0.0
  0
LINE
  5
10A8
330
1E
100
AcDbEntity
  8
0
  6
Continuous
 62
     7
370
    13
100
AcDbLine
 10
287.2019999999993
 20
5965.502999999999
 30
0.0
 11
294.1687999999995
 21
5991.502999999996
 31
0.0
  0
LINE
  5
10A9
330
1E
100
AcDbEntity
  8
0
  6
Continuous
 62
     7
370
    13
100
AcDbLine
 10
287.2019999999993
 20
5910.289999999998
 30
0.0
 11
287.2019999999993
 21
5858.289999999996
 31
0.0
  0
LINE
  5
10AA
330
1E
100
AcDbEntity
  8
0
  6
Continuous
 62
     7
370
    13
100
AcDbLine
 10
294.1687999999995
 20
5884.282999999998
 30
0.0
 11
287.2019999999993
 21
5910.282999999997
 31
0.0
  0
LINE
  5
10AB
330
1E
100
AcDbEntity
  8
0
  6
Continuous
 62
     7
370
    13
100
AcDbLine
 10
287.2019999999993
 20
5910.282999999997
 30
0.0
 11
280.2354000000014
 21
5884.282999999998
 31
0.0
  0
LINE
  5
10AC
330
1E
100
AcDbEntity
  8
0
  6
Continuous
 62
     7
370
    13
100
AcDbLine
 10
287.2019999999993
 20
6017.520999999998
 30
0.0
 11
287.2019999999993
 21
6133.520999999999
 31
0.0
  0
TEXT
  5
10AD
330
1E
100
AcDbEntity
  8
0
  6
Continuous
 62
     7
370
    13
100
AcDbText
 10
275.2019999999993
 20
6021.520999999996
 30
0.0
 40
64.0
  1
55
 50
90.0
 41
0.875
  7
BIGFONT
100
AcDbText
  0
LINE
  5
10AE
330
1E
100
AcDbEntity
  8
0
  6
Continuous
 62
     7
370
    13
100
AcDbLine
 10
737.2019999999992
 20
4758.707999999997
 30
0.0
 11
737.2019999999992
 21
5259.996999999998
 31
0.0
  0
LINE
  5
10AF
330
1E
100
AcDbEntity
  8
0
  6
Continuous
 62
     7
370
    13
100
AcDbLine
 10
917.202000000003
 20
5259.996999999998
 30
0.0
 11
717.2020000000011
 21
5259.996999999998
 31
0.0
  0
LINE
  5
10B0
330
1E
100
AcDbEntity
  8
0
  6
Continuous
 62
     7
370
    13
100
AcDbLine
 10
774.1560000000045
 20
4758.707999999997
 30
0.0
 11
717.2020000000011
 21
4758.707999999997
 31
0.0
  0
LINE
  5
10B1
330
1E
100
AcDbEntity
  8
0
  6
Continuous
 62
     7
370
    13
100
AcDbLine
 10
744.1687999999994
 20
5233.983000000001
 30
0.0
 11
737.2019999999992
 21
5259.983
 31
0.0
  0
LINE
  5
10B2
330
1E
100
AcDbEntity
  8
0
  6
Continuous
 62
     7
370
    13
100
AcDbLine
 10
737.2019999999992
 20
5259.983
 30
0.0
 11
730.2354000000014
 21
5233.983000000001
 31
0.0
  0
LINE
  5
10B3
330
1E
100
AcDbEntity
  8
0
  6
Continuous
 62
     7
370
    13
100
AcDbLine
 10
730.2354000000014
 20
4784.702999999999
 30
0.0
 11
737.2019999999992
 21
4758.702999999995
 31
0.0
  0
LINE
  5
10B4
330
1E
100
AcDbEntity
  8
0
  6
Continuous
 62
     7
370
    13
100
AcDbLine
 10
737.2019999999992
 20
4758.702999999995
 30
0.0
 11
744.1687999999994
 21
4784.702999999999
 31
0.0
  0
TEXT
  5
10B5
330
1E
100
AcDbEntity
  8
0
  6
Continuous
 62
     7
370
    13
100
AcDbText
 10
725.2020000000011
 20
4925.352399999997
 30
0.0
 40
64.0
  1
500
 50
90.0
 41
0.875
  7
BIGFONT
100
AcDbText
  0
LINE
  5
10B6
330
1E
100
AcDbEntity
  8
0
  6
Continuous
 62
     7
370
    13
100
AcDbLine
 10
771.5519999999997
 20
4808.707999999998
 30
0.0
 11
916.4489999999986
 21
4808.707999999998
 31
0.0
  0
LINE
  5
10B7
330
1E
100
AcDbEntity
  8
0
  6
Continuous
 62
     7
370
    13
100
AcDbLine
 10
437.2019999999992
 20
4758.707999999997
 30
0.0
 11
437.2019999999992
 21
4808.605999999998
 31
0.0
  0
LINE
  5
10B8
330
1E
100
AcDbEntity
  8
0
  6
Continuous
 62
     7
370
    13
100
AcDbLine
 10
717.2020000000011
 20
4808.605999999998
 30
0.0
 11
417.202000000003
 21
4808.605999999998
 31
0.0
  0
LINE
  5
10B9
330
1E
100
AcDbEntity
  8
0
  6
Continuous
 62
     7
370
    13
100
AcDbLine
 10
477.0270000000018
 20
4758.707999999997
 30
0.0
 11
417.202000000003
 21
4758.707999999997
 31
0.0
  0
LINE
  5
10BA
330
1E
100
AcDbEntity
  8
0
  6
Continuous
 62
     7
370
    13
100
AcDbLine
 10
444.1687999999994
 20
4782.602999999998
 30
0.0
 11
437.2019999999992
 21
4808.602999999998
 31
0.0
  0
LINE
  5
10BB
330
1E
100
AcDbEntity
  8
0
  6
Continuous
 62
     7
370
    13
100
AcDbLine
 10
437.2019999999992
 20
4808.602999999998
 30
0.0
 11
430.2354000000014
 21
4782.602999999998
 31
0.0
  0
LINE
  5
10BC
330
1E
100
AcDbEntity
  8
0
  6
Continuous
 62
     7
370
    13
100
AcDbLine
 10
430.2354000000014
 20
4784.702999999999
 30
0.0
 11
437.2019999999992
 21
4758.702999999995
 31
0.0
  0
LINE
  5
10BD
330
1E
100
AcDbEntity
  8
0
  6
Continuous
 62
     7
370
    13
100
AcDbLine
 10
437.2019999999992
 20
4758.702999999995
 30
0.0
 11
444.1687999999994
 21
4784.702999999999
 31
0.0
  0
TEXT
  5
10BE
330
1E
100
AcDbEntity
  8
0
  6
Continuous
 62
     7
370
    13
100
AcDbText
 10
425.2020000000011
 20
4727.656999999997
 30
0.0
 40
64.0
  1
50
 50
90.0
 41
0.875
  7
BIGFONT
100
AcDbText
  0
LINE
  5
10BF
330
1E
100
AcDbEntity
  8
0
  6
Continuous
 62
     7
370
    13
100
AcDbLine
 10
771.5519999999997
 20
5108.707999999998
 30
0.0
 11
916.4489999999986
 21
5108.707999999998
 31
0.0
  0
LINE
  5
10C0
330
1E
100
AcDbEntity
  8
0
  6
Continuous
 62
     7
370
    13
100
AcDbLine
 10
587.2019999999992
 20
4808.605999999998
 30
0.0
 11
587.2019999999992
 21
5109.956999999998
 31
0.0
  0
LINE
  5
10C1
330
1E
100
AcDbEntity
  8
0
  6
Continuous
 62
     7
370
    13
100
AcDbLine
 10
671.4070000000011
 20
5109.956999999998
 30
0.0
 11
567.2019999999993
 21
5109.956999999998
 31
0.0
  0
LINE
  5
10C2
330
1E
100
AcDbEntity
  8
0
  6
Continuous
 62
     7
370
    13
100
AcDbLine
 10
616.157000000001
 20
4808.605999999998
 30
0.0
 11
567.2019999999993
 21
4808.605999999998
 31
0.0
  0
LINE
  5
10C3
330
1E
100
AcDbEntity
  8
0
  6
Continuous
 62
     7
370
    13
100
AcDbLine
 10
594.1687999999994
 20
5083.942999999998
 30
0.0
 11
587.2019999999992
 21
5109.942999999999
 31
0.0
  0
LINE
  5
10C4
330
1E
100
AcDbEntity
  8
0
  6
Continuous
 62
     7
370
    13
100
AcDbLine
 10
587.2019999999992
 20
5109.942999999999
 30
0.0
 11
580.2354000000014
 21
5083.942999999998
 31
0.0
  0
LINE
  5
10C5
330
1E
100
AcDbEntity
  8
0
  6
Continuous
 62
     7
370
    13
100
AcDbLine
 10
580.2354000000014
 20
4834.602999999998
 30
0.0
 11
587.2019999999992
 21
4808.602999999998
 31
0.0
  0
LINE
  5
10C6
330
1E
100
AcDbEntity
  8
0
  6
Continuous
 62
     7
370
    13
100
AcDbLine
 10
587.2019999999992
 20
4808.602999999998
 30
0.0
 11
594.1687999999994
 21
4834.602999999998
 31
0.0
  0
TEXT
  5
10C7
330
1E
100
AcDbEntity
  8
0
  6
Continuous
 62
     7
370
    13
100
AcDbText
 10
575.2019999999993
 20
4875.281399999998
 30
0.0
 40
64.0
  1
300
 50
90.0
 41
0.875
  7
BIGFONT
100
AcDbText
  0
LINE
  5
10C8
330
1E
100
AcDbEntity
  8
0
  6
Continuous
 62
     7
370
    13
100
AcDbLine
 10
437.2019999999992
 20
5761.224999999997
 30
0.0
 11
437.2019999999992
 21
5910.289999999998
 31
0.0
  0
LINE
  5
10C9
330
1E
100
AcDbEntity
  8
0
  6
Continuous
 62
     7
370
    13
100
AcDbLine
 10
453.9919999999983
 20
5910.289999999998
 30
0.0
 11
417.202000000003
 21
5910.289999999998
 31
0.0
  0
LINE
  5
10CA
330
1E
100
AcDbEntity
  8
0
  6
Continuous
 62
     7
370
    13
100
AcDbLine
 10
917.202000000003
 20
5761.224999999997
 30
0.0
 11
417.202000000003
 21
5761.224999999997
 31
0.0
  0
LINE
  5
10CB
330
1E
100
AcDbEntity
  8
0
  6
Continuous
 62
     7
370
    13
100
AcDbLine
 10
444.1687999999994
 20
5884.282999999998
 30
0.0
 11
437.2019999999992
 21
5910.282999999997
 31
0.0
  0
LINE
  5
10CC
330
1E
100
AcDbEntity
  8
0
  6
Continuous
 62
     7
370
    13
100
AcDbLine
 10
437.2019999999992
 20
5910.282999999997
 30
0.0
 11
430.2354000000014
 21
5884.282999999998
 31
0.0
  0
LINE
  5
10CD
330
1E
100
AcDbEntity
  8
0
  6
Continuous
 62
     7
370
    13
100
AcDbLine
 10
430.2354000000014
 20
5787.222999999997
 30
0.0
 11
437.2019999999992
 21
5761.222999999999
 31
0.0
  0
LINE
  5
10CE
330
1E
100
AcDbEntity
  8
0
  6
Continuous
 62
     7
370
    13
100
AcDbLine
 10
437.2019999999992
 20
5761.222999999999
 30
0.0
 11
444.1687999999994
 21
5787.222999999997
 31
0.0
  0
TEXT
  5
10CF
330
1E
100
AcDbEntity
  8
0
  6
Continuous
 62
     7
370
    13
100
AcDbText
 10
425.2020000000011
 20
5751.757399999998
 30
0.0
 40
64.0
  1
150
 50
90.0
 41
0.875
  7
BIGFONT
100
AcDbText
  0
LINE
  5
10D0
330
1E
100
AcDbEntity
  8
0
  6
Continuous
 62
     7
370
    13
100
AcDbLine
 10
771.5519999999997
 20
5008.707999999998
 30
0.0
 11
916.4489999999986
 21
5008.707999999998
 31
0.0
  0
LINE
  5
10D1
330
1E
100
AcDbEntity
  8
0
  6
Continuous
 62
     7
370
    13
100
AcDbLine
 10
437.2019999999992
 20
4808.605999999998
 30
0.0
 11
437.2019999999992
 21
5011.290999999999
 31
0.0
  0
LINE
  5
10D2
330
1E
100
AcDbEntity
  8
0
  6
Continuous
 62
     7
370
    13
100
AcDbLine
 10
528.7040000000015
 20
5011.290999999999
 30
0.0
 11
417.202000000003
 21
5011.290999999999
 31
0.0
  0
LINE
  5
10D3
330
1E
100
AcDbEntity
  8
0
  6
Continuous
 62
     7
370
    13
100
AcDbLine
 10
466.1689999999999
 20
4808.605999999998
 30
0.0
 11
417.202000000003
 21
4808.605999999998
 31
0.0
  0
LINE
  5
10D4
330
1E
100
AcDbEntity
  8
0
  6
Continuous
 62
     7
370
    13
100
AcDbLine
 10
444.1687999999994
 20
4985.282999999999
 30
0.0
 11
437.2019999999992
 21
5011.282999999998
 31
0.0
  0
LINE
  5
10D5
330
1E
100
AcDbEntity
  8
0
  6
Continuous
 62
     7
370
    13
100
AcDbLine
 10
437.2019999999992
 20
5011.282999999998
 30
0.0
 11
430.2354000000014
 21
4985.282999999999
 31
0.0
  0
LINE
  5
10D6
330
1E
100
AcDbEntity
  8
0
  6
Continuous
 62
     7
370
    13
100
AcDbLine
 10
430.2354000000014
 20
4834.602999999998
 30
0.0
 11
437.2019999999992
 21
4808.602999999998
 31
0.0
  0
LINE
  5
10D7
330
1E
100
AcDbEntity
  8
0
  6
Continuous
 62
     7
370
    13
100
AcDbLine
 10
437.2019999999992
 20
4808.602999999998
 30
0.0
 11
444.1687999999994
 21
4834.602999999998
 31
0.0
  0
TEXT
  5
10D8
330
1E
100
AcDbEntity
  8
0
  6
Continuous
 62
     7
370
    13
100
AcDbText
 10
425.2020000000011
 20
4887.548399999998
 30
0.0
 40
64.0
  1
200
 50
90.0
 41
0.875
  7
BIGFONT
100
AcDbText
  0
LINE
  5
10D9
330
1E
100
AcDbEntity
  8
0
  6
Continuous
 62
     7
370
    13
100
AcDbLine
 10
607.1869999999998
 20
5010.659999999997
 30
0.0
 11
659.3410000000003
 21
5010.659999999997
 31
0.0
  0
LINE
  5
10DA
330
1E
100
AcDbEntity
  8
0
  6
Continuous
 62
     7
370
    13
100
AcDbLine
 10
437.2019999999992
 20
5760.840999999999
 30
0.0
 11
437.2019999999992
 21
5011.259999999999
 31
0.0
  0
LINE
  5
10DB
330
1E
100
AcDbEntity
  8
0
  6
Continuous
 62
     7
370
    13
100
AcDbLine
 10
444.1687999999994
 20
5734.822999999998
 30
0.0
 11
437.2019999999992
 21
5760.822999999998
 31
0.0
  0
LINE
  5
10DC
330
1E
100
AcDbEntity
  8
0
  6
Continuous
 62
     7
370
    13
100
AcDbLine
 10
437.2019999999992
 20
5760.822999999998
 30
0.0
 11
430.2354000000014
 21
5734.822999999998
 31
0.0
  0
LINE
  5
10DD
330
1E
100
AcDbEntity
  8
0
  6
Continuous
 62
     7
370
    13
100
AcDbLine
 10
430.2354000000014
 20
5037.242999999999
 30
0.0
 11
437.2019999999992
 21
5011.242999999999
 31
0.0
  0
LINE
  5
10DE
330
1E
100
AcDbEntity
  8
0
  6
Continuous
 62
     7
370
    13
100
AcDbLine
 10
437.2019999999992
 20
5011.242999999999
 30
0.0
 11
444.1687999999994
 21
5037.242999999999
 31
0.0
  0
TEXT
  5
10DF
330
1E
100
AcDbEntity
  8
0
  6
Continuous
 62
     7
370
    13
100
AcDbText
 10
424.8389999999999
 20
5110.609999999997
 30
0.0
 40
64.0
  1
3×250=750
 50
90.0
  7
BIGFONT
100
AcDbText
  0
LINE
  5
10E0
330
1E
100
AcDbEntity
  8
0
  6
Continuous
 62
     7
370
    13
100
AcDbLine
 10
1179.555000000002
 20
4591.159999999997
 30
0.0
 11
1179.555000000002
 21
4695.124999999998
 31
0.0
  0
LINE
  5
10E1
330
1E
100
AcDbEntity
  8
0
  6
Continuous
 62
     7
370
    13
100
AcDbLine
 10
1036.984
 20
4591.159999999997
 30
0.0
 11
1036.984
 21
4695.124999999998
 31
0.0
  0
CIRCLE
  5
10E2
330
1E
100
AcDbEntity
  8
0
  6
Continuous
 62
     7
370
    13
100
AcDbCircle
 10
1318.742000000002
 20
5416.196999999998
 30
0.0
 40
55.0
  0
TEXT
  5
10E3
330
1E
100
AcDbEntity
  8
0
  6
Continuous
 62
     7
370
    13
100
AcDbText
 10
1265.064999999998
 20
5379.067999999999
 30
0.0
 40
72.0
  1
Ｓ
  7
BIGFONT
100
AcDbText
  0
TEXT
  5
10E4
330
1E
100
AcDbEntity
  8
0
  6
Continuous
 62
     7
370
    13
100
AcDbText
 10
1321.153999999999
 20
5384.167999999997
 30
0.0
 40
40.0
  1
９
  7
BIGFONT
100
AcDbText
  0
LINE
  5
10E5
330
1E
100
AcDbEntity
  8
0
  6
Continuous
 62
     7
370
    13
100
AcDbLine
 10
1220.584999999999
 20
5361.448999999999
 30
0.0
 11
1624.461999999999
 21
5361.448999999999
 31
0.0
  0
TEXT
  5
10E6
330
1E
100
AcDbEntity
  8
0
  6
Continuous
 62
     7
370
    13
100
AcDbText
 10
1410.643
 20
5380.573999999999
 30
0.0
 40
64.0
  1
D10
  7
BIGFONT
100
AcDbText
  0
CIRCLE
  5
10E7
330
1E
100
AcDbEntity
  8
0
  6
Continuous
 62
     7
370
    13
100
AcDbCircle
 10
449.8459999999995
 20
4571.244999999998
 30
0.0
 40
55.0
  0
TEXT
  5
10E8
330
1E
100
AcDbEntity
  8
0
  6
Continuous
 62
     7
370
    13
100
AcDbText
 10
396.1690000000017
 20
4534.115999999998
 30
0.0
 40
72.0
  1
Ｓ
  7
BIGFONT
100
AcDbText
  0
TEXT
  5
10E9
330
1E
100
AcDbEntity
  8
0
  6
Continuous
 62
     7
370
    13
100
AcDbText
 10
455.9850000000006
 20
4539.057999999997
 30
0.0
 40
40.0
  1
４
  7
BIGFONT
100
AcDbText
  0
LINE
  5
10EA
330
1E
100
AcDbEntity
  8
0
  6
Continuous
 62
     7
370
    13
100
AcDbLine
 10
353.1770000000015
 20
4516.439999999998
 30
0.0
 11
757.0540000000001
 21
4516.439999999998
 31
0.0
  0
TEXT
  5
10EB
330
1E
100
AcDbEntity
  8
0
  6
Continuous
 62
     7
370
    13
100
AcDbText
 10
539.3449999999993
 20
4535.231999999997
 30
0.0
 40
64.0
  1
D10
  7
BIGFONT
100
AcDbText
  0
LINE
  5
10EC
330
1E
100
AcDbEntity
  8
0
  6
Continuous
 62
     7
370
    13
100
AcDbLine
 10
756.4489999999986
 20
4515.779999999998
 30
0.0
 11
987.9519999999994
 21
4768.397999999998
 31
0.0
  0
LINE
  5
10ED
330
1E
100
AcDbEntity
  8
0
  6
Continuous
 62
     7
370
    13
100
AcDbLine
 10
975.5320000000009
 20
4744.507599999997
 30
0.0
 11
987.9620000000013
 21
4768.382999999998
 31
0.0
  0
LINE
  5
10EE
330
1E
100
AcDbEntity
  8
0
  6
Continuous
 62
     7
370
    13
100
AcDbLine
 10
987.9620000000013
 20
4768.382999999998
 30
0.0
 11
965.2597999999997
 21
4753.921399999998
 31
0.0
  0
LINE
  5
10EF
330
1E
100
AcDbEntity
  8
0
  6
Continuous
 62
     7
370
    13
100
AcDbLine
 10
1238.947
 20
5034.424999999998
 30
0.0
 11
1079.939999999999
 21
4857.909999999997
 31
0.0
  0
LINE
  5
10F0
330
1E
100
AcDbEntity
  8
0
  6
Continuous
 62
     7
370
    13
100
AcDbLine
 10
1092.1676
 20
4881.883599999999
 30
0.0
 11
1079.941999999999
 21
4857.902999999999
 31
0.0
  0
LINE
  5
10F1
330
1E
100
AcDbEntity
  8
0
  6
Continuous
 62
     7
370
    13
100
AcDbLine
 10
1079.941999999999
 20
4857.902999999999
 30
0.0
 11
1102.52
 21
4872.557999999997
 31
0.0
  0
LINE
  5
10F2
330
1E
100
AcDbEntity
  8
0
  6
Continuous
 62
     7
370
    13
100
AcDbLine
 10
1220.584999999999
 20
5361.448999999999
 30
0.0
 11
1003.128
 21
5260.525999999998
 31
0.0
  0
LINE
  5
10F3
330
1E
100
AcDbEntity
  8
0
  6
Continuous
 62
     7
370
    13
100
AcDbLine
 10
1023.7932
 20
5277.787599999997
 30
0.0
 11
1003.142000000001
 21
5260.522999999999
 31
0.0
  0
LINE
  5
10F4
330
1E
100
AcDbEntity
  8
0
  6
Continuous
 62
     7
370
    13
100
AcDbLine
 10
1003.142000000001
 20
5260.522999999999
 30
0.0
 11
1029.658799999999
 21
5265.148999999999
 31
0.0
  0
LINE
  5
10F5
330
1E
100
AcDbEntity
  8
0
  6
Continuous
 62
     7
370
    13
100
AcDbLine
 10
1220.584999999999
 20
5361.448999999999
 30
0.0
 11
987.7020000000012
 21
5110.520999999998
 31
0.0
  0
LINE
  5
10F6
330
1E
100
AcDbEntity
  8
0
  6
Continuous
 62
     7
370
    13
100
AcDbLine
 10
1000.282400000004
 20
5134.299199999999
 30
0.0
 11
987.7020000000012
 21
5110.502999999997
 31
0.0
  0
LINE
  5
10F7
330
1E
100
AcDbEntity
  8
0
  6
Continuous
 62
     7
370
    13
100
AcDbLine
 10
987.7020000000012
 20
5110.502999999997
 30
0.0
 11
1010.495199999999
 21
5124.820999999998
 31
0.0
  0
CIRCLE
  5
10F8
330
1E
100
AcDbEntity
  8
0
  6
Continuous
 62
     7
370
    13
100
AcDbCircle
 10
1769.09
 20
5089.410999999999
 30
0.0
 40
55.0
  0
TEXT
  5
10F9
330
1E
100
AcDbEntity
  8
0
  6
Continuous
 62
     7
370
    13
100
AcDbText
 10
1715.412999999999
 20
5052.281999999998
 30
0.0
 40
72.0
  1
Ｓ
  7
BIGFONT
100
AcDbText
  0
TEXT
  5
10FA
330
1E
100
AcDbEntity
  8
0
  6
Continuous
 62
     7
370
    13
100
AcDbText
 10
1775.723
 20
5057.062999999999
 30
0.0
 40
40.0
  1
５
  7
BIGFONT
100
AcDbText
  0
LINE
  5
10FB
330
1E
100
AcDbEntity
  8
0
  6
Continuous
 62
     7
370
    13
100
AcDbLine
 10
1673.037999999998
 20
5034.643999999999
 30
0.0
 11
2076.914999999999
 21
5034.643999999999
 31
0.0
  0
TEXT
  5
10FC
330
1E
100
AcDbEntity
  8
0
  6
Continuous
 62
     7
370
    13
100
AcDbText
 10
1874.717000000001
 20
5044.246999999995
 30
0.0
 40
64.0
  1
D10
  7
BIGFONT
100
AcDbText
  0
CIRCLE
  5
10FD
330
1E
100
AcDbEntity
  8
0
  6
Continuous
 62
     7
370
    13
100
AcDbCircle
 10
1239.889000000001
 20
5670.473999999998
 30
0.0
 40
55.0
  0
TEXT
  5
10FE
330
1E
100
AcDbEntity
  8
0
  6
Continuous
 62
     7
370
    13
100
AcDbText
 10
1188.211999999999
 20
5633.344999999998
 30
0.0
 40
72.0
  1
Ｓ
  7
BIGFONT
100
AcDbText
  0
TEXT
  5
10FF
330
1E
100
AcDbEntity
  8
0
  6
Continuous
 62
     7
370
    13
100
AcDbText
 10
1248.364000000001
 20
5639.099999999999
 30
0.0
 40
40.0
  1
１
  7
BIGFONT
100
AcDbText
  0
LINE
  5
1100
330
1E
100
AcDbEntity
  8
0
  6
Continuous
 62
     7
370
    13
100
AcDbLine
 10
1525.541999999999
 20
5615.612999999998
 30
0.0
 11
996.3040000000018
 21
5615.604999999998
 31
0.0
  0
LINE
  5
1101
330
1E
100
AcDbEntity
  8
0
  6
Continuous
 62
     7
370
    13
100
AcDbLine
 10
1022.322
 20
5622.569999999996
 30
0.0
 11
996.3220000000001
 21
5615.602999999999
 31
0.0
  0
LINE
  5
1102
330
1E
100
AcDbEntity
  8
0
  6
Continuous
 62
     7
370
    13
100
AcDbLine
 10
996.3220000000001
 20
5615.602999999999
 30
0.0
 11
1022.322200000004
 21
5608.636599999998
 31
0.0
  0
CIRCLE
  5
1103
330
1E
100
AcDbEntity
  8
0
  6
Continuous
 62
     7
370
    13
100
AcDbCircle
 10
1338.237000000001
 20
5088.534999999998
 30
0.0
 40
55.0
  0
TEXT
  5
1104
330
1E
100
AcDbEntity
  8
0
  6
Continuous
 62
     7
370
    13
100
AcDbText
 10
1284.559999999997
 20
5051.405999999998
 30
0.0
 40
72.0
  1
Ｓ
  7
BIGFONT
100
AcDbText
  0
TEXT
  5
1105
330
1E
100
AcDbEntity
  8
0
  6
Continuous
 62
     7
370
    13
100
AcDbText
 10
1339.975000000002
 20
5056.186999999998
 30
0.0
 40
40.0
  1
８
  7
BIGFONT
100
AcDbText
  0
TEXT
  5
1106
330
1E
100
AcDbEntity
  8
0
  6
Continuous
 62
     7
370
    13
100
AcDbText
 10
1442.363000000001
 20
5044.145999999999
 30
0.0
 40
64.0
  1
D10
  7
BIGFONT
100
AcDbText
  0
LINE
  5
1107
330
1E
100
AcDbEntity
  8
0
  6
Continuous
 62
     7
370
    13
100
AcDbLine
 10
1238.947
 20
5034.424999999998
 30
0.0
 11
1648.977999999999
 21
5034.424999999998
 31
0.0
  0
TEXT
  5
1108
330
1E
100
AcDbEntity
  8
0
  6
Continuous
 62
     7
370
    13
100
AcDbText
 10
1340.902999999998
 20
5635.167999999998
 30
0.0
 40
64.0
  1
D10
  7
BIGFONT
100
AcDbText
  0
LINE
  5
1109
330
1E
100
AcDbEntity
  8
0
  6
Continuous
 62
     7
370
    13
100
AcDbLine
 10
1530.769
 20
2080.091999999997
 30
0.0
 11
1280.769
 21
2080.091999999997
 31
0.0
  0
LINE
  5
110A
330
1E
100
AcDbEntity
  8
0
  6
Continuous
 62
     7
370
    13
100
AcDbLine
 10
1306.781999999999
 20
2087.069799999997
 30
0.0
 11
1280.782000000001
 21
2080.102999999998
 31
0.0
  0
LINE
  5
110B
330
1E
100
AcDbEntity
  8
0
  6
Continuous
 62
     7
370
    13
100
AcDbLine
 10
1280.782000000001
 20
2080.102999999998
 30
0.0
 11
1306.781999999999
 21
2073.136399999998
 31
0.0
  0
LINE
  5
110C
330
1E
100
AcDbEntity
  8
0
  6
Continuous
 62
     7
370
    13
100
AcDbLine
 10
1780.388999999999
 20
2080.091999999997
 30
0.0
 11
1530.489000000001
 21
2080.091999999997
 31
0.0
  0
LINE
  5
110D
330
1E
100
AcDbEntity
  8
0
  6
Continuous
 62
     7
370
    13
100
AcDbLine
 10
1556.502
 20
2087.069799999997
 30
0.0
 11
1530.501999999998
 21
2080.102999999998
 31
0.0
  0
LINE
  5
110E
330
1E
100
AcDbEntity
  8
0
  6
Continuous
 62
     7
370
    13
100
AcDbLine
 10
1530.501999999998
 20
2080.102999999998
 30
0.0
 11
1556.502
 21
2073.136399999998
 31
0.0
  0
LINE
  5
110F
330
1E
100
AcDbEntity
  8
0
  6
Continuous
 62
     7
370
    13
100
AcDbLine
 10
1177.769
 20
1255.16
 30
0.0
 11
1030.769000000002
 21
1255.16
 31
0.0
  0
LINE
  5
1110
330
1E
100
AcDbEntity
  8
0
  6
Continuous
 62
     7
370
    13
100
AcDbLine
 10
1030.769000000002
 20
1255.16
 30
0.0
 11
978.7690000000003
 21
1255.16
 31
0.0
  0
LINE
  5
1111
330
1E
100
AcDbEntity
  8
0
  6
Continuous
 62
     7
370
    13
100
AcDbLine
 10
1056.781999999999
 20
1262.129799999998
 30
0.0
 11
1030.782000000001
 21
1255.163
 31
0.0
  0
LINE
  5
1112
330
1E
100
AcDbEntity
  8
0
  6
Continuous
 62
     7
370
    13
100
AcDbLine
 10
1030.782000000001
 20
1255.163
 30
0.0
 11
1056.781999999999
 21
1248.196399999997
 31
0.0
  0
LINE
  5
1113
330
1E
100
AcDbEntity
  8
0
  6
Continuous
 62
     7
370
    13
100
AcDbLine
 10
2029.672000000001
 20
1255.16
 30
0.0
 11
1177.432
 21
1255.16
 31
0.0
  0
LINE
  5
1114
330
1E
100
AcDbEntity
  8
0
  6
Continuous
 62
     7
370
    13
100
AcDbLine
 10
1203.442000000001
 20
1262.129799999998
 30
0.0
 11
1177.441999999999
 21
1255.163
 31
0.0
  0
LINE
  5
1115
330
1E
100
AcDbEntity
  8
0
  6
Continuous
 62
     7
370
    13
100
AcDbLine
 10
1177.441999999999
 20
1255.163
 30
0.0
 11
1203.442000000001
 21
1248.196399999997
 31
0.0
  0
LINE
  5
1116
330
1E
100
AcDbEntity
  8
0
  6
Continuous
 62
     7
370
    13
100
AcDbLine
 10
5342.333999999999
 20
4928.846999999998
 30
0.0
 11
4787.056999999997
 21
4928.846999999998
 31
0.0
  0
LINE
  5
1117
330
1E
100
AcDbEntity
  8
0
  6
Continuous
 62
     7
370
    13
100
AcDbLine
 10
4813.062000000002
 20
4935.809599999998
 30
0.0
 11
4787.062000000001
 21
4928.842999999996
 31
0.0
  0
LINE
  5
1118
330
1E
100
AcDbEntity
  8
0
  6
Continuous
 62
     7
370
    13
100
AcDbLine
 10
4787.062000000001
 20
4928.842999999996
 30
0.0
 11
4813.062000000002
 21
4921.876199999996
 31
0.0
  0
LINE
  5
1119
330
1E
100
AcDbEntity
  8
0
  6
CENTER
 62
     7
370
    13
100
AcDbLine
 10
3937.201999999999
 20
4760.520999999997
 30
0.0
 11
3937.201999999999
 21
5911.520999999998
 31
0.0
  0
LINE
  5
111A
330
1E
100
AcDbEntity
  8
0
  6
Continuous
 62
     7
370
    13
100
AcDbLine
 10
3937.201999999999
 20
5965.520999999998
 30
0.0
 11
3937.201999999999
 21
6065.520999999998
 31
0.0
  0
LINE
  5
111B
330
1E
100
AcDbEntity
  8
0
  6
Continuous
 62
     7
370
    13
100
AcDbLine
 10
3937.201999999999
 20
4615.520999999998
 30
0.0
 11
3937.201999999999
 21
4715.520999999997
 31
0.0
  0
LINE
  5
111C
330
1E
100
AcDbEntity
  8
0
  6
Continuous
 62
     7
370
    13
100
AcDbLine
 10
1074.42
 20
3096.311999999998
 30
0.0
 11
1074.42
 21
2701.208999999998
 31
0.0
  0
LINE
  5
111D
330
1E
100
AcDbEntity
  8
0
  6
Continuous
 62
     7
370
    13
100
AcDbLine
 10
1067.455399999999
 20
2727.222999999999
 30
0.0
 11
1074.421999999998
 21
2701.222999999998
 31
0.0
  0
LINE
  5
111E
330
1E
100
AcDbEntity
  8
0
  6
Continuous
 62
     7
370
    13
100
AcDbLine
 10
1074.421999999998
 20
2701.222999999998
 30
0.0
 11
1081.3888
 21
2727.222999999999
 31
0.0
  0
LINE
  5
111F
330
1E
100
AcDbEntity
  8
0
  6
Continuous
 62
     1
370
    25
100
AcDbLine
 10
981.7690000000002
 20
1848.811999999996
 30
0.0
 11
1780.769
 21
1848.811999999996
 31
0.0
  0
LINE
  5
1120
330
1E
100
AcDbEntity
  8
0
  6
Continuous
 62
     7
370
    13
100
AcDbLine
 10
1836.769
 20
1848.811999999996
 30
0.0
 11
1936.768999999998
 21
1848.811999999996
 31
0.0
  0
LINE
  5
1121
330
1E
100
AcDbEntity
  8
0
  6
Continuous
 62
     7
370
    13
100
AcDbLine
 10
836.7690000000003
 20
1848.811999999996
 30
0.0
 11
936.7690000000003
 21
1848.811999999996
 31
0.0
  0
LINE
  5
1122
330
1E
100
AcDbEntity
  8
0
  6
Continuous
 62
     7
370
    13
100
AcDbLine
 10
1673.037999999998
 20
5034.643999999999
 30
0.0
 11
1673.032999999999
 21
4770.101999999997
 31
0.0
  0
LINE
  5
1123
330
1E
100
AcDbEntity
  8
0
  6
Continuous
 62
     7
370
    13
100
AcDbLine
 10
1666.076000000001
 20
4796.082999999995
 30
0.0
 11
1673.041999999999
 21
4770.082999999996
 31
0.0
  0
LINE
  5
1124
330
1E
100
AcDbEntity
  8
0
  6
Continuous
 62
     7
370
    13
100
AcDbLine
 10
1673.041999999999
 20
4770.082999999996
 30
0.0
 11
1680.0092
 21
4796.082799999997
 31
0.0
  0
LINE
  5
1125
330
1E
100
AcDbEntity
  8
3
  6
Continuous
 62
     7
370
    13
100
AcDbLine
 10
8732.961999999997
 20
41.90299999999808
 30
0.0
 11
8732.961999999997
 21
1041.902999999998
 31
0.0
  0
LINE
  5
1126
330
1E
100
AcDbEntity
  8
3
  6
Continuous
 62
     7
370
    13
100
AcDbLine
 10
8732.961999999997
 20
41.90299999999808
 30
0.0
 11
8732.961999999997
 21
1041.902999999998
 31
0.0
  0
LINE
  5
1127
330
1E
100
AcDbEntity
  8
3
  6
Continuous
 62
     7
370
    13
100
AcDbLine
 10
8732.961999999997
 20
41.90299999999808
 30
0.0
 11
8732.961999999997
 21
1041.902999999998
 31
0.0
  0
LINE
  5
1128
330
1E
100
AcDbEntity
  8
3
  6
Continuous
 62
     7
370
    13
100
AcDbLine
 10
8732.961999999997
 20
41.90299999999808
 30
0.0
 11
8732.961999999997
 21
1041.902999999998
 31
0.0
  0
LINE
  5
1129
330
1E
100
AcDbEntity
  8
3
  6
Continuous
 62
     7
370
    13
100
AcDbLine
 10
8732.961999999997
 20
41.90299999999808
 30
0.0
 11
8732.961999999997
 21
1041.902999999998
 31
0.0
  0
LINE
  5
112A
330
1E
100
AcDbEntity
  8
3
  6
Continuous
 62
     7
370
    13
100
AcDbLine
 10
8732.961999999997
 20
41.90299999999808
 30
0.0
 11
8732.961999999997
 21
1041.902999999998
 31
0.0
  0
LINE
  5
112B
330
1E
100
AcDbEntity
  8
3
  6
Continuous
 62
     7
370
    13
100
AcDbLine
 10
8732.961999999997
 20
1041.902999999998
 30
0.0
 11
10732.96199999999
 21
1041.902999999998
 31
0.0
  0
LINE
  5
112C
330
1E
100
AcDbEntity
  8
3
  6
Continuous
 62
     7
370
    13
100
AcDbLine
 10
10732.96199999999
 20
41.90299999999808
 30
0.0
 11
10732.96199999999
 21
1041.902999999998
 31
0.0
  0
LINE
  5
112D
330
1E
100
AcDbEntity
  8
3
  6
Continuous
 62
     7
370
    13
100
AcDbLine
 10
8732.961999999997
 20
41.90299999999808
 30
0.0
 11
10732.96199999999
 21
41.90299999999808
 31
0.0
  0
LINE
  5
112E
330
1E
100
AcDbEntity
  8
3
  6
Continuous
 62
     7
370
    13
100
AcDbLine
 10
8732.961999999997
 20
41.90299999999808
 30
0.0
 11
8732.961999999997
 21
1041.902999999998
 31
0.0
  0
LINE
  5
112F
330
1E
100
AcDbEntity
  8
3
  6
Continuous
 62
     7
370
    13
100
AcDbLine
 10
8732.961999999997
 20
1041.902999999998
 30
0.0
 11
10732.96199999999
 21
1041.902999999998
 31
0.0
  0
LINE
  5
1130
330
1E
100
AcDbEntity
  8
3
  6
Continuous
 62
     7
370
    13
100
AcDbLine
 10
10732.96199999999
 20
41.90299999999808
 30
0.0
 11
10732.96199999999
 21
1041.902999999998
 31
0.0
  0
LINE
  5
1131
330
1E
100
AcDbEntity
  8
3
  6
Continuous
 62
     7
370
    13
100
AcDbLine
 10
8732.961999999997
 20
41.90299999999808
 30
0.0
 11
10732.96199999999
 21
41.90299999999808
 31
0.0
  0
LINE
  5
1132
330
1E
100
AcDbEntity
  8
3
  6
Continuous
 62
     7
370
    13
100
AcDbLine
 10
8732.961999999997
 20
41.90299999999808
 30
0.0
 11
8732.961999999997
 21
1041.902999999998
 31
0.0
  0
LINE
  5
1133
330
1E
100
AcDbEntity
  8
3
  6
Continuous
 62
     7
370
    13
100
AcDbLine
 10
8732.961999999997
 20
841.9029999999979
 30
0.0
 11
10732.96199999999
 21
841.9029999999979
 31
0.0
  0
LINE
  5
1134
330
1E
100
AcDbEntity
  8
3
  6
Continuous
 62
     7
370
    13
100
AcDbLine
 10
8732.961999999997
 20
681.9029999999981
 30
0.0
 11
10732.96199999999
 21
681.9029999999981
 31
0.0
  0
LINE
  5
1135
330
1E
100
AcDbEntity
  8
3
  6
Continuous
 62
     7
370
    13
100
AcDbLine
 10
8732.961999999997
 20
521.9029999999979
 30
0.0
 11
10732.96199999999
 21
521.9029999999979
 31
0.0
  0
LINE
  5
1136
330
1E
100
AcDbEntity
  8
3
  6
Continuous
 62
     7
370
    13
100
AcDbLine
 10
8732.961999999997
 20
261.9029999999981
 30
0.0
 11
10732.96199999999
 21
261.9029999999981
 31
0.0
  0
LINE
  5
1137
330
1E
100
AcDbEntity
  8
3
  6
Continuous
 62
     7
370
    13
100
AcDbLine
 10
9272.961999999996
 20
261.9029999999981
 30
0.0
 11
9272.961999999996
 21
1041.902999999998
 31
0.0
  0
LINE
  5
1138
330
1E
100
AcDbEntity
  8
3
  6
Continuous
 62
     7
370
    13
100
AcDbLine
 10
9132.961999999997
 20
261.9029999999981
 30
0.0
 11
9132.961999999997
 21
521.9029999999979
 31
0.0
  0
LINE
  5
1139
330
1E
100
AcDbEntity
  8
3
  6
Continuous
 62
     7
370
    13
100
AcDbLine
 10
8872.961999999999
 20
261.9029999999981
 30
0.0
 11
8872.961999999999
 21
521.9029999999979
 31
0.0
  0
LINE
  5
113A
330
1E
100
AcDbEntity
  8
3
  6
Continuous
 62
     7
370
    13
100
AcDbLine
 10
9532.961999999999
 20
261.9029999999981
 30
0.0
 11
9532.961999999999
 21
521.9029999999979
 31
0.0
  0
LINE
  5
113B
330
1E
100
AcDbEntity
  8
3
  6
Continuous
 62
     7
370
    13
100
AcDbLine
 10
9672.961999999996
 20
261.9029999999981
 30
0.0
 11
9672.961999999996
 21
521.9029999999979
 31
0.0
  0
LINE
  5
113C
330
1E
100
AcDbEntity
  8
3
  6
Continuous
 62
     7
370
    13
100
AcDbLine
 10
9932.961999999996
 20
261.9029999999981
 30
0.0
 11
9932.961999999996
 21
521.9029999999979
 31
0.0
  0
LINE
  5
113D
330
1E
100
AcDbEntity
  8
3
  6
Continuous
 62
     7
370
    13
100
AcDbLine
 10
10072.962
 20
261.9029999999981
 30
0.0
 11
10072.962
 21
521.9029999999979
 31
0.0
  0
LINE
  5
113E
330
1E
100
AcDbEntity
  8
3
  6
Continuous
 62
     7
370
    13
100
AcDbLine
 10
10332.96199999999
 20
261.9029999999981
 30
0.0
 11
10332.96199999999
 21
521.9029999999979
 31
0.0
  0
LINE
  5
113F
330
1E
100
AcDbEntity
  8
3
  6
Continuous
 62
     7
370
    13
100
AcDbLine
 10
10472.96199999999
 20
261.9029999999981
 30
0.0
 11
10472.96199999999
 21
521.9029999999979
 31
0.0
  0
LINE
  5
1140
330
1E
100
AcDbEntity
  8
3
  6
Continuous
 62
     7
370
    13
100
AcDbLine
 10
9772.961999999996
 20
681.9029999999981
 30
0.0
 11
9772.961999999996
 21
841.9029999999979
 31
0.0
  0
LINE
  5
1141
330
1E
100
AcDbEntity
  8
3
  6
Continuous
 62
     7
370
    13
100
AcDbLine
 10
10232.96199999999
 20
681.9029999999981
 30
0.0
 11
10232.96199999999
 21
841.9029999999979
 31
0.0
  0
TEXT
  5
1142
330
1E
100
AcDbEntity
  8
3
  6
Continuous
 62
     7
370
    13
100
AcDbText
 10
8799.261999999998
 20
884.6230000000003
 30
0.0
 40
100.0
  1
図面名
  7
BIGFONT
100
AcDbText
  0
TEXT
  5
1143
330
1E
100
AcDbEntity
  8
3
  6
Continuous
 62
     7
370
    13
100
AcDbText
 10
8808.861999999997
 20
717.3830000000021
 30
0.0
 40
80.0
  1
縮尺
  7
BIGFONT
100
AcDbText
  0
TEXT
  5
1144
330
1E
100
AcDbEntity
  8
3
  6
Continuous
 62
     7
370
    13
100
AcDbText
 10
9817.581999999999
 20
719.3029999999999
 30
0.0
 40
80.0
  1
図面番号
  7
BIGFONT
100
AcDbText
  0
TEXT
  5
1145
330
1E
100
AcDbEntity
  8
3
  6
Continuous
 62
     7
370
    13
100
AcDbText
 10
8805.022000000001
 20
557.8229999999985
 30
0.0
 40
80.0
  1
設計年月日
  7
BIGFONT
100
AcDbText
  0
TEXT
  5
1146
330
1E
100
AcDbEntity
  8
3
  6
Continuous
 62
     7
370
    13
100
AcDbText
 10
9446.761999999999
 20
557.8229999999985
 30
0.0
 40
80.0
  1
平成　　年　　月　　日
  7
BIGFONT
100
AcDbText
  0
TEXT
  5
1147
330
1E
100
AcDbEntity
  8
3
  6
Continuous
 62
     7
370
    13
100
AcDbText
 10
9175.699571202043
 20
83.22300000000002
 30
0.0
 40
120.0
  1
千葉窯業株式会社
  7
BIGFONT
100
AcDbText
  0
TEXT
  5
1148
330
1E
100
AcDbEntity
  8
3
  6
Continuous
 62
     7
370
    13
100
AcDbText
 10
8766.602000000004
 20
486.682999999998
 30
0.0
 40
80.0
  1
部長
 50
270.0
  7
BIGFONT
100
AcDbText
  0
TEXT
  5
1149
330
1E
100
AcDbEntity
  8
3
  6
Continuous
 62
     7
370
    13
100
AcDbText
 10
9166.242000000002
 20
486.682999999998
 30
0.0
 40
80.0
  1
課長
 50
270.0
  7
BIGFONT
100
AcDbText
  0
TEXT
  5
114A
330
1E
100
AcDbEntity
  8
3
  6
Continuous
 62
     7
370
    13
100
AcDbText
 10
9565.881999999998
 20
486.682999999998
 30
0.0
 40
80.0
  1
検図
 50
270.0
  7
BIGFONT
100
AcDbText
  0
TEXT
  5
114B
330
1E
100
AcDbEntity
  8
3
  6
Continuous
 62
     7
370
    13
100
AcDbText
 10
9969.382000000003
 20
486.682999999998
 30
0.0
 40
80.0
  1
設計
 50
270.0
  7
BIGFONT
100
AcDbText
  0
TEXT
  5
114C
330
1E
100
AcDbEntity
  8
3
  6
Continuous
 62
     7
370
    13
100
AcDbText
 10
10367.10199999999
 20
488.6029999999975
 30
0.0
 40
80.0
  1
製図
 50
270.0
  7
BIGFONT
100
AcDbText
  0
LINE
  5
114D
330
1E
100
AcDbEntity
  8
3
  6
Continuous
 62
     7
370
    13
100
AcDbLine
 10
8732.961999999997
 20
1041.902999999998
 30
0.0
 11
10732.96199999999
 21
1041.902999999998
 31
0.0
  0
LINE
  5
114E
330
1E
100
AcDbEntity
  8
3
  6
Continuous
 62
     7
370
    13
100
AcDbLine
 10
10732.96199999999
 20
41.90299999999808
 30
0.0
 11
10732.96199999999
 21
1041.902999999998
 31
0.0
  0
LINE
  5
114F
330
1E
100
AcDbEntity
  8
3
  6
Continuous
 62
     7
370
    13
100
AcDbLine
 10
8732.961999999997
 20
41.90299999999808
 30
0.0
 11
10732.96199999999
 21
41.90299999999808
 31
0.0
  0
LINE
  5
1150
330
1E
100
AcDbEntity
  8
3
  6
Continuous
 62
     7
370
    13
100
AcDbLine
 10
8732.961999999997
 20
41.90299999999808
 30
0.0
 11
8732.961999999997
 21
1041.902999999998
 31
0.0
  0
TEXT
  5
1151
330
1E
100
AcDbEntity
  8
3
  6
Continuous
 62
     7
370
    13
100
AcDbText
 10
9735.662000000001
 20
557.2829999999997
 30
0.0
 40
75.99999999999996
  1
３
  7
BIGFONT
100
AcDbText
  0
TEXT
  5
1152
330
1E
100
AcDbEntity
  8
3
  6
Continuous
 62
     7
370
    13
100
AcDbText
 10
10041.622
 20
557.2630000000001
 30
0.0
 40
75.99999999999996
  1
６
  7
BIGFONT
100
AcDbText
  0
TEXT
  5
1153
330
1E
100
AcDbEntity
  8
3
  6
Continuous
 62
     7
370
    13
100
AcDbText
 10
10348.26199999999
 20
556.963
 30
0.0
 40
75.99999999999996
  1
１
  7
BIGFONT
100
AcDbText
  0
TEXT
  5
1154
330
1E
100
AcDbEntity
  8
3
  6
Continuous
 62
     7
370
    13
100
AcDbText
 10
9364.842000000001
 20
718.2629999999983
 30
0.0
 40
80.0
  1
１：２０
  7
BIGFONT
100
AcDbText
  0
TEXT
  5
1155
330
1E
100
AcDbEntity
  8
3
  6
Continuous
 62
     7
370
    13
100
AcDbText
 10
10290.36199999999
 20
718.8429999999998
 30
0.0
 40
80.0
  1
KL-303
 41
0.9
  7
BIGFONT
100
AcDbText
  0
TEXT
  5
1156
330
1E
100
AcDbEntity
  8
3
  6
Continuous
 62
     7
370
    13
100
AcDbText
 10
9334.422000000001
 20
854.9029999999982
 30
0.0
 40
80.0
  1
一般部構造図
  7
BIGFONT
100
AcDbText
  0
TEXT
  5
1157
330
1E
100
AcDbEntity
  8
3
  6
Continuous
 62
     7
370
    13
100
AcDbText
 10
9338.202
 20
952.0429999999983
 30
0.0
 40
80.0
  1
ＫＬウォール３型
  7
BIGFONT
100
AcDbText
  0
TEXT
  5
1158
330
1E
100
AcDbEntity
  8
3
  6
Continuous
 62
     7
370
    13
100
AcDbText
 10
9973.569914432996
 20
852.3629999999979
 30
0.0
 40
80.0
  1
(H = 1250)
  7
BIGFONT
100
AcDbText
  0
LINE
  5
1159
330
1E
100
AcDbEntity
  8
0
  6
Continuous
 62
     1
370
    25
100
AcDbLine
 10
0.0
 20
7695.450999999997
 30
0.0
 11
10775.0
 21
7695.450999999997
 31
0.0
  0
LINE
  5
115A
330
1E
100
AcDbEntity
  8
0
  6
Continuous
 62
     1
370
    25
100
AcDbLine
 10
10775.0
 20
0.0
 30
0.0
 11
10775.0
 21
7695.450999999997
 31
0.0
  0
LINE
  5
115B
330
1E
100
AcDbEntity
  8
0
  6
Continuous
 62
     1
370
    25
100
AcDbLine
 10
0.0
 20
0.0
 30
0.0
 11
0.0
 21
7695.450999999997
 31
0.0
  0
LINE
  5
115C
330
1E
100
AcDbEntity
  8
0
  6
Continuous
 62
     1
370
    25
100
AcDbLine
 10
0.0
 20
0.0
 30
0.0
 11
10775.0
 21
0.0
 31
0.0
  0
TEXT
  5
115D
330
1E
100
AcDbEntity
  8
2
  6
Continuous
 62
     7
370
    13
100
AcDbText
 10
3164.594000000001
 20
2739.570999999998
 30
0.0
 40
80.0
  1
径
  7
BIGFONT
100
AcDbText
  0
TEXT
  5
115E
330
1E
100
AcDbEntity
  8
2
  6
Continuous
 62
     7
370
    13
100
AcDbText
 10
3405.842000000001
 20
2789.570999999998
 30
0.0
 40
80.0
  1
長さ
  7
BIGFONT
100
AcDbText
  0
TEXT
  5
115F
330
1E
100
AcDbEntity
  8
2
  6
Continuous
 62
     7
370
    13
100
AcDbText
 10
3721.860000000001
 20
2739.570999999998
 30
0.0
 40
80.0
  1
本数
  7
BIGFONT
100
AcDbText
  0
TEXT
  5
1160
330
1E
100
AcDbEntity
  8
2
  6
Continuous
 62
     7
370
    13
100
AcDbText
 10
3406.399999999998
 20
2712.904999999998
 30
0.0
 40
60.0
  1
（ｍｍ）
  7
BIGFONT
100
AcDbText
  0
TEXT
  5
1161
330
1E
100
AcDbEntity
  8
2
  6
Continuous
 62
     7
370
    13
100
AcDbText
 10
4458.916000000001
 20
2706.722999999998
 30
0.0
 40
60.0
  1
（ｋｇ）
  7
BIGFONT
100
AcDbText
  0
LINE
  5
1162
330
1E
100
AcDbEntity
  8
2
  6
Continuous
 62
     7
370
    13
100
AcDbLine
 10
2871.184000000001
 20
2569.570999999998
 30
0.0
 11
5091.184000000001
 21
2569.570999999998
 31
0.0
  0
LINE
  5
1163
330
1E
100
AcDbEntity
  8
2
  6
Continuous
 62
     7
370
    13
100
AcDbLine
 10
2871.184000000001
 20
2449.570999999998
 30
0.0
 11
5091.184000000001
 21
2449.570999999998
 31
0.0
  0
LINE
  5
1164
330
1E
100
AcDbEntity
  8
2
  6
Continuous
 62
     7
370
    13
100
AcDbLine
 10
2871.184000000001
 20
2329.570999999998
 30
0.0
 11
5091.184000000001
 21
2329.570999999998
 31
0.0
  0
LINE
  5
1165
330
1E
100
AcDbEntity
  8
2
  6
Continuous
 62
     7
370
    13
100
AcDbLine
 10
2871.184000000001
 20
2209.570999999998
 30
0.0
 11
5091.184000000001
 21
2209.570999999998
 31
0.0
  0
LINE
  5
1166
330
1E
100
AcDbEntity
  8
2
  6
Continuous
 62
     7
370
    13
100
AcDbLine
 10
2871.184000000001
 20
2089.570999999996
 30
0.0
 11
5091.184000000001
 21
2089.570999999996
 31
0.0
  0
LINE
  5
1167
330
1E
100
AcDbEntity
  8
2
  6
Continuous
 62
     7
370
    13
100
AcDbLine
 10
2871.184000000001
 20
1969.570999999998
 30
0.0
 11
5091.184000000001
 21
1969.570999999998
 31
0.0
  0
LINE
  5
1168
330
1E
100
AcDbEntity
  8
2
  6
Continuous
 62
     7
370
    13
100
AcDbLine
 10
2871.184000000001
 20
1849.570999999998
 30
0.0
 11
5091.184000000001
 21
1849.570999999998
 31
0.0
  0
LINE
  5
1169
330
1E
100
AcDbEntity
  8
2
  6
Continuous
 62
     7
370
    13
100
AcDbLine
 10
2871.184000000001
 20
2689.570999999998
 30
0.0
 11
2871.184000000001
 21
3089.570999999998
 31
0.0
  0
LINE
  5
116A
330
1E
100
AcDbEntity
  8
2
  6
Continuous
 62
     7
370
    13
100
AcDbLine
 10
2871.184000000001
 20
2689.570999999998
 30
0.0
 11
5091.184000000001
 21
2689.570999999998
 31
0.0
  0
TEXT
  5
116B
330
1E
100
AcDbEntity
  8
2
  6
Continuous
 62
     7
370
    13
100
AcDbText
 10
2913.862000000001
 20
663.4390000000025
 30
0.0
 40
80.0
  1
コンクリート
 41
0.9
  7
BIGFONT
100
AcDbText
  0
TEXT
  5
116C
330
1E
100
AcDbEntity
  8
2
  6
Continuous
 62
     7
370
    13
100
AcDbText
 10
2915.701999999999
 20
377.543000000002
 30
0.0
 40
80.0
  1
継手フランジ
 41
0.8
  7
BIGFONT
100
AcDbText
  0
TEXT
  5
116D
330
1E
100
AcDbEntity
  8
2
  6
Continuous
 62
     7
370
    13
100
AcDbText
 10
2945.610000000001
 20
517.8730000000022
 30
0.0
 40
80.0
  1
ボ　ル　ト
  7
BIGFONT
100
AcDbText
  0
TEXT
  5
116E
330
1E
100
AcDbEntity
  8
2
  6
Continuous
 62
     7
370
    13
100
AcDbText
 10
2892.272000000001
 20
2739.826999999998
 30
0.0
 40
80.0
  1
種別
  7
BIGFONT
100
AcDbText
  0
LINE
  5
116F
330
1E
100
AcDbEntity
  8
2
  6
Continuous
 62
     7
370
    13
100
AcDbLine
 10
2871.184000000001
 20
3089.570999999998
 30
0.0
 11
5091.184000000001
 21
3089.570999999998
 31
0.0
  0
TEXT
  5
1170
330
1E
100
AcDbEntity
  8
2
  6
Continuous
 62
     7
370
    13
100
AcDbText
 10
3936.806000000001
 20
2796.924999999997
 30
0.0
 40
80.0
  1
単位重量
  7
BIGFONT
100
AcDbText
  0
TEXT
  5
1171
330
1E
100
AcDbEntity
  8
2
  6
Continuous
 62
     7
370
    13
100
AcDbText
 10
4841.052
 20
2739.864999999998
 30
0.0
 40
80.0
  1
摘要
  7
BIGFONT
100
AcDbText
  0
LINE
  5
1172
330
1E
100
AcDbEntity
  8
2
  6
Continuous
 62
     7
370
    13
100
AcDbLine
 10
2871.184000000001
 20
2889.570999999998
 30
0.0
 11
5091.184000000001
 21
2889.570999999998
 31
0.0
  0
TEXT
  5
1173
330
1E
100
AcDbEntity
  8
2
  6
Continuous
 62
     7
370
    13
100
AcDbText
 10
3976.351999999999
 20
2710.886999999998
 30
0.0
 40
58.0
  1
（ｋｇ／ｍ）
 41
0.9655171999999998
  7
BIGFONT
100
AcDbText
  0
TEXT
  5
1174
330
1E
100
AcDbEntity
  8
2
  6
Continuous
 62
     7
370
    13
100
AcDbText
 10
4445.544
 20
2796.542999999996
 30
0.0
 40
80.0
  1
重量
  7
BIGFONT
100
AcDbText
  0
LINE
  5
1175
330
1E
100
AcDbEntity
  8
2
  6
Continuous
 62
     7
370
    13
100
AcDbLine
 10
2871.184000000001
 20
1609.570999999997
 30
0.0
 11
5091.184000000001
 21
1609.570999999997
 31
0.0
  0
LINE
  5
1176
330
1E
100
AcDbEntity
  8
2
  6
Continuous
 62
     7
370
    13
100
AcDbLine
 10
2871.184000000001
 20
1489.570999999998
 30
0.0
 11
5091.184000000001
 21
1489.570999999998
 31
0.0
  0
LINE
  5
1177
330
1E
100
AcDbEntity
  8
2
  6
Continuous
 62
     7
370
    13
100
AcDbLine
 10
2871.184000000001
 20
1050.203
 30
0.0
 11
5091.184000000001
 21
1050.203
 31
0.0
  0
LINE
  5
1178
330
1E
100
AcDbEntity
  8
2
  6
Continuous
 62
     7
370
    13
100
AcDbLine
 10
2871.184000000001
 20
910.2030000000047
 30
0.0
 11
5091.184000000001
 21
910.2030000000047
 31
0.0
  0
LINE
  5
1179
330
1E
100
AcDbEntity
  8
2
  6
Continuous
 62
     7
370
    13
100
AcDbLine
 10
2871.184000000001
 20
770.2030000000038
 30
0.0
 11
5091.184000000001
 21
770.2030000000038
 31
0.0
  0
LINE
  5
117A
330
1E
100
AcDbEntity
  8
2
  6
Continuous
 62
     7
370
    13
100
AcDbLine
 10
2871.184000000001
 20
630.2030000000025
 30
0.0
 11
5091.184000000001
 21
630.2030000000025
 31
0.0
  0
LINE
  5
117B
330
1E
100
AcDbEntity
  8
2
  6
Continuous
 62
     7
370
    13
100
AcDbLine
 10
2871.184000000001
 20
490.2030000000006
 30
0.0
 11
5091.184000000001
 21
490.2030000000006
 31
0.0
  0
LINE
  5
117C
330
1E
100
AcDbEntity
  8
2
  6
Continuous
 62
     7
370
    13
100
AcDbLine
 10
2871.184000000001
 20
350.2030000000042
 30
0.0
 11
5091.184000000001
 21
350.2030000000042
 31
0.0
  0
LINE
  5
117D
330
1E
100
AcDbEntity
  8
2
  6
Continuous
 62
     7
370
    13
100
AcDbLine
 10
4641.183999999998
 20
350.2030000000042
 30
0.0
 11
4641.183999999998
 21
1050.203
 31
0.0
  0
LINE
  5
117E
330
1E
100
AcDbEntity
  8
2
  6
Continuous
 62
     7
370
    13
100
AcDbLine
 10
3971.184
 20
350.2030000000042
 30
0.0
 11
3971.184
 21
1050.203
 31
0.0
  0
LINE
  5
117F
330
1E
100
AcDbEntity
  8
2
  6
Continuous
 62
     7
370
    13
100
AcDbLine
 10
4191.183999999998
 20
350.2030000000042
 30
0.0
 11
4191.183999999998
 21
1050.203
 31
0.0
  0
LINE
  5
1180
330
1E
100
AcDbEntity
  8
2
  6
Continuous
 62
     7
370
    13
100
AcDbLine
 10
4191.183999999998
 20
350.2030000000042
 30
0.0
 11
4191.183999999998
 21
1050.203
 31
0.0
  0
LINE
  5
1181
330
1E
100
AcDbEntity
  8
2
  6
Continuous
 62
     7
370
    13
100
AcDbLine
 10
4191.183999999998
 20
350.2030000000042
 30
0.0
 11
4191.183999999998
 21
1050.203
 31
0.0
  0
LINE
  5
1182
330
1E
100
AcDbEntity
  8
2
  6
Continuous
 62
     7
370
    13
100
AcDbLine
 10
3421.184
 20
350.2030000000042
 30
0.0
 11
3421.184
 21
1050.203
 31
0.0
  0
LINE
  5
1183
330
1E
100
AcDbEntity
  8
2
  6
Continuous
 62
     7
370
    13
100
AcDbLine
 10
3091.184
 20
2689.570999999998
 30
0.0
 11
3091.184
 21
2889.570999999998
 31
0.0
  0
TEXT
  5
1184
330
1E
100
AcDbEntity
  8
2
  6
Continuous
 62
     7
370
    13
100
AcDbText
 10
3006.84
 20
2939.570999999998
 30
0.0
 40
90.0
  1
鉄筋重量表
  7
BIGFONT
100
AcDbText
  0
TEXT
  5
1185
330
1E
100
AcDbEntity
  8
2
  6
Continuous
 62
     7
370
    13
100
AcDbText
 10
3015.155999999999
 20
1100.203
 30
0.0
 40
90.0
  1
材料表
  7
BIGFONT
100
AcDbText
  0
TEXT
  5
1186
330
1E
100
AcDbEntity
  8
2
  6
Continuous
 62
     7
370
    13
100
AcDbText
 10
2926.672000000003
 20
2230.736999999998
 30
0.0
 40
80.0
  1
Ｓ
  7
BIGFONT
100
AcDbText
  0
TEXT
  5
1187
330
1E
100
AcDbEntity
  8
2
  6
Continuous
 62
     7
370
    13
100
AcDbText
 10
2926.672000000003
 20
2350.736999999998
 30
0.0
 40
80.0
  1
Ｓ
  7
BIGFONT
100
AcDbText
  0
TEXT
  5
1188
330
1E
100
AcDbEntity
  8
2
  6
Continuous
 62
     7
370
    13
100
AcDbText
 10
2926.672000000003
 20
2470.736999999996
 30
0.0
 40
80.0
  1
Ｓ
  7
BIGFONT
100
AcDbText
  0
TEXT
  5
1189
330
1E
100
AcDbEntity
  8
2
  6
Continuous
 62
     7
370
    13
100
AcDbText
 10
2926.672000000003
 20
2590.736999999997
 30
0.0
 40
80.0
  1
Ｓ
  7
BIGFONT
100
AcDbText
  0
TEXT
  5
118A
330
1E
100
AcDbEntity
  8
2
  6
Continuous
 62
     7
370
    13
100
AcDbText
 10
2926.672000000003
 20
2110.736999999998
 30
0.0
 40
80.0
  1
Ｓ
  7
BIGFONT
100
AcDbText
  0
TEXT
  5
118B
330
1E
100
AcDbEntity
  8
2
  6
Continuous
 62
     7
370
    13
100
AcDbText
 10
2926.672000000003
 20
1990.736999999998
 30
0.0
 40
80.0
  1
Ｓ
  7
BIGFONT
100
AcDbText
  0
TEXT
  5
118C
330
1E
100
AcDbEntity
  8
2
  6
Continuous
 62
     7
370
    13
100
AcDbText
 10
2926.672000000003
 20
1870.736999999997
 30
0.0
 40
80.0
  1
Ｓ
  7
BIGFONT
100
AcDbText
  0
TEXT
  5
118D
330
1E
100
AcDbEntity
  8
2
  6
Continuous
 62
     7
370
    13
100
AcDbText
 10
2926.672000000003
 20
1750.737
 30
0.0
 40
80.0
  1
Ｓ
  7
BIGFONT
100
AcDbText
  0
TEXT
  5
118E
330
1E
100
AcDbEntity
  8
2
  6
Continuous
 62
     7
370
    13
100
AcDbText
 10
2926.672000000003
 20
1510.736999999998
 30
0.0
 40
80.0
  1
Ｓ
  7
BIGFONT
100
AcDbText
  0
TEXT
  5
118F
330
1E
100
AcDbEntity
  8
2
  6
Continuous
 62
     7
370
    13
100
AcDbText
 10
2996.006000000001
 20
2597.910999999997
 30
0.0
 40
40.0
  1
１
  7
BIGFONT
100
AcDbText
  0
TEXT
  5
1190
330
1E
100
AcDbEntity
  8
2
  6
Continuous
 62
     7
370
    13
100
AcDbText
 10
2991.626
 20
2477.740999999998
 30
0.0
 40
40.0
  1
２
  7
BIGFONT
100
AcDbText
  0
TEXT
  5
1191
330
1E
100
AcDbEntity
  8
2
  6
Continuous
 62
     7
370
    13
100
AcDbText
 10
2990.011999999999
 20
2357.728999999998
 30
0.0
 40
40.0
  1
３
  7
BIGFONT
100
AcDbText
  0
TEXT
  5
1192
330
1E
100
AcDbEntity
  8
2
  6
Continuous
 62
     7
370
    13
100
AcDbText
 10
2988.98
 20
2237.404999999997
 30
0.0
 40
40.0
  1
４
  7
BIGFONT
100
AcDbText
  0
TEXT
  5
1193
330
1E
100
AcDbEntity
  8
2
  6
Continuous
 62
     7
370
    13
100
AcDbText
 10
2988.874000000002
 20
2117.294999999998
 30
0.0
 40
40.0
  1
５
  7
BIGFONT
100
AcDbText
  0
TEXT
  5
1194
330
1E
100
AcDbEntity
  8
2
  6
Continuous
 62
     7
370
    13
100
AcDbText
 10
2988.912
 20
1997.776999999998
 30
0.0
 40
40.0
  1
６
  7
BIGFONT
100
AcDbText
  0
TEXT
  5
1195
330
1E
100
AcDbEntity
  8
2
  6
Continuous
 62
     7
370
    13
100
AcDbText
 10
2988.116
 20
1876.972999999997
 30
0.0
 40
40.0
  1
７
  7
BIGFONT
100
AcDbText
  0
TEXT
  5
1196
330
1E
100
AcDbEntity
  8
2
  6
Continuous
 62
     7
370
    13
100
AcDbText
 10
2988.144
 20
1757.765
 30
0.0
 40
40.0
  1
８
  7
BIGFONT
100
AcDbText
  0
TEXT
  5
1197
330
1E
100
AcDbEntity
  8
2
  6
Continuous
 62
     7
370
    13
100
AcDbText
 10
2987.074024387656
 20
1517.592999999998
 30
0.0
 40
40.0
  1
１０
 41
0.5
  7
BIGFONT
100
AcDbText
  0
TEXT
  5
1198
330
1E
100
AcDbEntity
  8
2
  6
Continuous
 62
     7
370
    13
100
AcDbText
 10
4295.487999999996
 20
942.9350000000022
 30
0.0
 40
80.0
  1
数　量
  7
BIGFONT
100
AcDbText
  0
TEXT
  5
1199
330
1E
100
AcDbEntity
  8
2
  6
Continuous
 62
     7
370
    13
100
AcDbText
 10
4750.023999999998
 20
942.6550000000002
 30
0.0
 40
80.0
  1
摘　要
  7
BIGFONT
100
AcDbText
  0
TEXT
  5
119A
330
1E
100
AcDbEntity
  8
2
  6
Continuous
 62
     7
370
    13
100
AcDbText
 10
3037.896000000001
 20
943.0810000000001
 30
0.0
 40
80.0
  1
種　別
  7
BIGFONT
100
AcDbText
  0
TEXT
  5
119B
330
1E
100
AcDbEntity
  8
2
  6
Continuous
 62
     7
370
    13
100
AcDbText
 10
3568.954
 20
940.0870000000004
 30
0.0
 40
80.0
  1
規　格
  7
BIGFONT
100
AcDbText
  0
TEXT
  5
119C
330
1E
100
AcDbEntity
  8
2
  6
Continuous
 62
     7
370
    13
100
AcDbText
 10
4001.233999999999
 20
942.3990000000005
 30
0.0
 40
80.0
  1
単位
  7
BIGFONT
100
AcDbText
  0
TEXT
  5
119D
330
1E
100
AcDbEntity
  8
2
  6
Continuous
 62
     7
370
    13
100
AcDbText
 10
2920.612000000001
 20
801.6230000000025
 30
0.0
 40
80.0
  1
鉄　筋
  7
BIGFONT
100
AcDbText
  0
TEXT
  5
119E
330
1E
100
AcDbEntity
  8
2
  6
Continuous
 62
     7
370
    13
100
AcDbText
 10
4022.995999999999
 20
808.7270000000026
 30
0.0
 40
60.0
  1
ｋｇ
  7
BIGFONT
100
AcDbText
  0
TEXT
  5
119F
330
1E
100
AcDbEntity
  8
2
  6
Continuous
 62
     7
370
    13
100
AcDbText
 10
4046.808000000001
 20
668.7330000000001
 30
0.0
 40
60.0
  1
ｍ
  7
BIGFONT
100
AcDbText
  0
TEXT
  5
11A0
330
1E
100
AcDbEntity
  8
2
  6
Continuous
 62
     7
370
    13
100
AcDbText
 10
4051.987999999999
 20
388.7330000000003
 30
0.0
 40
60.0
  1
コ
  7
BIGFONT
100
AcDbText
  0
TEXT
  5
11A1
330
1E
100
AcDbEntity
  8
2
  6
Continuous
 62
     7
370
    13
100
AcDbText
 10
4049.592
 20
528.7330000000001
 30
0.0
 40
60.0
  1
組
  7
BIGFONT
100
AcDbText
  0
TEXT
  5
11A2
330
1E
100
AcDbEntity
  8
2
  6
Continuous
 62
     7
370
    13
100
AcDbText
 10
4090.554
 20
701.0650000000005
 30
0.0
 40
40.0
  1
３
  7
BIGFONT
100
AcDbText
  0
TEXT
  5
11A3
330
1E
100
AcDbEntity
  8
2
  6
Continuous
 62
     7
370
    13
100
AcDbText
 10
4380.089999999998
 20
1078.141
 30
0.0
 40
60.0
  1
（製品．１　当たり）
  7
BIGFONT
100
AcDbText
  0
TEXT
  5
11A4
330
1E
100
AcDbEntity
  8
2
  6
Continuous
 62
     7
370
    13
100
AcDbText
 10
4727.332379651736
 20
1081.077
 30
0.0
 40
40.0
  1
コ
  7
BIGFONT
100
AcDbText
  0
TEXT
  5
11A5
330
1E
100
AcDbEntity
  8
2
  6
Continuous
 62
     7
370
    13
100
AcDbText
 10
4380.089999999998
 20
2919.260999999997
 30
0.0
 40
60.0
  1
（製品．１　当たり）
  7
BIGFONT
100
AcDbText
  0
TEXT
  5
11A6
330
1E
100
AcDbEntity
  8
2
  6
Continuous
 62
     7
370
    13
100
AcDbText
 10
4736.133633304919
 20
2922.196999999998
 30
0.0
 40
40.0
  1
コ
  7
BIGFONT
100
AcDbText
  0
CIRCLE
  5
11A7
330
1E
100
AcDbEntity
  8
2
  6
Continuous
 62
     7
370
    13
100
AcDbCircle
 10
2981.184000000001
 20
2629.570999999998
 30
0.0
 40
52.0
  0
CIRCLE
  5
11A8
330
1E
100
AcDbEntity
  8
2
  6
Continuous
 62
     7
370
    13
100
AcDbCircle
 10
2981.184000000001
 20
2509.570999999998
 30
0.0
 40
52.0
  0
CIRCLE
  5
11A9
330
1E
100
AcDbEntity
  8
2
  6
Continuous
 62
     7
370
    13
100
AcDbCircle
 10
2981.184000000001
 20
2389.570999999998
 30
0.0
 40
52.0
  0
CIRCLE
  5
11AA
330
1E
100
AcDbEntity
  8
2
  6
Continuous
 62
     7
370
    13
100
AcDbCircle
 10
2981.184000000001
 20
2269.570999999998
 30
0.0
 40
52.0
  0
CIRCLE
  5
11AB
330
1E
100
AcDbEntity
  8
2
  6
Continuous
 62
     7
370
    13
100
AcDbCircle
 10
2981.184000000001
 20
2149.570999999999
 30
0.0
 40
52.0
  0
CIRCLE
  5
11AC
330
1E
100
AcDbEntity
  8
2
  6
Continuous
 62
     7
370
    13
100
AcDbCircle
 10
2981.184000000001
 20
2029.570999999996
 30
0.0
 40
52.0
  0
CIRCLE
  5
11AD
330
1E
100
AcDbEntity
  8
2
  6
Continuous
 62
     7
370
    13
100
AcDbCircle
 10
2981.184000000001
 20
1909.570999999997
 30
0.0
 40
52.0
  0
CIRCLE
  5
11AE
330
1E
100
AcDbEntity
  8
2
  6
Continuous
 62
     7
370
    13
100
AcDbCircle
 10
2981.184000000001
 20
1789.571
 30
0.0
 40
52.0
  0
CIRCLE
  5
11AF
330
1E
100
AcDbEntity
  8
2
  6
Continuous
 62
     7
370
    13
100
AcDbCircle
 10
2981.184000000001
 20
1549.570999999998
 30
0.0
 40
52.0
  0
TEXT
  5
11B0
330
1E
100
AcDbEntity
  8
2
  6
Continuous
 62
     7
370
    13
100
AcDbText
 10
3132.368000000003
 20
2233.610999999996
 30
0.0
 40
64.0
  1
D10
  7
BIGFONT
100
AcDbText
  0
TEXT
  5
11B1
330
1E
100
AcDbEntity
  8
2
  6
Continuous
 62
     7
370
    13
100
AcDbText
 10
3797.389999999998
 20
2473.416999999998
 30
0.0
 40
64.0
  1
2
  7
BIGFONT
100
AcDbText
  0
TEXT
  5
11B2
330
1E
100
AcDbEntity
  8
2
  6
Continuous
 62
     7
370
    13
100
AcDbText
 10
3797.254000000001
 20
2233.960999999997
 30
0.0
 40
64.0
  1
8
  7
BIGFONT
100
AcDbText
  0
TEXT
  5
11B3
330
1E
100
AcDbEntity
  8
2
  6
Continuous
 62
     7
370
    13
100
AcDbText
 10
3797.988
 20
1993.768999999998
 30
0.0
 40
64.0
  1
2
  7
BIGFONT
100
AcDbText
  0
TEXT
  5
11B4
330
1E
100
AcDbEntity
  8
2
  6
Continuous
 62
     7
370
    13
100
AcDbText
 10
3797.637999999999
 20
1873.740999999997
 30
0.0
 40
64.0
  1
2
  7
BIGFONT
100
AcDbText
  0
TEXT
  5
11B5
330
1E
100
AcDbEntity
  8
2
  6
Continuous
 62
     7
370
    13
100
AcDbText
 10
3797.389999999998
 20
2353.416999999997
 30
0.0
 40
64.0
  1
2
  7
BIGFONT
100
AcDbText
  0
LINE
  5
11B6
330
1E
100
AcDbEntity
  8
2
  6
Continuous
 62
     7
370
    13
100
AcDbLine
 10
4791.184000000001
 20
2571.104999999996
 30
0.0
 11
4791.184000000001
 21
2689.302999999999
 31
0.0
  0
LINE
  5
11B7
330
1E
100
AcDbEntity
  8
2
  6
Continuous
 62
     7
370
    13
100
AcDbLine
 10
4791.184000000001
 20
2689.302999999999
 30
0.0
 11
4791.184000000001
 21
2889.570999999998
 31
0.0
  0
LINE
  5
11B8
330
1E
100
AcDbEntity
  8
2
  6
Continuous
 62
     7
370
    13
100
AcDbLine
 10
4935.552
 20
2368.284999999997
 30
0.0
 11
4935.552
 21
2398.284999999998
 31
0.0
  0
LINE
  5
11B9
330
1E
100
AcDbEntity
  8
2
  6
Continuous
 62
     7
370
    13
100
AcDbLine
 10
4933.184000000001
 20
2238.414999999997
 30
0.0
 11
4960.982
 21
2238.414999999997
 31
0.0
  0
LINE
  5
11BA
330
1E
100
AcDbEntity
  8
2
  6
Continuous
 62
     7
370
    13
100
AcDbLine
 10
4933.184000000001
 20
2238.414999999997
 30
0.0
 11
4933.184000000001
 21
2294.414999999998
 31
0.0
  0
LINE
  5
11BB
330
1E
100
AcDbEntity
  8
2
  6
Continuous
 62
     7
370
    13
100
AcDbLine
 10
4881.083999999999
 20
2149.516999999997
 30
0.0
 11
4881.083999999999
 21
2163.002999999996
 31
0.0
  0
LINE
  5
11BC
330
1E
100
AcDbEntity
  8
2
  6
Continuous
 62
     7
370
    13
100
AcDbLine
 10
4906.083999999999
 20
2029.516999999998
 30
0.0
 11
4906.083999999999
 21
2043.002999999996
 31
0.0
  0
LINE
  5
11BD
330
1E
100
AcDbEntity
  8
2
  6
Continuous
 62
     7
370
    13
100
AcDbLine
 10
4906.083999999999
 20
2029.516999999998
 30
0.0
 11
4967.338
 21
2025.232999999999
 31
0.0
  0
LINE
  5
11BE
330
1E
100
AcDbEntity
  8
2
  6
Continuous
 62
     7
370
    13
100
AcDbLine
 10
4907.329999999998
 20
1806.786999999997
 30
0.0
 11
4907.329999999998
 21
1820.272999999998
 31
0.0
  0
LINE
  5
11BF
330
1E
100
AcDbEntity
  8
2
  6
Continuous
 62
     7
370
    13
100
AcDbLine
 10
4907.329999999998
 20
1806.786999999997
 30
0.0
 11
4952.043999999998
 21
1762.073
 31
0.0
  0
LINE
  5
11C0
330
1E
100
AcDbEntity
  8
2
  6
Continuous
 62
     7
370
    13
100
AcDbLine
 10
4952.043999999998
 20
1762.073
 30
0.0
 11
4967.006000000001
 21
1762.073
 31
0.0
  0
LINE
  5
11C1
330
1E
100
AcDbEntity
  8
2
  6
Continuous
 62
     7
370
    13
100
AcDbLine
 10
4933.011999999998
 20
2534.446999999995
 30
0.0
 11
4934.964
 21
2478.546999999996
 31
0.0
  0
LINE
  5
11C2
330
1E
100
AcDbEntity
  8
2
  6
Continuous
 62
     7
370
    13
100
AcDbLine
 10
4934.964
 20
2478.414999999998
 30
0.0
 11
4945.95
 21
2478.414999999998
 31
0.0
  0
TEXT
  5
11C3
330
1E
100
AcDbEntity
  8
2
  6
Continuous
 62
     7
370
    13
100
AcDbText
 10
3496.722
 20
806.1470000000007
 30
0.0
 40
64.0
  1
SD295A
  7
BIGFONT
100
AcDbText
  0
TEXT
  5
11C4
330
1E
100
AcDbEntity
  8
2
  6
Continuous
 62
     7
370
    13
100
AcDbText
 10
3495.556
 20
670.2310000000022
 30
0.0
 40
64.0
  1
Fc300
  7
BIGFONT
100
AcDbText
  0
TEXT
  5
11C5
330
1E
100
AcDbEntity
  8
2
  6
Continuous
 62
     7
370
    13
100
AcDbText
 10
3506.626
 20
524.9310000000003
 30
0.0
 40
64.0
  1
W1/2×38
  7
BIGFONT
100
AcDbText
  0
TEXT
  5
11C6
330
1E
100
AcDbEntity
  8
2
  6
Continuous
 62
     7
370
    13
100
AcDbText
 10
3496.887999999999
 20
385.0790000000005
 30
0.0
 40
64.0
  1
SS400
  7
BIGFONT
100
AcDbText
  0
TEXT
  5
11C7
330
1E
100
AcDbEntity
  8
2
  6
Continuous
 62
     7
370
    13
100
AcDbText
 10
4890.836
 20
669.7530000000006
 30
0.0
 40
64.0
  1
kg/コ
 41
0.7
  7
BIGFONT
100
AcDbText
  0
LINE
  5
11C8
330
1E
100
AcDbEntity
  8
2
  6
Continuous
 62
     7
370
    13
100
AcDbLine
 10
9755.946000000001
 20
1259.570999999998
 30
0.0
 11
9755.946000000001
 21
2739.570999999998
 31
0.0
  0
LINE
  5
11C9
330
1E
100
AcDbEntity
  8
2
  6
Continuous
 62
     7
370
    13
100
AcDbLine
 10
9975.946
 20
1259.570999999998
 30
0.0
 11
9975.946
 21
2739.570999999998
 31
0.0
  0
LINE
  5
11CA
330
1E
100
AcDbEntity
  8
2
  6
Continuous
 62
     7
370
    13
100
AcDbLine
 10
10695.946
 20
1259.570999999998
 30
0.0
 11
10695.946
 21
2739.570999999998
 31
0.0
  0
LINE
  5
11CB
330
1E
100
AcDbEntity
  8
2
  6
Continuous
 62
     7
370
    13
100
AcDbLine
 10
8575.946
 20
2819.570999999998
 30
0.0
 11
10695.946
 21
2819.570999999998
 31
0.0
  0
LINE
  5
11CC
330
1E
100
AcDbEntity
  8
2
  6
Continuous
 62
     7
370
    13
100
AcDbLine
 10
8575.946
 20
2939.570999999998
 30
0.0
 11
10695.946
 21
2939.570999999998
 31
0.0
  0
LINE
  5
11CD
330
1E
100
AcDbEntity
  8
2
  6
Continuous
 62
     7
370
    13
100
AcDbLine
 10
8575.946
 20
3089.570999999998
 30
0.0
 11
10695.946
 21
3089.570999999998
 31
0.0
  0
LINE
  5
11CE
330
1E
100
AcDbEntity
  8
2
  6
Continuous
 62
     7
370
    13
100
AcDbLine
 10
8575.946
 20
2579.570999999998
 30
0.0
 11
10695.946
 21
2579.570999999998
 31
0.0
  0
LINE
  5
11CF
330
1E
100
AcDbEntity
  8
2
  6
Continuous
 62
     7
370
    13
100
AcDbLine
 10
8575.946
 20
2459.570999999999
 30
0.0
 11
10695.946
 21
2459.570999999999
 31
0.0
  0
LINE
  5
11D0
330
1E
100
AcDbEntity
  8
2
  6
Continuous
 62
     7
370
    13
100
AcDbLine
 10
8575.946
 20
2339.570999999998
 30
0.0
 11
10695.946
 21
2339.570999999998
 31
0.0
  0
LINE
  5
11D1
330
1E
100
AcDbEntity
  8
2
  6
Continuous
 62
     7
370
    13
100
AcDbLine
 10
8575.946
 20
2219.570999999996
 30
0.0
 11
10695.946
 21
2219.570999999996
 31
0.0
  0
LINE
  5
11D2
330
1E
100
AcDbEntity
  8
2
  6
Continuous
 62
     7
370
    13
100
AcDbLine
 10
8575.946
 20
2099.570999999999
 30
0.0
 11
10695.946
 21
2099.570999999999
 31
0.0
  0
LINE
  5
11D3
330
1E
100
AcDbEntity
  8
2
  6
Continuous
 62
     7
370
    13
100
AcDbLine
 10
8575.946
 20
1979.570999999997
 30
0.0
 11
10695.946
 21
1979.570999999997
 31
0.0
  0
LINE
  5
11D4
330
1E
100
AcDbEntity
  8
2
  6
Continuous
 62
     7
370
    13
100
AcDbLine
 10
8575.946
 20
1739.570999999996
 30
0.0
 11
10695.946
 21
1739.570999999996
 31
0.0
  0
LINE
  5
11D5
330
1E
100
AcDbEntity
  8
2
  6
Continuous
 62
     7
370
    13
100
AcDbLine
 10
8575.946
 20
1619.571
 30
0.0
 11
10695.946
 21
1619.571
 31
0.0
  0
LINE
  5
11D6
330
1E
100
AcDbEntity
  8
2
  6
Continuous
 62
     7
370
    13
100
AcDbLine
 10
8575.946
 20
1259.570999999998
 30
0.0
 11
10695.946
 21
1259.570999999998
 31
0.0
  0
LINE
  5
11D7
330
1E
100
AcDbEntity
  8
2
  6
Continuous
 62
     7
370
    13
100
AcDbLine
 10
8575.946
 20
2699.570999999998
 30
0.0
 11
10695.946
 21
2699.570999999998
 31
0.0
  0
TEXT
  5
11D8
330
1E
100
AcDbEntity
  8
2
  6
Continuous
 62
     7
370
    13
100
AcDbText
 10
8641.717999999997
 20
3154.006999999998
 30
0.0
 40
90.0
  1
設計条件
  7
BIGFONT
100
AcDbText
  0
LINE
  5
11D9
330
1E
100
AcDbEntity
  8
2
  6
Continuous
 62
     7
370
    13
100
AcDbLine
 10
8581.929999999998
 20
3133.918999999998
 30
0.0
 11
9225.861999999997
 21
3133.918999999998
 31
0.0
  0
TEXT
  5
11DA
330
1E
100
AcDbEntity
  8
2
  6
Continuous
 62
     7
370
    13
100
AcDbText
 10
8616.803999999996
 20
2838.628999999999
 30
0.0
 40
75.99999999999996
  1
擁壁高
  7
BIGFONT
100
AcDbText
  0
TEXT
  5
11DB
330
1E
100
AcDbEntity
  8
2
  6
Continuous
 62
     7
370
    13
100
AcDbText
 10
8618.216000000002
 20
2719.392999999998
 30
0.0
 40
75.99999999999996
  1
盛土高
  7
BIGFONT
100
AcDbText
  0
TEXT
  5
11DC
330
1E
100
AcDbEntity
  8
2
  6
Continuous
 62
     7
370
    13
100
AcDbText
 10
8619.297999999998
 20
2599.404999999998
 30
0.0
 40
75.99999999999996
  1
盛土こう配
  7
BIGFONT
100
AcDbText
  0
TEXT
  5
11DD
330
1E
100
AcDbEntity
  8
2
  6
Continuous
 62
     7
370
    13
100
AcDbText
 10
8618.150000000001
 20
2239.498999999997
 30
0.0
 40
75.99999999999996
  1
載荷重
  7
BIGFONT
100
AcDbText
  0
TEXT
  5
11DE
330
1E
100
AcDbEntity
  8
2
  6
Continuous
 62
     7
370
    13
100
AcDbText
 10
8615.948000000001
 20
2117.038999999998
 30
0.0
 40
75.99999999999996
  1
土圧
  7
BIGFONT
100
AcDbText
  0
TEXT
  5
11DF
330
1E
100
AcDbEntity
  8
2
  6
Continuous
 62
     7
370
    13
100
AcDbText
 10
8618.778000000002
 20
1998.320999999996
 30
0.0
 40
75.99999999999996
  1
設計震度
  7
BIGFONT
100
AcDbText
  0
LINE
  5
11E0
330
1E
100
AcDbEntity
  8
2
  6
Continuous
 62
     7
370
    13
100
AcDbLine
 10
9086.649999999997
 20
1739.570999999996
 30
0.0
 11
9086.649999999997
 21
1979.570999999997
 31
0.0
  0
TEXT
  5
11E1
330
1E
100
AcDbEntity
  8
2
  6
Continuous
 62
     7
370
    13
100
AcDbText
 10
8584.628
 20
1823.545
 30
0.0
 40
75.99999999999996
  1
単位体積重量
 41
0.9473684
  7
BIGFONT
100
AcDbText
  0
TEXT
  5
11E2
330
1E
100
AcDbEntity
  8
2
  6
Continuous
 62
     7
370
    13
100
AcDbText
 10
9117.081999999999
 20
1758.052999999996
 30
0.0
 40
75.99999999999996
  1
鉄筋コンクリート
 41
0.9
  7
BIGFONT
100
AcDbText
  0
LINE
  5
11E3
330
1E
100
AcDbEntity
  8
2
  6
Continuous
 62
     7
370
    13
100
AcDbLine
 10
8575.946
 20
1259.570999999998
 30
0.0
 11
8575.946
 21
1844.444999999996
 31
0.0
  0
LINE
  5
11E4
330
1E
100
AcDbEntity
  8
2
  6
Continuous
 62
     7
370
    13
100
AcDbLine
 10
8575.946
 20
1844.444999999996
 30
0.0
 11
8575.946
 21
1878.546999999998
 31
0.0
  0
LINE
  5
11E5
330
1E
100
AcDbEntity
  8
2
  6
Continuous
 62
     7
370
    13
100
AcDbLine
 10
8575.946
 20
1878.546999999998
 30
0.0
 11
8575.946
 21
2739.570999999998
 31
0.0
  0
LINE
  5
11E6
330
1E
100
AcDbEntity
  8
2
  6
Continuous
 62
     7
370
    13
100
AcDbLine
 10
9086.733999999998
 20
1859.570999999997
 30
0.0
 11
10695.946
 21
1859.570999999997
 31
0.0
  0
TEXT
  5
11E7
330
1E
100
AcDbEntity
  8
2
  6
Continuous
 62
     7
370
    13
100
AcDbText
 10
9113.982
 20
1876.852999999997
 30
0.0
 40
75.99999999999996
  1
土砂
  7
BIGFONT
100
AcDbText
  0
TEXT
  5
11E8
330
1E
100
AcDbEntity
  8
2
  6
Continuous
 62
     7
370
    13
100
AcDbText
 10
8610.711999999999
 20
1642.352999999999
 30
0.0
 40
75.99999999999996
  1
コンクリート設計基準強度
  7
BIGFONT
100
AcDbText
  0
TEXT
  5
11E9
330
1E
100
AcDbEntity
  8
2
  6
Continuous
 62
     7
370
    13
100
AcDbText
 10
8617.808000000001
 20
1612.139
 30
0.0
 40
72.0
  1
許容応力度
 50
270.0
 41
0.8
  7
BIGFONT
100
AcDbText
  0
LINE
  5
11EA
330
1E
100
AcDbEntity
  8
2
  6
Continuous
 62
     7
370
    13
100
AcDbLine
 10
8726.662000000001
 20
1499.571
 30
0.0
 11
10695.946
 21
1499.571
 31
0.0
  0
LINE
  5
11EB
330
1E
100
AcDbEntity
  8
2
  6
Continuous
 62
     7
370
    13
100
AcDbLine
 10
8726.662000000001
 20
1379.570999999998
 30
0.0
 11
10695.946
 21
1379.570999999998
 31
0.0
  0
LINE
  5
11EC
330
1E
100
AcDbEntity
  8
2
  6
Continuous
 62
     7
370
    13
100
AcDbLine
 10
8726.662000000001
 20
1259.570999999998
 30
0.0
 11
8726.662000000001
 21
1619.571
 31
0.0
  0
TEXT
  5
11ED
330
1E
100
AcDbEntity
  8
2
  6
Continuous
 62
     7
370
    13
100
AcDbText
 10
8773.751999999998
 20
1522.968999999996
 30
0.0
 40
75.99999999999996
  1
コンクリート圧縮応力度
 41
0.9
  7
BIGFONT
100
AcDbText
  0
TEXT
  5
11EE
330
1E
100
AcDbEntity
  8
2
  6
Continuous
 62
     7
370
    13
100
AcDbText
 10
8774.984000000001
 20
1394.070999999998
 30
0.0
 40
75.99999999999996
  1
コンクリートせん断応力度
 41
0.9
  7
BIGFONT
100
AcDbText
  0
TEXT
  5
11EF
330
1E
100
AcDbEntity
  8
2
  6
Continuous
 62
     7
370
    13
100
AcDbText
 10
8782.853999999998
 20
1278.220999999998
 30
0.0
 40
75.99999999999996
  1
鉄筋引張応力度
 41
0.9473684
  7
BIGFONT
100
AcDbText
  0
LINE
  5
11F0
330
1E
100
AcDbEntity
  8
2
  6
Continuous
 62
     7
370
    13
100
AcDbLine
 10
9755.946000000001
 20
2739.570999999998
 30
0.0
 11
9755.946000000001
 21
3089.570999999998
 31
0.0
  0
LINE
  5
11F1
330
1E
100
AcDbEntity
  8
2
  6
Continuous
 62
     7
370
    13
100
AcDbLine
 10
9975.946
 20
2739.570999999998
 30
0.0
 11
9975.946
 21
3089.570999999998
 31
0.0
  0
LINE
  5
11F2
330
1E
100
AcDbEntity
  8
2
  6
Continuous
 62
     7
370
    13
100
AcDbLine
 10
10695.946
 20
2739.570999999998
 30
0.0
 11
10695.946
 21
3089.570999999998
 31
0.0
  0
LINE
  5
11F3
330
1E
100
AcDbEntity
  8
2
  6
Continuous
 62
     7
370
    13
100
AcDbLine
 10
8575.946
 20
2739.570999999998
 30
0.0
 11
8575.946
 21
3089.570999999998
 31
0.0
  0
TEXT
  5
11F4
330
1E
100
AcDbEntity
  8
2
  6
Continuous
 62
     7
370
    13
100
AcDbText
 10
8959.668000000002
 20
2972.438999999998
 30
0.0
 40
80.0
  1
項目
  7
BIGFONT
100
AcDbText
  0
TEXT
  5
11F5
330
1E
100
AcDbEntity
  8
2
  6
Continuous
 62
     7
370
    13
100
AcDbText
 10
9770.208000000003
 20
2970.492999999997
 30
0.0
 40
80.0
  1
単位
  7
BIGFONT
100
AcDbText
  0
TEXT
  5
11F6
330
1E
100
AcDbEntity
  8
2
  6
Continuous
 62
     7
370
    13
100
AcDbText
 10
10398.79399999999
 20
2966.590999999998
 30
0.0
 40
80.0
  1
短期
  7
BIGFONT
100
AcDbText
  0
TEXT
  5
11F7
330
1E
100
AcDbEntity
  8
2
  6
Continuous
 62
     7
370
    13
100
AcDbText
 10
10035.556
 20
2966.646999999998
 30
0.0
 40
80.0
  1
長期
  7
BIGFONT
100
AcDbText
  0
TEXT
  5
11F8
330
1E
100
AcDbEntity
  8
2
  6
Continuous
 62
     7
370
    13
100
AcDbText
 10
9838.610000000002
 20
2853.972999999998
 30
0.0
 40
60.0
  1
ｍ
  7
BIGFONT
100
AcDbText
  0
TEXT
  5
11F9
330
1E
100
AcDbEntity
  8
2
  6
Continuous
 62
     7
370
    13
100
AcDbText
 10
9838.610000000002
 20
2733.972999999998
 30
0.0
 40
60.0
  1
ｍ
  7
BIGFONT
100
AcDbText
  0
TEXT
  5
11FA
330
1E
100
AcDbEntity
  8
2
  6
Continuous
 62
     7
370
    13
100
AcDbText
 10
9798.251597832312
 20
1639.09619289815
 30
0.0
 40
50.0
  1
N/mm
 41
0.7
  7
BIGFONT
100
AcDbText
  0
TEXT
  5
11FB
330
1E
100
AcDbEntity
  8
2
  6
Continuous
 62
     7
370
    13
100
AcDbText
 10
9925.805268644886
 20
1679.288999999996
 30
0.0
 40
23.99999999999998
  1
２
  7
BIGFONT
100
AcDbText
  0
TEXT
  5
11FC
330
1E
100
AcDbEntity
  8
2
  6
Continuous
 62
     7
370
    13
100
AcDbText
 10
9925.805268644886
 20
1559.288999999998
 30
0.0
 40
23.99999999999998
  1
２
  7
BIGFONT
100
AcDbText
  0
TEXT
  5
11FD
330
1E
100
AcDbEntity
  8
2
  6
Continuous
 62
     7
370
    13
100
AcDbText
 10
9925.805268644886
 20
1439.289
 30
0.0
 40
23.99999999999998
  1
２
  7
BIGFONT
100
AcDbText
  0
TEXT
  5
11FE
330
1E
100
AcDbEntity
  8
2
  6
Continuous
 62
     7
370
    13
100
AcDbText
 10
9925.805268644886
 20
1319.288999999998
 30
0.0
 40
23.99999999999998
  1
２
  7
BIGFONT
100
AcDbText
  0
TEXT
  5
11FF
330
1E
100
AcDbEntity
  8
2
  6
Continuous
 62
     7
370
    13
100
AcDbText
 10
9923.859157746612
 20
1792.927
 30
0.0
 40
23.99999999999998
  1
３
  7
BIGFONT
100
AcDbText
  0
TEXT
  5
1200
330
1E
100
AcDbEntity
  8
2
  6
Continuous
 62
     7
370
    13
100
AcDbText
 10
9923.859157746612
 20
1912.926999999996
 30
0.0
 40
23.99999999999998
  1
３
  7
BIGFONT
100
AcDbText
  0
TEXT
  5
1201
330
1E
100
AcDbEntity
  8
2
  6
Continuous
 62
     7
370
    13
100
AcDbText
 10
9796.547650960365
 20
2244.006999999997
 30
0.0
 40
50.0
  1
kN/m
 41
0.7
  7
BIGFONT
100
AcDbText
  0
LINE
  5
1202
330
1E
100
AcDbEntity
  8
2
  6
Continuous
 62
     7
370
    13
100
AcDbLine
 10
10335.946
 20
2939.570999999998
 30
0.0
 11
10335.946
 21
3089.570999999998
 31
0.0
  0
LINE
  5
1203
330
1E
100
AcDbEntity
  8
2
  6
Continuous
 62
     7
370
    13
100
AcDbLine
 10
10335.946
 20
1259.570999999998
 30
0.0
 11
10335.946
 21
1619.571
 31
0.0
  0
LINE
  5
1204
330
1E
100
AcDbEntity
  8
2
  6
Continuous
 62
     7
370
    13
100
AcDbLine
 10
10250.524
 20
2759.570999999998
 30
0.0
 11
10418.95999999999
 21
2759.570999999998
 31
0.0
  0
TEXT
  5
1205
330
1E
100
AcDbEntity
  8
2
  6
Continuous
 62
     7
370
    13
100
AcDbText
 10
10240.628
 20
2598.716999999998
 30
0.0
 40
75.99999999999996
  1
水平
  7
BIGFONT
100
AcDbText
  0
TEXT
  5
1206
330
1E
100
AcDbEntity
  8
2
  6
Continuous
 62
     7
370
    13
100
AcDbText
 10
10058.034
 20
2471.278999999996
 30
0.0
 40
75.99999999999996
  1
シルト，粘性土
  7
BIGFONT
100
AcDbText
  0
TEXT
  5
1207
330
1E
100
AcDbEntity
  8
2
  6
Continuous
 62
     7
370
    13
100
AcDbText
 10
10170.022
 20
2368.826999999998
 30
0.0
 40
64.0
  1
φ≧
  7
BIGFONT
100
AcDbText
  0
TEXT
  5
1208
330
1E
100
AcDbEntity
  8
2
  6
Continuous
 62
     7
370
    13
100
AcDbText
 10
10244.094
 20
2237.582999999998
 30
0.0
 40
64.0
  1
＝
  7
BIGFONT
100
AcDbText
  0
TEXT
  5
1209
330
1E
100
AcDbEntity
  8
2
  6
Continuous
 62
     7
370
    13
100
AcDbText
 10
10172.104
 20
2251.132999999997
 30
0.0
 40
64.0
  1
ｑ
  7
BIGFONT
100
AcDbText
  0
TEXT
  5
120A
330
1E
100
AcDbEntity
  8
2
  6
Continuous
 62
     7
370
    13
100
AcDbText
 10
10313.12999999999
 20
2369.512999999998
 30
0.0
 40
64.0
  1
25
  7
BIGFONT
100
AcDbText
  0
TEXT
  5
120B
330
1E
100
AcDbEntity
  8
2
  6
Continuous
 62
     7
370
    13
100
AcDbText
 10
10367.28799999997
 20
2244.116999999998
 30
0.0
 40
64.0
  1
10
  7
BIGFONT
100
AcDbText
  0
TEXT
  5
120C
330
1E
100
AcDbEntity
  8
2
  6
Continuous
 62
     7
370
    13
100
AcDbText
 10
10366.78999999999
 20
2000.212999999997
 30
0.0
 40
64.0
  1
0.20
  7
BIGFONT
100
AcDbText
  0
TEXT
  5
120D
330
1E
100
AcDbEntity
  8
2
  6
Continuous
 62
     7
370
    13
100
AcDbText
 10
10243.922
 20
2002.030999999996
 30
0.0
 40
64.0
  1
＝
  7
BIGFONT
100
AcDbText
  0
TEXT
  5
120E
330
1E
100
AcDbEntity
  8
2
  6
Continuous
 62
     7
370
    13
100
AcDbText
 10
10133.002
 20
2001.348999999997
 30
0.0
 40
64.0
  1
Ｋ
  7
BIGFONT
100
AcDbText
  0
TEXT
  5
120F
330
1E
100
AcDbEntity
  8
2
  6
Continuous
 62
     7
370
    13
100
AcDbText
 10
10186.408
 20
2003.662999999996
 30
0.0
 40
40.0
  1
Ｈ
  7
BIGFONT
100
AcDbText
  0
TEXT
  5
1210
330
1E
100
AcDbEntity
  8
2
  6
Continuous
 62
     7
370
    13
100
AcDbText
 10
10050.36199999999
 20
2118.532999999997
 30
0.0
 40
72.0
  1
クーロン土圧式
  7
BIGFONT
100
AcDbText
  0
TEXT
  5
1211
330
1E
100
AcDbEntity
  8
2
  6
Continuous
 62
     7
370
    13
100
AcDbText
 10
10257.172
 20
1873.908999999996
 30
0.0
 40
64.0
  1
18
  7
BIGFONT
100
AcDbText
  0
TEXT
  5
1212
330
1E
100
AcDbEntity
  8
2
  6
Continuous
 62
     7
370
    13
100
AcDbText
 10
10256.98
 20
1763.423
 30
0.0
 40
64.0
  1
24
  7
BIGFONT
100
AcDbText
  0
TEXT
  5
1213
330
1E
100
AcDbEntity
  8
2
  6
Continuous
 62
     7
370
    13
100
AcDbText
 10
10457.64199999999
 20
1519.693
 30
0.0
 40
64.0
  1
20.0
  7
BIGFONT
100
AcDbText
  0
TEXT
  5
1214
330
1E
100
AcDbEntity
  8
2
  6
Continuous
 62
     7
370
    13
100
AcDbText
 10
10091.142
 20
1519.626999999998
 30
0.0
 40
64.0
  1
10.0
  7
BIGFONT
100
AcDbText
  0
TEXT
  5
1215
330
1E
100
AcDbEntity
  8
2
  6
Continuous
 62
     7
370
    13
100
AcDbText
 10
10134.38797298631
 20
1399.823
 30
0.0
 40
64.0
  1
0.8
  7
BIGFONT
100
AcDbText
  0
TEXT
  5
1216
330
1E
100
AcDbEntity
  8
2
  6
Continuous
 62
     7
370
    13
100
AcDbText
 10
10093.99758642031
 20
1279.876999999998
 30
0.0
 40
64.0
  1
200
  7
BIGFONT
100
AcDbText
  0
TEXT
  5
1217
330
1E
100
AcDbEntity
  8
2
  6
Continuous
 62
     7
370
    13
100
AcDbText
 10
10465.75339111779
 20
1279.517000000002
 30
0.0
 40
64.0
  1
295
  7
BIGFONT
100
AcDbText
  0
TEXT
  5
1218
330
1E
100
AcDbEntity
  8
2
  6
Continuous
 62
     7
370
    13
100
AcDbText
 10
10535.13461075337
 20
1399.743
 30
0.0
 40
64.0
  1
1.2
  7
BIGFONT
100
AcDbText
  0
TEXT
  5
1219
330
1E
100
AcDbEntity
  8
2
  6
Continuous
 62
     7
370
    13
100
AcDbText
 10
10241.162
 20
1640.123
 30
0.0
 40
64.0
  1
30.0
  7
BIGFONT
100
AcDbText
  0
TEXT
  5
121A
330
1E
100
AcDbEntity
  8
2
  6
Continuous
 62
     7
370
    13
100
AcDbText
 10
9923.660596413146
 20
2274.312999999996
 30
0.0
 40
23.99999999999998
  1
２
  7
BIGFONT
100
AcDbText
  0
TEXT
  5
121B
330
1E
100
AcDbEntity
  8
2
  6
Continuous
 62
     7
370
    13
100
AcDbText
 10
8619.294000000001
 20
2474.590999999997
 30
0.0
 40
75.99999999999996
  1
裏込め土の種類
  7
BIGFONT
100
AcDbText
  0
TEXT
  5
121C
330
1E
100
AcDbEntity
  8
2
  6
Continuous
 62
     7
370
    13
100
AcDbText
 10
8619.531999999999
 20
2353.704999999998
 30
0.0
 40
75.99999999999996
  1
裏込め土の内部摩擦角
  7
BIGFONT
100
AcDbText
  0
LINE
  5
121D
330
1E
100
AcDbEntity
  8
2
  6
Continuous
 62
     7
370
    13
100
AcDbLine
 10
5091.184000000001
 20
350.2030000000042
 30
0.0
 11
5091.184000000001
 21
1490.202999999998
 31
0.0
  0
LINE
  5
121E
330
1E
100
AcDbEntity
  8
2
  6
Continuous
 62
     7
370
    13
100
AcDbLine
 10
5091.184000000001
 20
1490.202999999998
 30
0.0
 11
5091.184000000001
 21
3089.570999999998
 31
0.0
  0
LINE
  5
121F
330
1E
100
AcDbEntity
  8
2
  6
Continuous
 62
     7
370
    13
100
AcDbLine
 10
2871.184000000001
 20
350.2030000000042
 30
0.0
 11
2871.184000000001
 21
1490.202999999998
 31
0.0
  0
LINE
  5
1220
330
1E
100
AcDbEntity
  8
2
  6
Continuous
 62
     7
370
    13
100
AcDbLine
 10
2871.184000000001
 20
1490.202999999998
 30
0.0
 11
2871.184000000001
 21
2689.570999999998
 31
0.0
  0
TEXT
  5
1221
330
1E
100
AcDbEntity
  8
2
  6
Continuous
 62
     7
370
    13
100
AcDbText
 10
3459.315999999999
 20
2353.722999999998
 30
0.0
 40
64.0
  1
190
  7
BIGFONT
100
AcDbText
  0
TEXT
  5
1222
330
1E
100
AcDbEntity
  8
2
  6
Continuous
 62
     7
370
    13
100
AcDbText
 10
3750.865807814264
 20
2113.986999999997
 30
0.0
 40
64.0
  1
13
  7
BIGFONT
100
AcDbText
  0
TEXT
  5
1223
330
1E
100
AcDbEntity
  8
2
  6
Continuous
 62
     7
370
    13
100
AcDbText
 10
3796.657999999999
 20
1753.726999999997
 30
0.0
 40
64.0
  1
8
  7
BIGFONT
100
AcDbText
  0
LINE
  5
1224
330
1E
100
AcDbEntity
  8
2
  6
Continuous
 62
     7
370
    13
100
AcDbLine
 10
3091.184
 20
1249.571
 30
0.0
 11
3091.184
 21
2689.570999999998
 31
0.0
  0
LINE
  5
1225
330
1E
100
AcDbEntity
  8
2
  6
Continuous
 62
     7
370
    13
100
AcDbLine
 10
3331.184000000001
 20
1249.571
 30
0.0
 11
3331.184000000001
 21
2889.570999999998
 31
0.0
  0
LINE
  5
1226
330
1E
100
AcDbEntity
  8
2
  6
Continuous
 62
     7
370
    13
100
AcDbLine
 10
3691.183999999998
 20
1249.571
 30
0.0
 11
3691.183999999999
 21
2889.570999999998
 31
0.0
  0
LINE
  5
1227
330
1E
100
AcDbEntity
  8
2
  6
Continuous
 62
     7
370
    13
100
AcDbLine
 10
3911.183999999997
 20
1249.571
 30
0.0
 11
3911.184
 21
2889.570999999998
 31
0.0
  0
LINE
  5
1228
330
1E
100
AcDbEntity
  8
2
  6
Continuous
 62
     7
370
    13
100
AcDbLine
 10
4351.183999999998
 20
1249.571
 30
0.0
 11
4351.183999999998
 21
2889.570999999998
 31
0.0
  0
LINE
  5
1229
330
1E
100
AcDbEntity
  8
2
  6
Continuous
 62
     7
370
    13
100
AcDbLine
 10
4791.184000000001
 20
1249.571
 30
0.0
 11
4791.184000000001
 21
2571.104999999996
 31
0.0
  0
TEXT
  5
122A
330
1E
100
AcDbEntity
  8
2
  6
Continuous
 62
     7
370
    13
100
AcDbText
 10
3132.368000000003
 20
1513.611
 30
0.0
 40
64.0
  1
D10
  7
BIGFONT
100
AcDbText
  0
TEXT
  5
122B
330
1E
100
AcDbEntity
  8
2
  6
Continuous
 62
     7
370
    13
100
AcDbText
 10
3746.62
 20
2593.986999999997
 30
0.0
 40
64.0
  1
13
  7
BIGFONT
100
AcDbText
  0
TEXT
  5
122C
330
1E
100
AcDbEntity
  8
2
  6
Continuous
 62
     7
370
    13
100
AcDbText
 10
4003.029999999998
 20
1513.871
 30
0.0
 40
64.0
  1
0.560
  7
BIGFONT
100
AcDbText
  0
TEXT
  5
122D
330
1E
100
AcDbEntity
  8
2
  6
Continuous
 62
     7
370
    13
100
AcDbText
 10
3458.658251132231
 20
1513.822999999998
 30
0.0
 40
64.0
  1
810
  7
BIGFONT
100
AcDbText
  0
TEXT
  5
122E
330
1E
100
AcDbEntity
  8
2
  6
Continuous
 62
     7
370
    13
100
AcDbText
 10
3132.368000000003
 20
2353.610999999998
 30
0.0
 40
64.0
  1
D10
  7
BIGFONT
100
AcDbText
  0
TEXT
  5
122F
330
1E
100
AcDbEntity
  8
2
  6
Continuous
 62
     7
370
    13
100
AcDbText
 10
3132.368000000003
 20
2473.610999999998
 30
0.0
 40
64.0
  1
D10
  7
BIGFONT
100
AcDbText
  0
TEXT
  5
1230
330
1E
100
AcDbEntity
  8
2
  6
Continuous
 62
     7
370
    13
100
AcDbText
 10
3132.368000000003
 20
2593.610999999998
 30
0.0
 40
64.0
  1
D10
  7
BIGFONT
100
AcDbText
  0
TEXT
  5
1231
330
1E
100
AcDbEntity
  8
2
  6
Continuous
 62
     7
370
    13
100
AcDbText
 10
3132.368000000003
 20
2113.610999999995
 30
0.0
 40
64.0
  1
D10
  7
BIGFONT
100
AcDbText
  0
TEXT
  5
1232
330
1E
100
AcDbEntity
  8
2
  6
Continuous
 62
     7
370
    13
100
AcDbText
 10
3132.368000000003
 20
1993.610999999997
 30
0.0
 40
64.0
  1
D10
  7
BIGFONT
100
AcDbText
  0
TEXT
  5
1233
330
1E
100
AcDbEntity
  8
2
  6
Continuous
 62
     7
370
    13
100
AcDbText
 10
3132.368000000003
 20
1873.610999999998
 30
0.0
 40
64.0
  1
D10
  7
BIGFONT
100
AcDbText
  0
TEXT
  5
1234
330
1E
100
AcDbEntity
  8
2
  6
Continuous
 62
     7
370
    13
100
AcDbText
 10
3132.368000000003
 20
1753.610999999998
 30
0.0
 40
64.0
  1
D10
  7
BIGFONT
100
AcDbText
  0
TEXT
  5
1235
330
1E
100
AcDbEntity
  8
2
  6
Continuous
 62
     7
370
    13
100
AcDbText
 10
4003.029999999998
 20
1753.871
 30
0.0
 40
64.0
  1
0.560
  7
BIGFONT
100
AcDbText
  0
TEXT
  5
1236
330
1E
100
AcDbEntity
  8
2
  6
Continuous
 62
     7
370
    13
100
AcDbText
 10
4003.029999999998
 20
1873.870999999997
 30
0.0
 40
64.0
  1
0.560
  7
BIGFONT
100
AcDbText
  0
TEXT
  5
1237
330
1E
100
AcDbEntity
  8
2
  6
Continuous
 62
     7
370
    13
100
AcDbText
 10
4003.029999999998
 20
1993.870999999998
 30
0.0
 40
64.0
  1
0.560
  7
BIGFONT
100
AcDbText
  0
TEXT
  5
1238
330
1E
100
AcDbEntity
  8
2
  6
Continuous
 62
     7
370
    13
100
AcDbText
 10
4003.029999999998
 20
2113.870999999998
 30
0.0
 40
64.0
  1
0.560
  7
BIGFONT
100
AcDbText
  0
TEXT
  5
1239
330
1E
100
AcDbEntity
  8
2
  6
Continuous
 62
     7
370
    13
100
AcDbText
 10
4003.029999999998
 20
2233.870999999999
 30
0.0
 40
64.0
  1
0.560
  7
BIGFONT
100
AcDbText
  0
TEXT
  5
123A
330
1E
100
AcDbEntity
  8
2
  6
Continuous
 62
     7
370
    13
100
AcDbText
 10
4003.029999999998
 20
2353.870999999997
 30
0.0
 40
64.0
  1
0.560
  7
BIGFONT
100
AcDbText
  0
TEXT
  5
123B
330
1E
100
AcDbEntity
  8
2
  6
Continuous
 62
     7
370
    13
100
AcDbText
 10
4003.029999999998
 20
2473.870999999998
 30
0.0
 40
64.0
  1
0.560
  7
BIGFONT
100
AcDbText
  0
TEXT
  5
123C
330
1E
100
AcDbEntity
  8
2
  6
Continuous
 62
     7
370
    13
100
AcDbText
 10
4003.029999999998
 20
2593.870999999998
 30
0.0
 40
64.0
  1
0.560
  7
BIGFONT
100
AcDbText
  0
TEXT
  5
123D
330
1E
100
AcDbEntity
  8
2
  6
Continuous
 62
     7
370
    13
100
AcDbText
 10
10239.002
 20
2848.086999999998
 30
0.0
 40
64.0
  1
1.25
  7
BIGFONT
100
AcDbText
  0
TEXT
  5
123E
330
1E
100
AcDbEntity
  8
2
  6
Continuous
 62
     7
370
    13
100
AcDbText
 10
4664.761999999998
 20
669.4110000000025
 30
0.0
 40
64.0
  1
1170
  7
BIGFONT
100
AcDbText
  0
TEXT
  5
123F
330
1E
100
AcDbEntity
  8
2
  6
Continuous
 62
     7
370
    13
100
AcDbText
 10
4290.425999999999
 20
806.0350000000005
 30
0.0
 40
64.0
  1
37.60
  7
BIGFONT
100
AcDbText
  0
TEXT
  5
1240
330
1E
100
AcDbEntity
  8
2
  6
Continuous
 62
     7
370
    13
100
AcDbText
 10
4289.814
 20
668.9270000000005
 30
0.0
 40
64.0
  1
0.487
  7
BIGFONT
100
AcDbText
  0
TEXT
  5
1241
330
1E
100
AcDbEntity
  8
2
  6
Continuous
 62
     7
370
    13
100
AcDbText
 10
3409.485999999997
 20
2593.518999999998
 30
0.0
 40
64.0
  1
1260
  7
BIGFONT
100
AcDbText
  0
TEXT
  5
1242
330
1E
100
AcDbEntity
  8
2
  6
Continuous
 62
     7
370
    13
100
AcDbText
 10
3459.513999999999
 20
2473.474999999998
 30
0.0
 40
64.0
  1
880
  7
BIGFONT
100
AcDbText
  0
TEXT
  5
1243
330
1E
100
AcDbEntity
  8
2
  6
Continuous
 62
     7
370
    13
100
AcDbText
 10
3459.449999999998
 20
2233.802999999999
 30
0.0
 40
64.0
  1
810
  7
BIGFONT
100
AcDbText
  0
TEXT
  5
1244
330
1E
100
AcDbEntity
  8
2
  6
Continuous
 62
     7
370
    13
100
AcDbText
 10
3459.33
 20
2114.028999999997
 30
0.0
 40
64.0
  1
910
  7
BIGFONT
100
AcDbText
  0
TEXT
  5
1245
330
1E
100
AcDbEntity
  8
2
  6
Continuous
 62
     7
370
    13
100
AcDbText
 10
3459.449999999998
 20
1993.806999999998
 30
0.0
 40
64.0
  1
400
  7
BIGFONT
100
AcDbText
  0
TEXT
  5
1246
330
1E
100
AcDbEntity
  8
2
  6
Continuous
 62
     7
370
    13
100
AcDbText
 10
3459.663999999999
 20
1873.948999999998
 30
0.0
 40
64.0
  1
300
  7
BIGFONT
100
AcDbText
  0
TEXT
  5
1247
330
1E
100
AcDbEntity
  8
2
  6
Continuous
 62
     7
370
    13
100
AcDbText
 10
3459.261999999999
 20
1753.978999999998
 30
0.0
 40
64.0
  1
440
  7
BIGFONT
100
AcDbText
  0
TEXT
  5
1248
330
1E
100
AcDbEntity
  8
2
  6
Continuous
 62
     7
370
    13
100
AcDbText
 10
3800.212912540443
 20
1513.668999999998
 30
0.0
 40
64.0
  1
2
  7
BIGFONT
100
AcDbText
  0
TEXT
  5
1249
330
1E
100
AcDbEntity
  8
2
  6
Continuous
 62
     7
370
    13
100
AcDbText
 10
4494.485999999999
 20
2593.696999999998
 30
0.0
 40
64.0
  1
9.17
  7
BIGFONT
100
AcDbText
  0
TEXT
  5
124A
330
1E
100
AcDbEntity
  8
2
  6
Continuous
 62
     7
370
    13
100
AcDbText
 10
4495.144
 20
2473.650999999997
 30
0.0
 40
64.0
  1
0.99
  7
BIGFONT
100
AcDbText
  0
TEXT
  5
124B
330
1E
100
AcDbEntity
  8
2
  6
Continuous
 62
     7
370
    13
100
AcDbText
 10
4494.359999999999
 20
2353.672999999998
 30
0.0
 40
64.0
  1
0.21
  7
BIGFONT
100
AcDbText
  0
TEXT
  5
124C
330
1E
100
AcDbEntity
  8
2
  6
Continuous
 62
     7
370
    13
100
AcDbText
 10
4494.202000000001
 20
2233.862999999998
 30
0.0
 40
64.0
  1
3.63
  7
BIGFONT
100
AcDbText
  0
TEXT
  5
124D
330
1E
100
AcDbEntity
  8
2
  6
Continuous
 62
     7
370
    13
100
AcDbText
 10
4494.569999999999
 20
2113.632999999997
 30
0.0
 40
64.0
  1
6.62
  7
BIGFONT
100
AcDbText
  0
TEXT
  5
124E
330
1E
100
AcDbEntity
  8
2
  6
Continuous
 62
     7
370
    13
100
AcDbText
 10
4494.928
 20
1993.544999999998
 30
0.0
 40
64.0
  1
0.45
  7
BIGFONT
100
AcDbText
  0
TEXT
  5
124F
330
1E
100
AcDbEntity
  8
2
  6
Continuous
 62
     7
370
    13
100
AcDbText
 10
4494.833999999999
 20
1873.968999999998
 30
0.0
 40
64.0
  1
0.34
  7
BIGFONT
100
AcDbText
  0
TEXT
  5
1250
330
1E
100
AcDbEntity
  8
2
  6
Continuous
 62
     7
370
    13
100
AcDbText
 10
4495.178
 20
1753.436999999997
 30
0.0
 40
64.0
  1
1.97
  7
BIGFONT
100
AcDbText
  0
TEXT
  5
1251
330
1E
100
AcDbEntity
  8
2
  6
Continuous
 62
     7
370
    13
100
AcDbText
 10
4494.432003830288
 20
1511.430026662427
 30
0.0
 40
64.0
  1
0.91
  7
BIGFONT
100
AcDbText
  0
LINE
  5
1252
330
1E
100
AcDbEntity
  8
2
  6
Continuous
 62
     7
370
    13
100
AcDbLine
 10
4881.083999999999
 20
2149.516999999997
 30
0.0
 11
5005.446
 21
2140.818999999997
 31
0.0
  0
LINE
  5
1253
330
1E
100
AcDbEntity
  8
2
  6
Continuous
 62
     7
370
    13
100
AcDbLine
 10
4933.315999999999
 20
1909.570999999997
 30
0.0
 11
4961.316
 21
1909.570999999997
 31
0.0
  0
LINE
  5
1254
330
1E
100
AcDbEntity
  8
2
  6
Continuous
 62
     7
370
    13
100
AcDbLine
 10
4923.145999999997
 20
1909.570999999997
 30
0.0
 11
4961.316
 21
1909.570999999997
 31
0.0
  0
LINE
  5
1255
330
1E
100
AcDbEntity
  8
2
  6
Continuous
 62
     7
370
    13
100
AcDbLine
 10
4934.964
 20
2596.414999999999
 30
0.0
 11
4949.729999999999
 21
2596.414999999999
 31
0.0
  0
LINE
  5
1256
330
1E
100
AcDbEntity
  8
2
  6
Continuous
 62
     7
370
    13
100
AcDbLine
 10
4932.540000000001
 20
2665.840999999999
 30
0.0
 11
4934.964
 21
2596.414999999999
 31
0.0
  0
TEXT
  5
1257
330
1E
100
AcDbEntity
  8
2
  6
Continuous
 62
     7
370
    13
100
AcDbText
 10
4386.605999999999
 20
525.4430000000001
 30
0.0
 40
64.0
  1
2
  7
BIGFONT
100
AcDbText
  0
TEXT
  5
1258
330
1E
100
AcDbEntity
  8
2
  6
Continuous
 62
     7
370
    13
100
AcDbText
 10
4386.416000000001
 20
387.1590000000003
 30
0.0
 40
64.0
  1
4
  7
BIGFONT
100
AcDbText
  0
TEXT
  5
1259
330
1E
100
AcDbEntity
  8
1
  6
Continuous
 62
     7
370
    13
100
AcDbText
 10
6425.126999999996
 20
2662.472428847358
 30
0.0
 40
90.0
  1
鉄筋加工図
  7
BIGFONT
100
AcDbText
  0
LINE
  5
125A
330
1E
100
AcDbEntity
  8
1
  6
Continuous
 62
     7
370
    13
100
AcDbLine
 10
6397.413000000001
 20
2633.434828847358
 30
0.0
 11
7552.628000000002
 21
2633.434828847358
 31
0.0
  0
TEXT
  5
125B
330
1E
100
AcDbEntity
  8
1
  6
Continuous
 62
     7
370
    13
100
AcDbText
 10
7090.733471170875
 20
2662.198428847358
 30
0.0
 40
64.0
  1
Ｓ＝１：４０
  7
BIGFONT
100
AcDbText
  0
CIRCLE
  5
125C
330
1E
100
AcDbEntity
  8
1
  6
Continuous
 62
     7
370
    13
100
AcDbCircle
 10
6608.382999999998
 20
2350.613428847357
 30
0.0
 40
55.0
  0
TEXT
  5
125D
330
1E
100
AcDbEntity
  8
1
  6
Continuous
 62
     7
370
    13
100
AcDbText
 10
6558.507000000002
 20
2312.945828847354
 30
0.0
 40
72.0
  1
Ｓ
  7
BIGFONT
100
AcDbText
  0
TEXT
  5
125E
330
1E
100
AcDbEntity
  8
1
  6
Continuous
 62
     7
370
    13
100
AcDbText
 10
6614.706399999999
 20
2319.066428847357
 30
0.0
 40
40.0
  1
２
  7
BIGFONT
100
AcDbText
  0
LINE
  5
125F
330
1E
100
AcDbEntity
  8
1
  6
Continuous
 62
     7
370
    13
100
AcDbLine
 10
5546.473999999999
 20
458.0578288473595
 30
0.0
 11
5551.324400000002
 21
482.4684288473593
 31
0.0
  0
LINE
  5
1260
330
1E
100
AcDbEntity
  8
1
  6
Continuous
 62
     7
370
    13
100
AcDbLine
 10
5551.324400000002
 20
482.4684288473593
 30
0.0
 11
5560.189399999999
 21
458.3108288473574
 31
0.0
  0
LINE
  5
1261
330
1E
100
AcDbEntity
  8
1
  6
Continuous
 62
     7
370
    13
100
AcDbLine
 10
5697.955999999998
 20
310.5838288473613
 30
0.0
 11
5722.611
 21
299.6268288473594
 31
0.0
  0
LINE
  5
1262
330
1E
100
AcDbEntity
  8
1
  6
Continuous
 62
     7
370
    13
100
AcDbLine
 10
5698.1584
 20
296.4638288473595
 30
0.0
 11
5722.611
 21
299.6268288473594
 31
0.0
  0
LINE
  5
1263
330
1E
100
AcDbEntity
  8
1
  6
Continuous
 62
     7
370
    13
100
AcDbLine
 10
5537.2114
 20
522.4684288473595
 30
0.0
 11
5702.363000000001
 21
522.4684288473595
 31
0.0
  0
LINE
  5
1264
330
1E
100
AcDbEntity
  8
1
  6
Continuous
 62
     7
370
    13
100
AcDbLine
 10
5536.523399999999
 20
482.4684288473593
 30
0.0
 11
5734.625400000001
 21
482.4684288473593
 31
0.0
  0
LINE
  5
1265
330
1E
100
AcDbEntity
  8
1
  6
Continuous
 62
     7
370
    13
100
AcDbLine
 10
5545.483400000001
 20
482.4684288473593
 30
0.0
 11
5557.505000000001
 21
482.4684288473593
 31
0.0
  0
ARC
  5
1266
330
1E
100
AcDbEntity
  8
1
  6
Continuous
 62
     7
370
    13
100
AcDbCircle
 10
5734.625400000001
 20
482.4684288473593
 30
0.0
 40
183.2359999999999
100
AcDbArc
 50
180.0
 51
266.2406600000094
  0
LINE
  5
1267
330
1E
100
AcDbEntity
  8
1
  6
Continuous
 62
     7
370
    13
100
AcDbLine
 10
5551.324400000002
 20
482.4684288473593
 30
0.0
 11
5551.324400000002
 21
522.4684288473595
 31
0.0
  0
LINE
  5
1268
330
1E
100
AcDbEntity
  8
1
  6
Continuous
 62
     7
370
    13
100
AcDbLine
 10
5551.383399999998
 20
576.9898288473576
 30
0.0
 11
5551.324400000002
 21
522.4684288473595
 31
0.0
  0
LINE
  5
1269
330
1E
100
AcDbEntity
  8
1
  6
Continuous
 62
     7
370
    13
100
AcDbLine
 10
5544.383399999999
 20
548.4924288473576
 30
0.0
 11
5551.322
 21
522.484828847357
 31
0.0
  0
LINE
  5
126A
330
1E
100
AcDbEntity
  8
1
  6
Continuous
 62
     7
370
    13
100
AcDbLine
 10
5551.322
 20
522.484828847357
 30
0.0
 11
5558.316799999997
 21
548.4774288473615
 31
0.0
  0
ARC
  5
126B
330
1E
100
AcDbEntity
  8
1
  6
Continuous
 62
     7
370
    13
100
AcDbCircle
 10
5708.451000000001
 20
479.0044288473573
 30
0.0
 40
236.0739999999998
100
AcDbArc
 50
1.274415699999208
 51
20.94441699997325
  0
ARC
  5
126C
330
1E
100
AcDbEntity
  8
1
  6
Continuous
 62
     7
370
    13
100
AcDbCircle
 10
5769.328399999999
 20
486.6608288473589
 30
0.0
 40
236.0739999999998
100
AcDbArc
 50
66.21623199995902
 51
90.91102099999854
  0
LINE
  5
126D
330
1E
100
AcDbEntity
  8
1
  6
Continuous
 62
     7
370
    13
100
AcDbLine
 10
5944.466400000001
 20
484.2548288473572
 30
0.0
 11
5949.8704
 21
508.0434288473595
 31
0.0
  0
LINE
  5
126E
330
1E
100
AcDbEntity
  8
1
  6
Continuous
 62
     7
370
    13
100
AcDbLine
 10
5937.862400000001
 20
507.1464288473594
 30
0.0
 11
5944.466400000001
 21
484.2548288473572
 31
0.0
  0
LINE
  5
126F
330
1E
100
AcDbEntity
  8
1
  6
Continuous
 62
     7
370
    13
100
AcDbLine
 10
5765.575000000001
 20
722.7054288473611
 30
0.0
 11
5788.249400000001
 21
728.9608288473571
 31
0.0
  0
LINE
  5
1270
330
1E
100
AcDbEntity
  8
1
  6
Continuous
 62
     7
370
    13
100
AcDbLine
 10
5765.575000000001
 20
722.7054288473611
 30
0.0
 11
5788.672999999999
 21
716.5678288473591
 31
0.0
  0
LINE
  5
1271
330
1E
100
AcDbEntity
  8
1
  6
Continuous
 62
     7
370
    13
100
AcDbLine
 10
5731.714
 20
442.5314288473594
 30
0.0
 11
5734.625400000001
 21
482.4684288473593
 31
0.0
  0
LINE
  5
1272
330
1E
100
AcDbEntity
  8
1
  6
Continuous
 62
     7
370
    13
100
AcDbLine
 10
7551.247
 20
899.592428847359
 30
0.0
 11
8304.5664
 21
899.592428847359
 31
0.0
  0
LINE
  5
1273
330
1E
100
AcDbEntity
  8
1
  6
Continuous
 62
     1
370
    25
100
AcDbLine
 10
6928.865399999999
 20
1628.900428847358
 30
0.0
 11
6969.3654
 21
1628.900428847358
 31
0.0
  0
ARC
  5
1274
330
1E
100
AcDbEntity
  8
1
  6
Continuous
 62
     1
370
    25
100
AcDbCircle
 10
6928.865399999999
 20
1643.900428847356
 30
0.0
 40
15.0
100
AcDbArc
 50
180.0
 51
270.0
  0
ARC
  5
1275
330
1E
100
AcDbEntity
  8
1
  6
Continuous
 62
     7
370
    13
100
AcDbCircle
 10
6929.396000000001
 20
1644.028428847356
 30
0.0
 40
177.3153999999999
100
AcDbArc
 50
180.0744800000001
 51
270.0
  0
TEXT
  5
1276
330
1E
100
AcDbEntity
  8
1
  6
Continuous
 62
     7
370
    13
100
AcDbText
 10
7024.105399999996
 20
1695.149428847357
 30
0.0
 40
40.0
  1
Ｒ
  7
BIGFONT
100
AcDbText
  0
TEXT
  5
1277
330
1E
100
AcDbEntity
  8
1
  6
Continuous
 62
     7
370
    13
100
AcDbText
 10
6922.159400000001
 20
1655.510428847356
 30
0.0
 40
64.0
  1
30
  7
BIGFONT
100
AcDbText
  0
LINE
  5
1278
330
1E
100
AcDbEntity
  8
1
  6
Continuous
 62
     7
370
    13
100
AcDbLine
 10
6752.224399999999
 20
1636.879828847357
 30
0.0
 11
6762.401000000001
 21
1612.605828847357
 31
0.0
  0
LINE
  5
1279
330
1E
100
AcDbEntity
  8
1
  6
Continuous
 62
     7
370
    13
100
AcDbLine
 10
6748.117999999998
 20
1610.798828847355
 30
0.0
 11
6752.224399999999
 21
1636.879828847357
 31
0.0
  0
LINE
  5
127A
330
1E
100
AcDbEntity
  8
1
  6
Continuous
 62
     7
370
    13
100
AcDbLine
 10
6904.271400000002
 20
1477.790428847356
 30
0.0
 11
6929.396000000001
 21
1466.712828847356
 31
0.0
  0
LINE
  5
127B
330
1E
100
AcDbEntity
  8
1
  6
Continuous
 62
     7
370
    13
100
AcDbLine
 10
6903.144000000001
 20
1462.555828847355
 30
0.0
 11
6929.396000000001
 21
1466.712828847356
 31
0.0
  0
LINE
  5
127C
330
1E
100
AcDbEntity
  8
1
  6
Continuous
 62
     7
370
    13
100
AcDbLine
 10
6929.367999999998
 20
1613.427828847357
 30
0.0
 11
6929.367999999998
 21
1643.798828847356
 31
0.0
  0
LINE
  5
127D
330
1E
100
AcDbEntity
  8
1
  6
Continuous
 62
     1
370
    25
100
AcDbLine
 10
7832.598399999999
 20
583.9818288473593
 30
0.0
 11
7832.598399999999
 21
623.9818288473591
 31
0.0
  0
LINE
  5
127E
330
1E
100
AcDbEntity
  8
1
  6
Continuous
 62
     1
370
    25
100
AcDbLine
 10
7930.178999999997
 20
486.4014288473611
 30
0.0
 11
7970.179
 21
486.4014288473611
 31
0.0
  0
LINE
  5
127F
330
1E
100
AcDbEntity
  8
1
  6
Continuous
 62
     7
370
    13
100
AcDbLine
 10
7661.187399999999
 20
583.9818288473593
 30
0.0
 11
7661.187399999999
 21
623.9818288473591
 31
0.0
  0
LINE
  5
1280
330
1E
100
AcDbEntity
  8
1
  6
Continuous
 62
     7
370
    13
100
AcDbLine
 10
7812.598399999998
 20
623.9818288473591
 30
0.0
 11
7641.187399999996
 21
623.9818288473591
 31
0.0
  0
LINE
  5
1281
330
1E
100
AcDbEntity
  8
1
  6
Continuous
 62
     7
370
    13
100
AcDbLine
 10
7812.598399999998
 20
583.9818288473593
 30
0.0
 11
7641.187399999996
 21
583.9818288473593
 31
0.0
  0
LINE
  5
1282
330
1E
100
AcDbEntity
  8
1
  6
Continuous
 62
     7
370
    13
100
AcDbLine
 10
7661.187399999999
 20
675.9818288473574
 30
0.0
 11
7661.187399999999
 21
623.9818288473591
 31
0.0
  0
LINE
  5
1283
330
1E
100
AcDbEntity
  8
1
  6
Continuous
 62
     7
370
    13
100
AcDbLine
 10
7654.215199999999
 20
649.9848288473572
 30
0.0
 11
7661.181999999996
 21
623.9848288473574
 31
0.0
  0
LINE
  5
1284
330
1E
100
AcDbEntity
  8
1
  6
Continuous
 62
     7
370
    13
100
AcDbLine
 10
7661.181999999996
 20
623.9848288473574
 30
0.0
 11
7668.148599999996
 21
649.9848288473572
 31
0.0
  0
LINE
  5
1285
330
1E
100
AcDbEntity
  8
1
  6
Continuous
 62
     7
370
    13
100
AcDbLine
 10
7661.187399999999
 20
583.9818288473593
 30
0.0
 11
7661.187399999999
 21
531.9818288473593
 31
0.0
  0
LINE
  5
1286
330
1E
100
AcDbEntity
  8
1
  6
Continuous
 62
     7
370
    13
100
AcDbLine
 10
7668.148599999996
 20
557.9848288473574
 30
0.0
 11
7661.181999999996
 21
583.9848288473574
 31
0.0
  0
LINE
  5
1287
330
1E
100
AcDbEntity
  8
1
  6
Continuous
 62
     7
370
    13
100
AcDbLine
 10
7661.181999999996
 20
583.9848288473574
 30
0.0
 11
7654.215199999999
 21
557.9848288473574
 31
0.0
  0
TEXT
  5
1288
330
1E
100
AcDbEntity
  8
1
  6
Continuous
 62
     7
370
    13
100
AcDbText
 10
7649.187399999999
 20
547.9818288473575
 30
0.0
 40
64.0
  1
80
 50
90.0
 41
0.875
  7
BIGFONT
100
AcDbText
  0
LINE
  5
1289
330
1E
100
AcDbEntity
  8
1
  6
Continuous
 62
     7
370
    13
100
AcDbLine
 10
7929.993399999999
 20
369.4598288473593
 30
0.0
 11
7969.993399999996
 21
369.4598288473593
 31
0.0
  0
LINE
  5
128A
330
1E
100
AcDbEntity
  8
1
  6
Continuous
 62
     7
370
    13
100
AcDbLine
 10
7969.993399999996
 20
468.4364288473608
 30
0.0
 11
7969.993399999996
 21
349.4598288473592
 31
0.0
  0
LINE
  5
128B
330
1E
100
AcDbEntity
  8
1
  6
Continuous
 62
     7
370
    13
100
AcDbLine
 10
7929.993399999999
 20
468.4364288473608
 30
0.0
 11
7929.993399999999
 21
349.4598288473592
 31
0.0
  0
LINE
  5
128C
330
1E
100
AcDbEntity
  8
1
  6
Continuous
 62
     7
370
    13
100
AcDbLine
 10
8021.993399999995
 20
369.4598288473593
 30
0.0
 11
7969.993399999996
 21
369.4598288473593
 31
0.0
  0
LINE
  5
128D
330
1E
100
AcDbEntity
  8
1
  6
Continuous
 62
     7
370
    13
100
AcDbLine
 10
7995.981999999997
 20
376.431628847357
 30
0.0
 11
7969.982
 21
369.4648288473574
 31
0.0
  0
LINE
  5
128E
330
1E
100
AcDbEntity
  8
1
  6
Continuous
 62
     7
370
    13
100
AcDbLine
 10
7969.982
 20
369.4648288473574
 30
0.0
 11
7995.981999999997
 21
362.4982288473573
 31
0.0
  0
LINE
  5
128F
330
1E
100
AcDbEntity
  8
1
  6
Continuous
 62
     7
370
    13
100
AcDbLine
 10
7929.993399999999
 20
369.4598288473593
 30
0.0
 11
7877.993399999995
 21
369.4598288473593
 31
0.0
  0
LINE
  5
1290
330
1E
100
AcDbEntity
  8
1
  6
Continuous
 62
     7
370
    13
100
AcDbLine
 10
7903.982
 20
362.4982288473573
 30
0.0
 11
7929.981999999999
 21
369.4648288473574
 31
0.0
  0
LINE
  5
1291
330
1E
100
AcDbEntity
  8
1
  6
Continuous
 62
     7
370
    13
100
AcDbLine
 10
7929.981999999999
 20
369.4648288473574
 30
0.0
 11
7903.982
 21
376.431628847357
 31
0.0
  0
TEXT
  5
1292
330
1E
100
AcDbEntity
  8
1
  6
Continuous
 62
     7
370
    13
100
AcDbText
 10
7893.993399999999
 20
293.4598288473574
 30
0.0
 40
64.0
  1
80
 41
0.875
  7
BIGFONT
100
AcDbText
  0
LINE
  5
1293
330
1E
100
AcDbEntity
  8
1
  6
Continuous
 62
     1
370
    25
100
AcDbLine
 10
5719.625400000001
 20
482.4684288473593
 30
0.0
 11
5719.625400000001
 21
523.3948288473609
 31
0.0
  0
ARC
  5
1294
330
1E
100
AcDbEntity
  8
1
  6
Continuous
 62
     1
370
    25
100
AcDbCircle
 10
5734.625400000001
 20
482.4684288473593
 30
0.0
 40
15.0
100
AcDbArc
 50
180.0
 51
266.3496800000309
  0
TEXT
  5
1295
330
1E
100
AcDbEntity
  8
1
  6
Continuous
 62
     7
370
    13
100
AcDbText
 10
5542.5344
 20
445.5114288473575
 30
0.0
 40
64.0
  1
80
 50
90.0
  7
BIGFONT
100
AcDbText
  0
ARC
  5
1296
330
1E
100
AcDbEntity
  8
1
  6
Continuous
 62
     7
370
    13
100
AcDbCircle
 10
5734.625400000001
 20
482.4684288473593
 30
0.0
 40
183.2359999999999
100
AcDbArc
 50
180.0
 51
266.5486400000482
  0
TEXT
  5
1297
330
1E
100
AcDbEntity
  8
1
  6
Continuous
 62
     7
370
    13
100
AcDbText
 10
5563.441999999999
 20
417.1108288473595
 30
0.0
 40
64.0
  1
45
 50
312.0
  7
BIGFONT
100
AcDbText
  0
TEXT
  5
1298
330
1E
100
AcDbEntity
  8
1
  6
Continuous
 62
     7
370
    13
100
AcDbText
 10
5829.363000000001
 20
533.8188288473595
 30
0.0
 40
40.0
  1
Ｒ
  7
BIGFONT
100
AcDbText
  0
TEXT
  5
1299
330
1E
100
AcDbEntity
  8
1
  6
Continuous
 62
     7
370
    13
100
AcDbText
 10
5727.416999999998
 20
494.1798288473615
 30
0.0
 40
64.0
  1
30
  7
BIGFONT
100
AcDbText
  0
LINE
  5
129A
330
1E
100
AcDbEntity
  8
1
  6
Continuous
 62
     7
370
    13
100
AcDbLine
 10
6683.9264
 20
439.6044288473574
 30
0.0
 11
6688.776999999999
 21
464.0148288473572
 31
0.0
  0
LINE
  5
129B
330
1E
100
AcDbEntity
  8
1
  6
Continuous
 62
     7
370
    13
100
AcDbLine
 10
6688.776999999999
 20
464.0148288473572
 30
0.0
 11
6697.642
 21
439.8574288473592
 31
0.0
  0
LINE
  5
129C
330
1E
100
AcDbEntity
  8
1
  6
Continuous
 62
     7
370
    13
100
AcDbLine
 10
6835.4084
 20
292.1304288473594
 30
0.0
 11
6860.0634
 21
281.1734288473575
 31
0.0
  0
LINE
  5
129D
330
1E
100
AcDbEntity
  8
1
  6
Continuous
 62
     7
370
    13
100
AcDbLine
 10
6835.611000000001
 20
278.0104288473574
 30
0.0
 11
6860.0634
 21
281.1734288473575
 31
0.0
  0
LINE
  5
129E
330
1E
100
AcDbEntity
  8
1
  6
Continuous
 62
     7
370
    13
100
AcDbLine
 10
6674.664000000001
 20
504.0148288473573
 30
0.0
 11
6839.815399999999
 21
504.0148288473573
 31
0.0
  0
LINE
  5
129F
330
1E
100
AcDbEntity
  8
1
  6
Continuous
 62
     7
370
    13
100
AcDbLine
 10
6673.975999999999
 20
464.0148288473572
 30
0.0
 11
6872.077999999998
 21
464.0148288473572
 31
0.0
  0
LINE
  5
12A0
330
1E
100
AcDbEntity
  8
1
  6
Continuous
 62
     7
370
    13
100
AcDbLine
 10
6682.935999999997
 20
464.0148288473572
 30
0.0
 11
6694.957399999996
 21
464.0148288473572
 31
0.0
  0
ARC
  5
12A1
330
1E
100
AcDbEntity
  8
1
  6
Continuous
 62
     7
370
    13
100
AcDbCircle
 10
6872.077999999998
 20
464.0148288473572
 30
0.0
 40
183.2359999999999
100
AcDbArc
 50
180.0
 51
266.2406600000094
  0
LINE
  5
12A2
330
1E
100
AcDbEntity
  8
1
  6
Continuous
 62
     7
370
    13
100
AcDbLine
 10
6688.776999999999
 20
464.0148288473572
 30
0.0
 11
6688.776999999999
 21
504.0148288473573
 31
0.0
  0
LINE
  5
12A3
330
1E
100
AcDbEntity
  8
1
  6
Continuous
 62
     7
370
    13
100
AcDbLine
 10
6688.835999999999
 20
558.5364288473595
 30
0.0
 11
6688.776999999999
 21
504.0148288473573
 31
0.0
  0
LINE
  5
12A4
330
1E
100
AcDbEntity
  8
1
  6
Continuous
 62
     7
370
    13
100
AcDbLine
 10
6681.823399999998
 20
530.0324288473575
 30
0.0
 11
6688.761999999998
 21
504.0248288473574
 31
0.0
  0
LINE
  5
12A5
330
1E
100
AcDbEntity
  8
1
  6
Continuous
 62
     7
370
    13
100
AcDbLine
 10
6688.761999999998
 20
504.0248288473574
 30
0.0
 11
6695.756799999999
 21
530.0174288473613
 31
0.0
  0
LINE
  5
12A6
330
1E
100
AcDbEntity
  8
1
  6
Continuous
 62
     7
370
    13
100
AcDbLine
 10
6869.166399999999
 20
424.0778288473573
 30
0.0
 11
6872.077999999998
 21
464.0148288473572
 31
0.0
  0
TEXT
  5
12A7
330
1E
100
AcDbEntity
  8
1
  6
Continuous
 62
     7
370
    13
100
AcDbText
 10
7584.566399999999
 20
918.0088288473591
 30
0.0
 40
72.0
  1
Ｓ
  7
BIGFONT
100
AcDbText
  0
CIRCLE
  5
12A8
330
1E
100
AcDbEntity
  8
1
  6
Continuous
 62
     7
370
    13
100
AcDbCircle
 10
7632.618399999995
 20
954.3688288473573
 30
0.0
 40
55.0
  0
LINE
  5
12A9
330
1E
100
AcDbEntity
  8
1
  6
Continuous
 62
     1
370
    25
100
AcDbLine
 10
6857.077999999998
 20
464.0148288473572
 30
0.0
 11
6857.077999999998
 21
504.9414288473592
 31
0.0
  0
ARC
  5
12AA
330
1E
100
AcDbEntity
  8
1
  6
Continuous
 62
     1
370
    25
100
AcDbCircle
 10
6872.077999999998
 20
464.0148288473572
 30
0.0
 40
15.0
100
AcDbArc
 50
180.0
 51
266.3496800000309
  0
TEXT
  5
12AB
330
1E
100
AcDbEntity
  8
1
  6
Continuous
 62
     7
370
    13
100
AcDbText
 10
6679.987000000001
 20
427.0578288473575
 30
0.0
 40
64.0
  1
80
 50
90.0
  7
BIGFONT
100
AcDbText
  0
ARC
  5
12AC
330
1E
100
AcDbEntity
  8
1
  6
Continuous
 62
     7
370
    13
100
AcDbCircle
 10
6872.077999999998
 20
464.0148288473572
 30
0.0
 40
183.2359999999999
100
AcDbArc
 50
180.0
 51
266.5486400000482
  0
TEXT
  5
12AD
330
1E
100
AcDbEntity
  8
1
  6
Continuous
 62
     7
370
    13
100
AcDbText
 10
6700.894400000001
 20
398.6574288473575
 30
0.0
 40
64.0
  1
45
 50
312.0
  7
BIGFONT
100
AcDbText
  0
TEXT
  5
12AE
330
1E
100
AcDbEntity
  8
1
  6
Continuous
 62
     7
370
    13
100
AcDbText
 10
6966.8154
 20
515.3654288473574
 30
0.0
 40
40.0
  1
Ｒ
  7
BIGFONT
100
AcDbText
  0
TEXT
  5
12AF
330
1E
100
AcDbEntity
  8
1
  6
Continuous
 62
     7
370
    13
100
AcDbText
 10
6864.869399999999
 20
475.7264288473595
 30
0.0
 40
64.0
  1
30
  7
BIGFONT
100
AcDbText
  0
TEXT
  5
12B0
330
1E
100
AcDbEntity
  8
1
  6
Continuous
 62
     7
370
    13
100
AcDbText
 10
5493.665400000002
 20
919.5958288473571
 30
0.0
 40
72.0
  1
Ｓ
  7
BIGFONT
100
AcDbText
  0
TEXT
  5
12B1
330
1E
100
AcDbEntity
  8
1
  6
Continuous
 62
     7
370
    13
100
AcDbText
 10
5548.221399999999
 20
924.0968288473592
 30
0.0
 40
40.0
  1
５
  7
BIGFONT
100
AcDbText
  0
CIRCLE
  5
12B2
330
1E
100
AcDbEntity
  8
1
  6
Continuous
 62
     7
370
    13
100
AcDbCircle
 10
5544.247000000003
 20
955.9558288473581
 30
0.0
 40
55.0
  0
LINE
  5
12B3
330
1E
100
AcDbEntity
  8
1
  6
Continuous
 62
     1
370
    25
100
AcDbLine
 10
7916.0494
 20
1776.518828847356
 30
0.0
 11
7916.0494
 21
2016.418828847356
 31
0.0
  0
LINE
  5
12B4
330
1E
100
AcDbEntity
  8
1
  6
Continuous
 62
     1
370
    25
100
AcDbLine
 10
7931.0494
 20
1761.518828847357
 30
0.0
 11
8071.549399999996
 21
1761.518828847357
 31
0.0
  0
ARC
  5
12B5
330
1E
100
AcDbEntity
  8
1
  6
Continuous
 62
     1
370
    25
100
AcDbCircle
 10
7931.0494
 20
1776.518828847356
 30
0.0
 40
15.0
100
AcDbArc
 50
180.0
 51
270.0
  0
ARC
  5
12B6
330
1E
100
AcDbEntity
  8
1
  6
Continuous
 62
     7
370
    13
100
AcDbCircle
 10
7931.580000000002
 20
1776.646828847353
 30
0.0
 40
177.3153999999999
100
AcDbArc
 50
180.0744800000001
 51
270.0
  0
LINE
  5
12B7
330
1E
100
AcDbEntity
  8
1
  6
Continuous
 62
     7
370
    13
100
AcDbLine
 10
7931.551999999999
 20
1599.331428847356
 30
0.0
 11
8071.549399999996
 21
1599.331428847356
 31
0.0
  0
LINE
  5
12B8
330
1E
100
AcDbEntity
  8
1
  6
Continuous
 62
     7
370
    13
100
AcDbLine
 10
8071.549399999996
 20
1741.518828847357
 30
0.0
 11
8071.549399999996
 21
1579.331428847357
 31
0.0
  0
LINE
  5
12B9
330
1E
100
AcDbEntity
  8
1
  6
Continuous
 62
     7
370
    13
100
AcDbLine
 10
7931.551999999999
 20
1756.635828847355
 30
0.0
 11
7931.551999999999
 21
1579.331428847357
 31
0.0
  0
LINE
  5
12BA
330
1E
100
AcDbEntity
  8
1
  6
Continuous
 62
     7
370
    13
100
AcDbLine
 10
8045.541999999997
 20
1592.378228847355
 30
0.0
 11
8071.541999999999
 21
1599.344828847355
 31
0.0
  0
LINE
  5
12BB
330
1E
100
AcDbEntity
  8
1
  6
Continuous
 62
     7
370
    13
100
AcDbLine
 10
8071.541999999999
 20
1599.344828847355
 30
0.0
 11
8045.541999999997
 21
1606.311628847356
 31
0.0
  0
LINE
  5
12BC
330
1E
100
AcDbEntity
  8
1
  6
Continuous
 62
     7
370
    13
100
AcDbLine
 10
7957.541999999998
 20
1606.311628847356
 30
0.0
 11
7931.541999999997
 21
1599.344828847355
 31
0.0
  0
LINE
  5
12BD
330
1E
100
AcDbEntity
  8
1
  6
Continuous
 62
     7
370
    13
100
AcDbLine
 10
7931.541999999997
 20
1599.344828847355
 30
0.0
 11
7957.541999999998
 21
1592.378228847355
 31
0.0
  0
TEXT
  5
12BE
330
1E
100
AcDbEntity
  8
1
  6
Continuous
 62
     7
370
    13
100
AcDbText
 10
7917.550599999998
 20
1611.331428847358
 30
0.0
 40
64.0
  1
280
 41
0.875
  7
BIGFONT
100
AcDbText
  0
TEXT
  5
12BF
330
1E
100
AcDbEntity
  8
1
  6
Continuous
 62
     7
370
    13
100
AcDbText
 10
8026.289399999994
 20
1827.767828847355
 30
0.0
 40
40.0
  1
Ｒ
  7
BIGFONT
100
AcDbText
  0
TEXT
  5
12C0
330
1E
100
AcDbEntity
  8
1
  6
Continuous
 62
     7
370
    13
100
AcDbText
 10
7924.343399999997
 20
1788.128828847357
 30
0.0
 40
64.0
  1
30
  7
BIGFONT
100
AcDbText
  0
LINE
  5
12C1
330
1E
100
AcDbEntity
  8
1
  6
Continuous
 62
     7
370
    13
100
AcDbLine
 10
7754.2644
 20
1776.416428847357
 30
0.0
 11
7764.440999999995
 21
1752.142428847356
 31
0.0
  0
LINE
  5
12C2
330
1E
100
AcDbEntity
  8
1
  6
Continuous
 62
     7
370
    13
100
AcDbLine
 10
7750.157999999998
 20
1750.335428847357
 30
0.0
 11
7754.2644
 21
1776.416428847357
 31
0.0
  0
LINE
  5
12C3
330
1E
100
AcDbEntity
  8
1
  6
Continuous
 62
     7
370
    13
100
AcDbLine
 10
7906.455399999996
 20
1610.408828847356
 30
0.0
 11
7931.580000000002
 21
1599.331428847356
 31
0.0
  0
LINE
  5
12C4
330
1E
100
AcDbEntity
  8
1
  6
Continuous
 62
     7
370
    13
100
AcDbLine
 10
7905.327999999997
 20
1595.174428847355
 30
0.0
 11
7931.580000000002
 21
1599.331428847356
 31
0.0
  0
LINE
  5
12C5
330
1E
100
AcDbEntity
  8
1
  6
Continuous
 62
     7
370
    13
100
AcDbLine
 10
7754.2644
 20
1776.417428847357
 30
0.0
 11
7754.2644
 21
2016.418828847356
 31
0.0
  0
LINE
  5
12C6
330
1E
100
AcDbEntity
  8
1
  6
Continuous
 62
     7
370
    13
100
AcDbLine
 10
7896.049399999999
 20
2016.418828847356
 30
0.0
 11
7734.264399999997
 21
2016.418828847356
 31
0.0
  0
LINE
  5
12C7
330
1E
100
AcDbEntity
  8
1
  6
Continuous
 62
     7
370
    13
100
AcDbLine
 10
7906.437999999998
 20
1776.417428847357
 30
0.0
 11
7734.264399999997
 21
1776.417428847357
 31
0.0
  0
LINE
  5
12C8
330
1E
100
AcDbEntity
  8
1
  6
Continuous
 62
     7
370
    13
100
AcDbLine
 10
7761.228599999999
 20
1990.424828847357
 30
0.0
 11
7754.261999999996
 21
2016.424828847355
 31
0.0
  0
LINE
  5
12C9
330
1E
100
AcDbEntity
  8
1
  6
Continuous
 62
     7
370
    13
100
AcDbLine
 10
7754.261999999996
 20
2016.424828847355
 30
0.0
 11
7747.2952
 21
1990.424828847357
 31
0.0
  0
LINE
  5
12CA
330
1E
100
AcDbEntity
  8
1
  6
Continuous
 62
     7
370
    13
100
AcDbLine
 10
7747.2952
 20
1802.424828847357
 30
0.0
 11
7754.261999999996
 21
1776.424828847357
 31
0.0
  0
LINE
  5
12CB
330
1E
100
AcDbEntity
  8
1
  6
Continuous
 62
     7
370
    13
100
AcDbLine
 10
7754.261999999996
 20
1776.424828847357
 30
0.0
 11
7761.228599999999
 21
1802.424828847357
 31
0.0
  0
TEXT
  5
12CC
330
1E
100
AcDbEntity
  8
1
  6
Continuous
 62
     7
370
    13
100
AcDbText
 10
7742.264399999996
 20
1812.418228847355
 30
0.0
 40
64.0
  1
480
 50
90.0
 41
0.875
  7
BIGFONT
100
AcDbText
  0
LINE
  5
12CD
330
1E
100
AcDbEntity
  8
1
  6
Continuous
 62
     7
370
    13
100
AcDbLine
 10
7931.551999999999
 20
1746.046428847357
 30
0.0
 11
7931.551999999999
 21
1776.417428847357
 31
0.0
  0
LINE
  5
12CE
330
1E
100
AcDbEntity
  8
1
  6
Continuous
 62
     7
370
    13
100
AcDbLine
 10
7892.452399999999
 20
1776.417428847357
 30
0.0
 11
7931.551999999999
 21
1776.417428847357
 31
0.0
  0
TEXT
  5
12CF
330
1E
100
AcDbEntity
  8
1
  6
Continuous
 62
     7
370
    13
100
AcDbText
 10
7768.497399999997
 20
1707.041828847356
 30
0.0
 40
64.0
  1
48
 50
315.0
  7
BIGFONT
100
AcDbText
  0
LINE
  5
12D0
330
1E
100
AcDbEntity
  8
1
  6
Continuous
 62
     7
370
    13
100
AcDbLine
 10
6872.2094
 20
1642.089428847357
 30
0.0
 11
6929.367999999998
 21
1643.798828847356
 31
0.0
  0
LINE
  5
12D1
330
1E
100
AcDbEntity
  8
1
  6
Continuous
 62
     7
370
    13
100
AcDbLine
 10
6969.3654
 20
1466.952828847357
 30
0.0
 11
6993.359000000001
 21
1473.086428847356
 31
0.0
  0
LINE
  5
12D2
330
1E
100
AcDbEntity
  8
1
  6
Continuous
 62
     7
370
    13
100
AcDbLine
 10
6969.3654
 20
1466.952828847357
 30
0.0
 11
6993.25
 21
1460.589828847357
 31
0.0
  0
LINE
  5
12D3
330
1E
100
AcDbEntity
  8
1
  6
Continuous
 62
     7
370
    13
100
AcDbLine
 10
6969.3654
 20
1466.952828847357
 30
0.0
 11
7023.848000000002
 21
1466.952828847357
 31
0.0
  0
LINE
  5
12D4
330
1E
100
AcDbEntity
  8
1
  6
Continuous
 62
     7
370
    13
100
AcDbLine
 10
6929.367999999998
 20
1445.903428847355
 30
0.0
 11
6929.367999999998
 21
1643.798828847356
 31
0.0
  0
LINE
  5
12D5
330
1E
100
AcDbEntity
  8
1
  6
Continuous
 62
     7
370
    13
100
AcDbLine
 10
6929.367999999998
 20
1466.725428847357
 30
0.0
 11
6969.367999999999
 21
1466.725428847357
 31
0.0
  0
LINE
  5
12D6
330
1E
100
AcDbEntity
  8
1
  6
Continuous
 62
     7
370
    13
100
AcDbLine
 10
6969.367999999999
 20
1445.903428847355
 30
0.0
 11
6969.367999999999
 21
1613.427828847357
 31
0.0
  0
TEXT
  5
12D7
330
1E
100
AcDbEntity
  8
1
  6
Continuous
 62
     7
370
    13
100
AcDbText
 10
6891.486
 20
1388.947828847356
 30
0.0
 40
64.0
  1
80
  7
BIGFONT
100
AcDbText
  0
TEXT
  5
12D8
330
1E
100
AcDbEntity
  8
1
  6
Continuous
 62
     7
370
    13
100
AcDbText
 10
6765.360000000001
 20
1577.049428847358
 30
0.0
 40
64.0
  1
46
 50
312.0
  7
BIGFONT
100
AcDbText
  0
LINE
  5
12D9
330
1E
100
AcDbEntity
  8
1
  6
Continuous
 62
     1
370
    25
100
AcDbLine
 10
5898.074000000001
 20
1514.001828847357
 30
0.0
 11
5938.573999999997
 21
1514.001828847357
 31
0.0
  0
ARC
  5
12DA
330
1E
100
AcDbEntity
  8
1
  6
Continuous
 62
     1
370
    25
100
AcDbCircle
 10
5898.074000000001
 20
1529.001828847357
 30
0.0
 40
15.0
100
AcDbArc
 50
180.0
 51
270.0
  0
ARC
  5
12DB
330
1E
100
AcDbEntity
  8
1
  6
Continuous
 62
     7
370
    13
100
AcDbCircle
 10
5898.604399999996
 20
1529.129828847356
 30
0.0
 40
177.3153999999999
100
AcDbArc
 50
180.0744800000001
 51
270.0
  0
TEXT
  5
12DC
330
1E
100
AcDbEntity
  8
1
  6
Continuous
 62
     7
370
    13
100
AcDbText
 10
5993.313999999998
 20
1580.250828847357
 30
0.0
 40
40.0
  1
Ｒ
  7
BIGFONT
100
AcDbText
  0
TEXT
  5
12DD
330
1E
100
AcDbEntity
  8
1
  6
Continuous
 62
     7
370
    13
100
AcDbText
 10
5891.367999999999
 20
1540.611828847357
 30
0.0
 40
64.0
  1
30
  7
BIGFONT
100
AcDbText
  0
LINE
  5
12DE
330
1E
100
AcDbEntity
  8
1
  6
Continuous
 62
     7
370
    13
100
AcDbLine
 10
5721.433000000001
 20
1521.981428847354
 30
0.0
 11
5731.609399999998
 21
1497.707428847356
 31
0.0
  0
LINE
  5
12DF
330
1E
100
AcDbEntity
  8
1
  6
Continuous
 62
     7
370
    13
100
AcDbLine
 10
5717.326400000001
 20
1495.900428847357
 30
0.0
 11
5721.433000000001
 21
1521.981428847354
 31
0.0
  0
LINE
  5
12E0
330
1E
100
AcDbEntity
  8
1
  6
Continuous
 62
     7
370
    13
100
AcDbLine
 10
5873.48
 20
1362.891828847356
 30
0.0
 11
5898.604399999996
 21
1351.814428847357
 31
0.0
  0
LINE
  5
12E1
330
1E
100
AcDbEntity
  8
1
  6
Continuous
 62
     7
370
    13
100
AcDbLine
 10
5872.3524
 20
1347.657428847359
 30
0.0
 11
5898.604399999996
 21
1351.814428847357
 31
0.0
  0
LINE
  5
12E2
330
1E
100
AcDbEntity
  8
1
  6
Continuous
 62
     7
370
    13
100
AcDbLine
 10
5898.576400000002
 20
1498.529428847355
 30
0.0
 11
5898.576400000002
 21
1528.900428847355
 31
0.0
  0
LINE
  5
12E3
330
1E
100
AcDbEntity
  8
1
  6
Continuous
 62
     7
370
    13
100
AcDbLine
 10
5841.418000000001
 20
1527.190828847356
 30
0.0
 11
5898.576400000002
 21
1528.900428847355
 31
0.0
  0
LINE
  5
12E4
330
1E
100
AcDbEntity
  8
1
  6
Continuous
 62
     7
370
    13
100
AcDbLine
 10
5938.573999999997
 20
1352.054428847357
 30
0.0
 11
5962.567400000001
 21
1358.187828847354
 31
0.0
  0
LINE
  5
12E5
330
1E
100
AcDbEntity
  8
1
  6
Continuous
 62
     7
370
    13
100
AcDbLine
 10
5938.573999999997
 20
1352.054428847357
 30
0.0
 11
5962.4584
 21
1345.691428847361
 31
0.0
  0
LINE
  5
12E6
330
1E
100
AcDbEntity
  8
1
  6
Continuous
 62
     7
370
    13
100
AcDbLine
 10
5938.573999999997
 20
1352.054428847357
 30
0.0
 11
5993.056399999997
 21
1352.054428847357
 31
0.0
  0
LINE
  5
12E7
330
1E
100
AcDbEntity
  8
1
  6
Continuous
 62
     7
370
    13
100
AcDbLine
 10
5898.576400000002
 20
1331.004828847355
 30
0.0
 11
5898.576400000002
 21
1528.900428847355
 31
0.0
  0
LINE
  5
12E8
330
1E
100
AcDbEntity
  8
1
  6
Continuous
 62
     7
370
    13
100
AcDbLine
 10
5898.576400000002
 20
1351.826828847357
 30
0.0
 11
5938.576400000002
 21
1351.826828847357
 31
0.0
  0
LINE
  5
12E9
330
1E
100
AcDbEntity
  8
1
  6
Continuous
 62
     7
370
    13
100
AcDbLine
 10
5938.576400000002
 20
1331.004828847355
 30
0.0
 11
5938.576400000002
 21
1498.529428847355
 31
0.0
  0
TEXT
  5
12EA
330
1E
100
AcDbEntity
  8
1
  6
Continuous
 62
     7
370
    13
100
AcDbText
 10
5860.6944
 20
1274.049428847359
 30
0.0
 40
64.0
  1
80
  7
BIGFONT
100
AcDbText
  0
TEXT
  5
12EB
330
1E
100
AcDbEntity
  8
1
  6
Continuous
 62
     7
370
    13
100
AcDbText
 10
5734.5684
 20
1462.150828847356
 30
0.0
 40
64.0
  1
46
 50
312.0
  7
BIGFONT
100
AcDbText
  0
ARC
  5
12EC
330
1E
100
AcDbEntity
  8
1
  6
Continuous
 62
     7
370
    13
100
AcDbCircle
 10
5864.249
 20
1534.668828847356
 30
0.0
 40
236.0739999999998
100
AcDbArc
 50
1.274415699999208
 51
20.94441699997325
  0
ARC
  5
12ED
330
1E
100
AcDbEntity
  8
1
  6
Continuous
 62
     7
370
    13
100
AcDbCircle
 10
5901.869399999999
 20
1530.043428847357
 30
0.0
 40
236.0739999999998
100
AcDbArc
 50
66.21623199995902
 51
90.91102099999854
  0
LINE
  5
12EE
330
1E
100
AcDbEntity
  8
1
  6
Continuous
 62
     7
370
    13
100
AcDbLine
 10
6100.2644
 20
1539.919428847356
 30
0.0
 11
6105.668399999998
 21
1563.707828847358
 31
0.0
  0
LINE
  5
12EF
330
1E
100
AcDbEntity
  8
1
  6
Continuous
 62
     7
370
    13
100
AcDbLine
 10
6093.6604
 20
1562.810828847356
 30
0.0
 11
6100.2644
 21
1539.919428847356
 31
0.0
  0
LINE
  5
12F0
330
1E
100
AcDbEntity
  8
1
  6
Continuous
 62
     7
370
    13
100
AcDbLine
 10
5898.115999999998
 20
1766.087828847357
 30
0.0
 11
5920.790400000002
 21
1772.343428847357
 31
0.0
  0
LINE
  5
12F1
330
1E
100
AcDbEntity
  8
1
  6
Continuous
 62
     7
370
    13
100
AcDbLine
 10
5898.115999999998
 20
1766.087828847357
 30
0.0
 11
5921.213999999999
 21
1759.950428847357
 31
0.0
  0
TEXT
  5
12F2
330
1E
100
AcDbEntity
  8
1
  6
Continuous
 62
     7
370
    13
100
AcDbText
 10
7638.268400000001
 20
921.8714288473581
 30
0.0
 40
40.0
  1
８
  7
BIGFONT
100
AcDbText
  0
ARC
  5
12F3
330
1E
100
AcDbEntity
  8
1
  6
Continuous
 62
     7
370
    13
100
AcDbCircle
 10
6895.040399999998
 20
1649.567428847355
 30
0.0
 40
236.0739999999998
100
AcDbArc
 50
1.274415699999208
 51
20.94441699997325
  0
ARC
  5
12F4
330
1E
100
AcDbEntity
  8
1
  6
Continuous
 62
     7
370
    13
100
AcDbCircle
 10
6932.660999999995
 20
1644.941828847356
 30
0.0
 40
236.0739999999998
100
AcDbArc
 50
66.21623199995902
 51
90.91102099999854
  0
LINE
  5
12F5
330
1E
100
AcDbEntity
  8
1
  6
Continuous
 62
     7
370
    13
100
AcDbLine
 10
7131.056
 20
1654.817828847357
 30
0.0
 11
7136.459999999996
 21
1678.606428847358
 31
0.0
  0
LINE
  5
12F6
330
1E
100
AcDbEntity
  8
1
  6
Continuous
 62
     7
370
    13
100
AcDbLine
 10
7124.451999999998
 20
1677.709428847355
 30
0.0
 11
7131.056
 21
1654.817828847357
 31
0.0
  0
LINE
  5
12F7
330
1E
100
AcDbEntity
  8
1
  6
Continuous
 62
     7
370
    13
100
AcDbLine
 10
6928.907399999997
 20
1880.986428847356
 30
0.0
 11
6951.581999999999
 21
1887.241828847357
 31
0.0
  0
LINE
  5
12F8
330
1E
100
AcDbEntity
  8
1
  6
Continuous
 62
     7
370
    13
100
AcDbLine
 10
6928.907399999997
 20
1880.986428847356
 30
0.0
 11
6952.005399999999
 21
1874.848828847357
 31
0.0
  0
ARC
  5
12F9
330
1E
100
AcDbEntity
  8
1
  6
Continuous
 62
     7
370
    13
100
AcDbCircle
 10
7872.179
 20
1786.209428847357
 30
0.0
 40
236.0739999999998
100
AcDbArc
 50
1.274415699999208
 51
20.94441699997325
  0
ARC
  5
12FA
330
1E
100
AcDbEntity
  8
1
  6
Continuous
 62
     7
370
    13
100
AcDbCircle
 10
7943.452399999998
 20
1757.303428847357
 30
0.0
 40
236.0739999999998
100
AcDbArc
 50
66.21623199995902
 51
90.91102099999854
  0
LINE
  5
12FB
330
1E
100
AcDbEntity
  8
1
  6
Continuous
 62
     7
370
    13
100
AcDbLine
 10
8108.194400000003
 20
1791.459828847355
 30
0.0
 11
8113.598399999998
 21
1815.248428847357
 31
0.0
  0
LINE
  5
12FC
330
1E
100
AcDbEntity
  8
1
  6
Continuous
 62
     7
370
    13
100
AcDbLine
 10
8101.590399999997
 20
1814.351428847356
 30
0.0
 11
8108.194400000003
 21
1791.459828847355
 31
0.0
  0
LINE
  5
12FD
330
1E
100
AcDbEntity
  8
1
  6
Continuous
 62
     7
370
    13
100
AcDbLine
 10
7939.698999999997
 20
1993.347828847357
 30
0.0
 11
7962.373399999997
 21
1999.603428847356
 31
0.0
  0
LINE
  5
12FE
330
1E
100
AcDbEntity
  8
1
  6
Continuous
 62
     7
370
    13
100
AcDbLine
 10
7939.698999999997
 20
1993.347828847357
 30
0.0
 11
7962.796999999999
 21
1987.210428847357
 31
0.0
  0
TEXT
  5
12FF
330
1E
100
AcDbEntity
  8
1
  6
Continuous
 62
     7
370
    13
100
AcDbText
 10
8027.759000000001
 20
1892.706828847357
 30
0.0
 40
64.0
  1
90°
  7
BIGFONT
100
AcDbText
  0
ARC
  5
1300
330
1E
100
AcDbEntity
  8
1
  6
Continuous
 62
     7
370
    13
100
AcDbCircle
 10
6845.903399999999
 20
460.5508288473593
 30
0.0
 40
236.0739999999998
100
AcDbArc
 50
1.274415699999208
 51
20.94441699997325
  0
ARC
  5
1301
330
1E
100
AcDbEntity
  8
1
  6
Continuous
 62
     7
370
    13
100
AcDbCircle
 10
6906.780999999999
 20
468.2074288473573
 30
0.0
 40
236.0739999999998
100
AcDbArc
 50
66.21623199995902
 51
90.91102099999854
  0
LINE
  5
1302
330
1E
100
AcDbEntity
  8
1
  6
Continuous
 62
     7
370
    13
100
AcDbLine
 10
7081.918999999998
 20
465.8014288473609
 30
0.0
 11
7087.323000000001
 21
489.5898288473569
 31
0.0
  0
LINE
  5
1303
330
1E
100
AcDbEntity
  8
1
  6
Continuous
 62
     7
370
    13
100
AcDbLine
 10
7075.314999999999
 20
488.6928288473574
 30
0.0
 11
7081.918999999998
 21
465.8014288473609
 31
0.0
  0
LINE
  5
1304
330
1E
100
AcDbEntity
  8
1
  6
Continuous
 62
     7
370
    13
100
AcDbLine
 10
6903.027399999999
 20
704.2518288473573
 30
0.0
 11
6925.702000000001
 21
710.5074288473592
 31
0.0
  0
LINE
  5
1305
330
1E
100
AcDbEntity
  8
1
  6
Continuous
 62
     7
370
    13
100
AcDbLine
 10
6903.027399999999
 20
704.2518288473573
 30
0.0
 11
6926.1254
 21
698.1144288473572
 31
0.0
  0
LINE
  5
1306
330
1E
100
AcDbEntity
  8
1
  6
Continuous
 62
     7
370
    13
100
AcDbLine
 10
6526.737400000001
 20
899.592428847359
 30
0.0
 11
7280.056999999998
 21
899.592428847359
 31
0.0
  0
TEXT
  5
1307
330
1E
100
AcDbEntity
  8
1
  6
Continuous
 62
     7
370
    13
100
AcDbText
 10
6561.075000000001
 20
918.0088288473591
 30
0.0
 40
72.0
  1
Ｓ
  7
BIGFONT
100
AcDbText
  0
CIRCLE
  5
1308
330
1E
100
AcDbEntity
  8
1
  6
Continuous
 62
     7
370
    13
100
AcDbCircle
 10
6608.126999999997
 20
954.3688288473573
 30
0.0
 40
55.0
  0
TEXT
  5
1309
330
1E
100
AcDbEntity
  8
1
  6
Continuous
 62
     7
370
    13
100
AcDbText
 10
6615.008399999999
 20
923.550428847356
 30
0.0
 40
40.0
  1
６
  7
BIGFONT
100
AcDbText
  0
CIRCLE
  5
130A
330
1E
100
AcDbEntity
  8
1
  6
Continuous
 62
     7
370
    13
100
AcDbCircle
 10
5523.302
 20
2350.606428847357
 30
0.0
 40
55.0
  0
TEXT
  5
130B
330
1E
100
AcDbEntity
  8
1
  6
Continuous
 62
     7
370
    13
100
AcDbText
 10
5474.1394
 20
2312.938828847357
 30
0.0
 40
72.0
  1
Ｓ
  7
BIGFONT
100
AcDbText
  0
TEXT
  5
130C
330
1E
100
AcDbEntity
  8
1
  6
Continuous
 62
     7
370
    13
100
AcDbText
 10
5528.701999999998
 20
2319.808428847357
 30
0.0
 40
40.0
  1
１
  7
BIGFONT
100
AcDbText
  0
LINE
  5
130D
330
1E
100
AcDbEntity
  8
1
  6
Continuous
 62
     7
370
    13
100
AcDbLine
 10
5444.969399999997
 20
2295.676828847357
 30
0.0
 11
6291.143
 21
2295.676828847357
 31
0.0
  0
LINE
  5
130E
330
1E
100
AcDbEntity
  8
1
  6
Continuous
 62
     7
370
    13
100
AcDbLine
 10
7552.398399999998
 20
2295.676828847357
 30
0.0
 11
8305.717999999997
 21
2295.676828847357
 31
0.0
  0
TEXT
  5
130F
330
1E
100
AcDbEntity
  8
1
  6
Continuous
 62
     7
370
    13
100
AcDbText
 10
7585.717999999997
 20
2314.093428847357
 30
0.0
 40
72.0
  1
Ｓ
  7
BIGFONT
100
AcDbText
  0
CIRCLE
  5
1310
330
1E
100
AcDbEntity
  8
1
  6
Continuous
 62
     7
370
    13
100
AcDbCircle
 10
7633.769999999997
 20
2350.453428847357
 30
0.0
 40
55.0
  0
TEXT
  5
1311
330
1E
100
AcDbEntity
  8
1
  6
Continuous
 62
     7
370
    13
100
AcDbText
 10
7642.7114
 20
2318.838428847355
 30
0.0
 40
40.0
  1
４
  7
BIGFONT
100
AcDbText
  0
LINE
  5
1312
330
1E
100
AcDbEntity
  8
1
  6
Continuous
 62
     1
370
    25
100
AcDbLine
 10
7832.598399999999
 20
583.9818288473593
 30
0.0
 11
7930.178999999997
 21
486.4014288473611
 31
0.0
  0
LINE
  5
1313
330
1E
100
AcDbEntity
  8
1
  6
Continuous
 62
     7
370
    13
100
AcDbLine
 10
7717.216399999998
 20
468.5998288473575
 30
0.0
 11
7814.796999999998
 21
371.0194288473575
 31
0.0
  0
LINE
  5
1314
330
1E
100
AcDbEntity
  8
1
  6
Continuous
 62
     7
370
    13
100
AcDbLine
 10
7916.036799999997
 20
472.2592288473593
 30
0.0
 11
7800.654799999996
 21
356.8772288473594
 31
0.0
  0
LINE
  5
1315
330
1E
100
AcDbEntity
  8
1
  6
Continuous
 62
     7
370
    13
100
AcDbLine
 10
7818.456200000001
 20
569.8398288473595
 30
0.0
 11
7703.074199999999
 21
454.4578288473574
 31
0.0
  0
LINE
  5
1316
330
1E
100
AcDbEntity
  8
1
  6
Continuous
 62
     7
370
    13
100
AcDbLine
 10
7791.470999999998
 20
384.4834288473594
 30
0.0
 11
7814.781999999995
 21
371.0248288473575
 31
0.0
  0
LINE
  5
1317
330
1E
100
AcDbEntity
  8
1
  6
Continuous
 62
     7
370
    13
100
AcDbLine
 10
7814.781999999995
 20
371.0248288473575
 30
0.0
 11
7801.323399999998
 21
394.3358288473574
 31
0.0
  0
LINE
  5
1318
330
1E
100
AcDbEntity
  8
1
  6
Continuous
 62
     7
370
    13
100
AcDbLine
 10
7740.512800000001
 20
455.1464288473613
 30
0.0
 11
7717.202000000002
 21
468.6048288473575
 31
0.0
  0
LINE
  5
1319
330
1E
100
AcDbEntity
  8
1
  6
Continuous
 62
     7
370
    13
100
AcDbLine
 10
7717.202000000002
 20
468.6048288473575
 30
0.0
 11
7730.660399999997
 21
445.2940288473575
 31
0.0
  0
TEXT
  5
131A
330
1E
100
AcDbEntity
  8
1
  6
Continuous
 62
     7
370
    13
100
AcDbText
 10
7715.094999999998
 20
487.6920288473589
 30
0.0
 40
64.0
  1
276
 50
315.0
 41
0.875
  7
BIGFONT
100
AcDbText
  0
LINE
  5
131B
330
1E
100
AcDbEntity
  8
1
  6
Continuous
 62
     7
370
    13
100
AcDbLine
 10
8195.665400000001
 20
486.4014288473611
 30
0.0
 11
8195.665400000001
 21
583.9818288473593
 31
0.0
  0
LINE
  5
131C
330
1E
100
AcDbEntity
  8
1
  6
Continuous
 62
     7
370
    13
100
AcDbLine
 10
7852.598399999999
 20
583.9818288473593
 30
0.0
 11
8215.665400000002
 21
583.9818288473593
 31
0.0
  0
LINE
  5
131D
330
1E
100
AcDbEntity
  8
1
  6
Continuous
 62
     7
370
    13
100
AcDbLine
 10
7990.179000000001
 20
486.4014288473611
 30
0.0
 11
8215.665400000002
 21
486.4014288473611
 31
0.0
  0
LINE
  5
131E
330
1E
100
AcDbEntity
  8
1
  6
Continuous
 62
     7
370
    13
100
AcDbLine
 10
8202.6286
 20
557.9848288473574
 30
0.0
 11
8195.662
 21
583.9848288473574
 31
0.0
  0
LINE
  5
131F
330
1E
100
AcDbEntity
  8
1
  6
Continuous
 62
     7
370
    13
100
AcDbLine
 10
8195.662
 20
583.9848288473574
 30
0.0
 11
8188.695200000003
 21
557.9848288473574
 31
0.0
  0
LINE
  5
1320
330
1E
100
AcDbEntity
  8
1
  6
Continuous
 62
     7
370
    13
100
AcDbLine
 10
8188.695200000003
 20
512.4048288473573
 30
0.0
 11
8195.662
 21
486.4048288473575
 31
0.0
  0
LINE
  5
1321
330
1E
100
AcDbEntity
  8
1
  6
Continuous
 62
     7
370
    13
100
AcDbLine
 10
8195.662
 20
486.4048288473575
 30
0.0
 11
8202.6286
 21
512.4048288473573
 31
0.0
  0
TEXT
  5
1322
330
1E
100
AcDbEntity
  8
1
  6
Continuous
 62
     7
370
    13
100
AcDbText
 10
8184.749999999997
 20
442.5674288473608
 30
0.0
 40
64.0
  1
195
 50
90.0
  7
BIGFONT
100
AcDbText
  0
LINE
  5
1323
330
1E
100
AcDbEntity
  8
1
  6
Continuous
 62
     7
370
    13
100
AcDbLine
 10
6870.987400000001
 20
449.0544288473572
 30
0.0
 11
6871.123
 21
449.0454288473575
 31
0.0
  0
LINE
  5
1324
330
1E
100
AcDbEntity
  8
1
  6
Continuous
 62
     1
370
    25
100
AcDbLine
 10
5733.534999999999
 20
467.5078288473592
 30
0.0
 11
6122.244999999999
 21
442.7118288473588
 31
0.0
  0
LINE
  5
1325
330
1E
100
AcDbEntity
  8
1
  6
Continuous
 62
     1
370
    25
100
AcDbLine
 10
6870.987400000001
 20
449.0544288473572
 30
0.0
 11
7008.2084
 21
440.3008288473572
 31
0.0
  0
LINE
  5
1326
330
1E
100
AcDbEntity
  8
1
  6
Continuous
 62
     7
370
    13
100
AcDbLine
 10
6860.2774
 20
281.1604288473572
 30
0.0
 11
6997.498400000001
 21
272.4070288473575
 31
0.0
  0
LINE
  5
1327
330
1E
100
AcDbEntity
  8
1
  6
Continuous
 62
     7
370
    13
100
AcDbLine
 10
7006.9352
 20
420.3414288473593
 30
0.0
 11
6996.224999999999
 21
252.4476288473571
 31
0.0
  0
LINE
  5
1328
330
1E
100
AcDbEntity
  8
1
  6
Continuous
 62
     7
370
    13
100
AcDbLine
 10
6869.714199999998
 20
429.0950288473612
 30
0.0
 11
6859.0042
 21
261.2010288473612
 31
0.0
  0
LINE
  5
1329
330
1E
100
AcDbEntity
  8
1
  6
Continuous
 62
     7
370
    13
100
AcDbLine
 10
6971.0912
 20
267.1276288473572
 30
0.0
 11
6997.482000000001
 21
272.4248288473573
 31
0.0
  0
LINE
  5
132A
330
1E
100
AcDbEntity
  8
1
  6
Continuous
 62
     7
370
    13
100
AcDbLine
 10
6997.482000000001
 20
272.4248288473573
 30
0.0
 11
6971.978199999998
 21
281.0326288473571
 31
0.0
  0
LINE
  5
132B
330
1E
100
AcDbEntity
  8
1
  6
Continuous
 62
     7
370
    13
100
AcDbLine
 10
6886.652599999997
 20
286.4622288473577
 30
0.0
 11
6860.262000000003
 21
281.1648288473575
 31
0.0
  0
LINE
  5
132C
330
1E
100
AcDbEntity
  8
1
  6
Continuous
 62
     7
370
    13
100
AcDbLine
 10
6860.262000000003
 20
281.1648288473575
 30
0.0
 11
6885.765599999999
 21
272.5572288473573
 31
0.0
  0
TEXT
  5
132D
330
1E
100
AcDbEntity
  8
1
  6
Continuous
 62
     7
370
    13
100
AcDbText
 10
6845.822199999999
 20
294.1070288473574
 30
0.0
 40
64.0
  1
275
 50
356.36
 41
0.875
  7
BIGFONT
100
AcDbText
  0
LINE
  5
132E
330
1E
100
AcDbEntity
  8
1
  6
Continuous
 62
     7
370
    13
100
AcDbLine
 10
5722.989400000003
 20
299.6028288473575
 30
0.0
 11
6111.5684
 21
274.8832288473573
 31
0.0
  0
LINE
  5
132F
330
1E
100
AcDbEntity
  8
1
  6
Continuous
 62
     7
370
    13
100
AcDbLine
 10
6120.975200000001
 20
422.7522288473572
 30
0.0
 11
6110.298599999999
 21
254.9236288473592
 31
0.0
  0
LINE
  5
1330
330
1E
100
AcDbEntity
  8
1
  6
Continuous
 62
     7
370
    13
100
AcDbLine
 10
5732.400600000001
 20
447.5392288473575
 30
0.0
 11
5721.7196
 21
279.6432288473573
 31
0.0
  0
LINE
  5
1331
330
1E
100
AcDbEntity
  8
1
  6
Continuous
 62
     7
370
    13
100
AcDbLine
 10
6085.171999999999
 20
269.5830288473574
 30
0.0
 11
6111.562000000002
 21
274.8848288473612
 31
0.0
  0
LINE
  5
1332
330
1E
100
AcDbEntity
  8
1
  6
Continuous
 62
     7
370
    13
100
AcDbLine
 10
6111.562000000002
 20
274.8848288473612
 30
0.0
 11
6086.0566
 21
283.4882288473573
 31
0.0
  0
LINE
  5
1333
330
1E
100
AcDbEntity
  8
1
  6
Continuous
 62
     7
370
    13
100
AcDbLine
 10
5749.371800000001
 20
304.9068288473573
 30
0.0
 11
5722.982
 21
299.6048288473576
 31
0.0
  0
LINE
  5
1334
330
1E
100
AcDbEntity
  8
1
  6
Continuous
 62
     7
370
    13
100
AcDbLine
 10
5722.982
 20
299.6048288473576
 30
0.0
 11
5748.487199999999
 21
291.0016288473592
 31
0.0
  0
TEXT
  5
1335
330
1E
100
AcDbEntity
  8
1
  6
Continuous
 62
     7
370
    13
100
AcDbText
 10
5834.210199999997
 20
304.5518288473573
 30
0.0
 40
64.0
  1
779
 50
356.36
 41
0.875
  7
BIGFONT
100
AcDbText
  0
TEXT
  5
1336
330
1E
100
AcDbEntity
  8
1
  6
Continuous
 62
     7
370
    13
100
AcDbText
 10
7723.401999999999
 20
917.7058288473572
 30
0.0
 40
64.0
  1
8-D10×440
  7
BIGFONT
100
AcDbText
  0
TEXT
  5
1337
330
1E
100
AcDbEntity
  8
1
  6
Continuous
 62
     7
370
    13
100
AcDbText
 10
6702.518399999997
 20
918.0618288473572
 30
0.0
 40
64.0
  1
2-D10×400
  7
BIGFONT
100
AcDbText
  0
LINE
  5
1338
330
1E
100
AcDbEntity
  8
1
  6
Continuous
 62
     7
370
    13
100
AcDbLine
 10
5470.800399999997
 20
899.592428847359
 30
0.0
 11
6264.119999999999
 21
899.592428847359
 31
0.0
  0
TEXT
  5
1339
330
1E
100
AcDbEntity
  8
1
  6
Continuous
 62
     7
370
    13
100
AcDbText
 10
5595.977999999999
 20
2317.158828847357
 30
0.0
 40
64.0
  1
13-D10×1260
  7
BIGFONT
100
AcDbText
  0
TEXT
  5
133A
330
1E
100
AcDbEntity
  8
1
  6
Continuous
 62
     7
370
    13
100
AcDbText
 10
6702.299
 20
2314.908428847358
 30
0.0
 40
64.0
  1
2-D10×880
  7
BIGFONT
100
AcDbText
  0
TEXT
  5
133B
330
1E
100
AcDbEntity
  8
1
  6
Continuous
 62
     7
370
    13
100
AcDbText
 10
7725.761000000002
 20
2314.390428847358
 30
0.0
 40
64.0
  1
8-D10×810
  7
BIGFONT
100
AcDbText
  0
LINE
  5
133C
330
1E
100
AcDbEntity
  8
1
  6
Continuous
 62
     7
370
    13
100
AcDbLine
 10
6526.737400000001
 20
2295.025828847357
 30
0.0
 11
7280.056999999998
 21
2295.025828847357
 31
0.0
  0
LINE
  5
133D
330
1E
100
AcDbEntity
  8
1
  6
Continuous
 62
     1
370
    25
100
AcDbLine
 10
6898.5914
 20
2016.086828847354
 30
0.0
 11
6913.865399999998
 21
1643.900428847356
 31
0.0
  0
LINE
  5
133E
330
1E
100
AcDbEntity
  8
1
  6
Continuous
 62
     1
370
    25
100
AcDbLine
 10
5859.917400000002
 20
2092.961828847356
 30
0.0
 11
5883.0844
 21
1528.436828847356
 31
0.0
  0
LINE
  5
133F
330
1E
100
AcDbEntity
  8
1
  6
Continuous
 62
     7
370
    13
100
AcDbLine
 10
6737.041399999998
 20
2009.457428847357
 30
0.0
 11
6752.338399999996
 21
1636.706228847355
 31
0.0
  0
LINE
  5
1340
330
1E
100
AcDbEntity
  8
1
  6
Continuous
 62
     7
370
    13
100
AcDbLine
 10
6893.892799999997
 20
1642.515428847358
 30
0.0
 11
6732.355200000002
 21
1635.886228847356
 31
0.0
  0
LINE
  5
1341
330
1E
100
AcDbEntity
  8
1
  6
Continuous
 62
     7
370
    13
100
AcDbLine
 10
6878.608199999999
 20
2015.266828847357
 30
0.0
 11
6717.0582
 21
2008.637428847356
 31
0.0
  0
LINE
  5
1342
330
1E
100
AcDbEntity
  8
1
  6
Continuous
 62
     7
370
    13
100
AcDbLine
 10
6744.295000000002
 20
1662.417428847357
 30
0.0
 11
6752.321999999996
 21
1636.724828847356
 31
0.0
  0
LINE
  5
1343
330
1E
100
AcDbEntity
  8
1
  6
Continuous
 62
     7
370
    13
100
AcDbLine
 10
6752.321999999996
 20
1636.724828847356
 30
0.0
 11
6758.2166
 21
1662.988628847358
 31
0.0
  0
LINE
  5
1344
330
1E
100
AcDbEntity
  8
1
  6
Continuous
 62
     7
370
    13
100
AcDbLine
 10
6745.048800000001
 20
1983.772428847356
 30
0.0
 11
6737.022
 21
2009.464828847357
 31
0.0
  0
LINE
  5
1345
330
1E
100
AcDbEntity
  8
1
  6
Continuous
 62
     7
370
    13
100
AcDbLine
 10
6737.022
 20
2009.464828847357
 30
0.0
 11
6731.127199999999
 21
1983.201228847356
 31
0.0
  0
LINE
  5
1346
330
1E
100
AcDbEntity
  8
1
  6
Continuous
 62
     7
370
    13
100
AcDbLine
 10
5698.273000000001
 20
2086.328428847358
 30
0.0
 11
5721.440000000002
 21
1521.803228847357
 31
0.0
  0
LINE
  5
1347
330
1E
100
AcDbEntity
  8
1
  6
Continuous
 62
     7
370
    13
100
AcDbLine
 10
5863.101200000001
 20
1527.616828847356
 30
0.0
 11
5701.456799999999
 21
1520.983228847356
 31
0.0
  0
LINE
  5
1348
330
1E
100
AcDbEntity
  8
1
  6
Continuous
 62
     7
370
    13
100
AcDbLine
 10
5839.9342
 20
2092.141828847356
 30
0.0
 11
5678.289800000002
 21
2085.508428847359
 31
0.0
  0
LINE
  5
1349
330
1E
100
AcDbEntity
  8
1
  6
Continuous
 62
     7
370
    13
100
AcDbLine
 10
5713.395000000001
 20
1547.497428847358
 30
0.0
 11
5721.422000000003
 21
1521.804828847356
 31
0.0
  0
LINE
  5
134A
330
1E
100
AcDbEntity
  8
1
  6
Continuous
 62
     7
370
    13
100
AcDbLine
 10
5721.422000000003
 20
1521.804828847356
 30
0.0
 11
5727.316599999998
 21
1548.068628847358
 31
0.0
  0
LINE
  5
134B
330
1E
100
AcDbEntity
  8
1
  6
Continuous
 62
     7
370
    13
100
AcDbLine
 10
5706.288800000002
 20
2060.652428847358
 30
0.0
 11
5698.261999999999
 21
2086.344828847357
 31
0.0
  0
LINE
  5
134C
330
1E
100
AcDbEntity
  8
1
  6
Continuous
 62
     7
370
    13
100
AcDbLine
 10
5698.261999999999
 20
2086.344828847357
 30
0.0
 11
5692.367200000001
 21
2060.081228847357
 31
0.0
  0
TEXT
  5
134D
330
1E
100
AcDbEntity
  8
1
  6
Continuous
 62
     7
370
    13
100
AcDbText
 10
5710.577000000001
 20
1683.378428847356
 30
0.0
 40
64.0
  1
1130
 50
92.59999999999999
  7
BIGFONT
100
AcDbText
  0
TEXT
  5
134E
330
1E
100
AcDbEntity
  8
1
  6
Continuous
 62
     7
370
    13
100
AcDbText
 10
6748.621999999999
 20
1727.262828847356
 30
0.0
 40
64.0
  1
745
 50
92.59999999999999
  7
BIGFONT
100
AcDbText
  0
TEXT
  5
134F
330
1E
100
AcDbEntity
  8
1
  6
Continuous
 62
     7
370
    13
100
AcDbText
 10
6986.005000000002
 20
1772.003428847357
 30
0.0
 40
64.0
  1
92°19′
  7
BIGFONT
100
AcDbText
  0
TEXT
  5
1350
330
1E
100
AcDbEntity
  8
1
  6
Continuous
 62
     7
370
    13
100
AcDbText
 10
5955.213400000001
 20
1657.104828847357
 30
0.0
 40
64.0
  1
92°19′
  7
BIGFONT
100
AcDbText
  0
TEXT
  5
1351
330
1E
100
AcDbEntity
  8
1
  6
Continuous
 62
     7
370
    13
100
AcDbText
 10
6922.178999999997
 20
578.139428847362
 30
0.0
 40
64.0
  1
93°22′
  7
BIGFONT
100
AcDbText
  0
TEXT
  5
1352
330
1E
100
AcDbEntity
  8
1
  6
Continuous
 62
     7
370
    13
100
AcDbText
 10
5784.7264
 20
596.5928288473576
 30
0.0
 40
64.0
  1
93°22′
  7
BIGFONT
100
AcDbText
  0
TEXT
  5
1353
330
1E
100
AcDbEntity
  8
1
  6
Continuous
 62
     7
370
    13
100
AcDbText
 10
5622.518
 20
921.5024288473591
 30
0.0
 40
64.0
  1
13-D10×910
  7
BIGFONT
100
AcDbText
  0
LINE
  5
1354
330
1E
100
AcDbEntity
  8
0
  6
Continuous
 62
     1
370
    25
100
AcDbLine
 10
981.7690000000002
 20
2716.311999999998
 30
0.0
 11
1386.768999999998
 21
2716.311999999998
 31
0.0
  0
LINE
  5
1355
330
1E
100
AcDbEntity
  8
0
  6
Continuous
 62
     1
370
    25
100
AcDbLine
 10
1386.768999999998
 20
2716.311999999998
 30
0.0
 11
1780.769
 21
2716.311999999998
 31
0.0
  0
LINE
  5
1356
330
1E
100
AcDbEntity
  8
0
  6
Continuous
 62
     7
370
    13
100
AcDbLine
 10
1628.151000000002
 20
3299.759999999999
 30
0.0
 11
1628.151000000002
 21
2716.311999999998
 31
0.0
  0
LINE
  5
1357
330
1E
100
AcDbEntity
  8
0
  6
Continuous
 62
     7
370
    13
100
AcDbLine
 10
1621.195399999997
 20
2742.322999999998
 30
0.0
 11
1628.162
 21
2716.322999999998
 31
0.0
  0
LINE
  5
1358
330
1E
100
AcDbEntity
  8
0
  6
Continuous
 62
     7
370
    13
100
AcDbLine
 10
1628.162
 20
2716.322999999998
 30
0.0
 11
1635.128799999998
 21
2742.322999999998
 31
0.0
  0
CIRCLE
  5
1359
330
1E
100
AcDbEntity
  8
0
  6
Continuous
 62
     7
370
    13
100
AcDbCircle
 10
1728.429999999998
 20
3354.751999999999
 30
0.0
 40
55.0
  0
TEXT
  5
135A
330
1E
100
AcDbEntity
  8
0
  6
Continuous
 62
     7
370
    13
100
AcDbText
 10
1674.753
 20
3317.622999999998
 30
0.0
 40
72.0
  1
Ｓ
  7
BIGFONT
100
AcDbText
  0
TEXT
  5
135B
330
1E
100
AcDbEntity
  8
0
  6
Continuous
 62
     7
370
    13
100
AcDbText
 10
1726.366000000002
 20
3322.972999999998
 30
0.0
 40
40.0
  1
１０
 41
0.9
  7
BIGFONT
100
AcDbText
  0
LINE
  5
135C
330
1E
100
AcDbEntity
  8
0
  6
Continuous
 62
     7
370
    13
100
AcDbLine
 10
1628.151000000002
 20
3299.759999999999
 30
0.0
 11
2032.028
 21
3299.759999999999
 31
0.0
  0
TEXT
  5
135D
330
1E
100
AcDbEntity
  8
0
  6
Continuous
 62
     7
370
    13
100
AcDbText
 10
1812.416000000001
 20
3323.586999999998
 30
0.0
 40
64.0
  1
D10
  7
BIGFONT
100
AcDbText
  0
LINE
  5
135E
330
1E
100
AcDbEntity
  8
2
  6
Continuous
 62
     7
370
    13
100
AcDbLine
 10
2871.184000000001
 20
1730.601
 30
0.0
 11
5091.184000000001
 21
1730.601
 31
0.0
  0
TEXT
  5
135F
330
1E
100
AcDbEntity
  8
2
  6
Continuous
 62
     7
370
    13
100
AcDbText
 10
2926.672000000003
 20
1631.766999999999
 30
0.0
 40
80.0
  1
Ｓ
  7
BIGFONT
100
AcDbText
  0
TEXT
  5
1360
330
1E
100
AcDbEntity
  8
2
  6
Continuous
 62
     7
370
    13
100
AcDbText
 10
2988.536
 20
1638.622999999997
 30
0.0
 40
40.0
  1
９
  7
BIGFONT
100
AcDbText
  0
CIRCLE
  5
1361
330
1E
100
AcDbEntity
  8
2
  6
Continuous
 62
     7
370
    13
100
AcDbCircle
 10
2981.184000000001
 20
1670.601
 30
0.0
 40
52.0
  0
TEXT
  5
1362
330
1E
100
AcDbEntity
  8
2
  6
Continuous
 62
     7
370
    13
100
AcDbText
 10
3132.368000000003
 20
1634.640999999998
 30
0.0
 40
64.0
  1
D10
  7
BIGFONT
100
AcDbText
  0
TEXT
  5
1363
330
1E
100
AcDbEntity
  8
2
  6
Continuous
 62
     7
370
    13
100
AcDbText
 10
4003.029999999998
 20
1634.900999999998
 30
0.0
 40
64.0
  1
0.560
  7
BIGFONT
100
AcDbText
  0
TEXT
  5
1364
330
1E
100
AcDbEntity
  8
2
  6
Continuous
 62
     7
370
    13
100
AcDbText
 10
3409.521999999997
 20
1634.853
 30
0.0
 40
64.0
  1
1900
  7
BIGFONT
100
AcDbText
  0
LINE
  5
1365
330
1E
100
AcDbEntity
  8
2
  6
Continuous
 62
     7
370
    13
100
AcDbLine
 10
4868.403999999999
 20
1670.601
 30
0.0
 11
5023.279999999999
 21
1670.601
 31
0.0
  0
TEXT
  5
1366
330
1E
100
AcDbEntity
  8
2
  6
Continuous
 62
     7
370
    13
100
AcDbText
 10
3757.596539175262
 20
1634.698999999997
 30
0.0
 40
64.0
  1
12
  7
BIGFONT
100
AcDbText
  0
TEXT
  5
1367
330
1E
100
AcDbEntity
  8
2
  6
Continuous
 62
     7
370
    13
100
AcDbText
 10
4438.343999999997
 20
1634.614999999999
 30
0.0
 40
64.0
  1
12.77
  7
BIGFONT
100
AcDbText
  0
LINE
  5
1368
330
1E
100
AcDbEntity
  8
2
  6
Continuous
 62
     7
370
    13
100
AcDbLine
 10
4891.844000000001
 20
1549.570999999998
 30
0.0
 11
5000.564000000002
 21
1549.570999999998
 31
0.0
  0
LINE
  5
1369
330
1E
100
AcDbEntity
  8
0
  6
Continuous
 62
     7
370
    13
100
AcDbLine
 10
8817.314999999998
 20
5415.520999999999
 30
0.0
 11
9005.84
 21
5415.520999999999
 31
0.0
  0
LINE
  5
136A
330
1E
100
AcDbEntity
  8
0
  6
Continuous
 62
     7
370
    13
100
AcDbLine
 10
9961.946000000001
 20
5334.019999999998
 30
0.0
 11
9961.946000000001
 21
5522.544999999998
 31
0.0
  0
LINE
  5
136B
330
1E
100
AcDbEntity
  8
0
  6
Continuous
 62
     7
370
    13
100
AcDbLine
 10
8911.413999999998
 20
5312.514999999998
 30
0.0
 11
8911.413999999998
 21
5501.039999999998
 31
0.0
  0
LINE
  5
136C
330
1E
100
AcDbEntity
  8
0
  6
Continuous
 62
     7
370
    13
100
AcDbLine
 10
8137.401999999999
 20
4715.520999999997
 30
0.0
 11
8137.401999999999
 21
5415.520999999999
 31
0.0
  0
LINE
  5
136D
330
1E
100
AcDbEntity
  8
0
  6
Continuous
 62
     7
370
    13
100
AcDbLine
 10
8797.314999999999
 20
5415.520999999999
 30
0.0
 11
8117.401999999998
 21
5415.520999999999
 31
0.0
  0
LINE
  5
136E
330
1E
100
AcDbEntity
  8
0
  6
Continuous
 62
     7
370
    13
100
AcDbLine
 10
8431.901999999999
 20
4715.520999999997
 30
0.0
 11
8117.401999999998
 21
4715.520999999997
 31
0.0
  0
LINE
  5
136F
330
1E
100
AcDbEntity
  8
0
  6
Continuous
 62
     7
370
    13
100
AcDbLine
 10
8144.368599999998
 20
5389.502999999999
 30
0.0
 11
8137.401999999999
 21
5415.502999999999
 31
0.0
  0
LINE
  5
1370
330
1E
100
AcDbEntity
  8
0
  6
Continuous
 62
     7
370
    13
100
AcDbLine
 10
8137.401999999999
 20
5415.502999999999
 30
0.0
 11
8130.435199999999
 21
5389.502999999999
 31
0.0
  0
LINE
  5
1371
330
1E
100
AcDbEntity
  8
0
  6
Continuous
 62
     7
370
    13
100
AcDbLine
 10
8130.435199999999
 20
4741.502999999998
 30
0.0
 11
8137.401999999999
 21
4715.502999999998
 31
0.0
  0
LINE
  5
1372
330
1E
100
AcDbEntity
  8
0
  6
Continuous
 62
     7
370
    13
100
AcDbLine
 10
8137.401999999999
 20
4715.502999999998
 30
0.0
 11
8144.368599999998
 21
4741.502999999998
 31
0.0
  0
TEXT
  5
1373
330
1E
100
AcDbEntity
  8
0
  6
Continuous
 62
     7
370
    13
100
AcDbText
 10
8125.401999999999
 20
4981.520999999997
 30
0.0
 40
64.0
  1
700
 50
90.0
 41
0.875
  7
BIGFONT
100
AcDbText
  0
LINE
  5
1374
330
1E
100
AcDbEntity
  8
0
  6
Continuous
 62
     7
370
    13
100
AcDbLine
 10
8137.401999999999
 20
5415.520999999999
 30
0.0
 11
8137.401999999999
 21
5965.520999999998
 31
0.0
  0
LINE
  5
1375
330
1E
100
AcDbEntity
  8
0
  6
Continuous
 62
     7
370
    13
100
AcDbLine
 10
8419.901999999998
 20
5965.520999999998
 30
0.0
 11
8117.401999999998
 21
5965.520999999998
 31
0.0
  0
LINE
  5
1376
330
1E
100
AcDbEntity
  8
0
  6
Continuous
 62
     7
370
    13
100
AcDbLine
 10
8144.368599999998
 20
5939.502999999999
 30
0.0
 11
8137.401999999999
 21
5965.502999999999
 31
0.0
  0
LINE
  5
1377
330
1E
100
AcDbEntity
  8
0
  6
Continuous
 62
     7
370
    13
100
AcDbLine
 10
8137.401999999999
 20
5965.502999999999
 30
0.0
 11
8130.435199999999
 21
5939.502999999999
 31
0.0
  0
LINE
  5
1378
330
1E
100
AcDbEntity
  8
0
  6
Continuous
 62
     7
370
    13
100
AcDbLine
 10
8130.435199999999
 20
5441.502999999998
 30
0.0
 11
8137.401999999999
 21
5415.502999999999
 31
0.0
  0
LINE
  5
1379
330
1E
100
AcDbEntity
  8
0
  6
Continuous
 62
     7
370
    13
100
AcDbLine
 10
8137.401999999999
 20
5415.502999999999
 30
0.0
 11
8144.368599999998
 21
5441.502999999998
 31
0.0
  0
TEXT
  5
137A
330
1E
100
AcDbEntity
  8
0
  6
Continuous
 62
     7
370
    13
100
AcDbText
 10
8125.401999999999
 20
5606.520999999998
 30
0.0
 40
64.0
  1
550
 50
90.0
 41
0.875
  7
BIGFONT
100
AcDbText
  0
TEXT
  5
137B
330
1E
100
AcDbEntity
  8
2
  6
Continuous
 62
     7
370
    13
100
AcDbText
 10
9796.547650960365
 20
1884.006999999997
 30
0.0
 40
50.0
  1
kN/m
 41
0.7
  7
BIGFONT
100
AcDbText
  0
TEXT
  5
137C
330
1E
100
AcDbEntity
  8
2
  6
Continuous
 62
     7
370
    13
100
AcDbText
 10
9796.547650960365
 20
1764.006999999997
 30
0.0
 40
50.0
  1
kN/m
 41
0.7
  7
BIGFONT
100
AcDbText
  0
TEXT
  5
137D
330
1E
100
AcDbEntity
  8
2
  6
Continuous
 62
     7
370
    13
100
AcDbText
 10
9798.251597832312
 20
1519.096192898149
 30
0.0
 40
50.0
  1
N/mm
 41
0.7
  7
BIGFONT
100
AcDbText
  0
TEXT
  5
137E
330
1E
100
AcDbEntity
  8
2
  6
Continuous
 62
     7
370
    13
100
AcDbText
 10
9798.251597832312
 20
1399.096192898148
 30
0.0
 40
50.0
  1
N/mm
 41
0.7
  7
BIGFONT
100
AcDbText
  0
TEXT
  5
137F
330
1E
100
AcDbEntity
  8
2
  6
Continuous
 62
     7
370
    13
100
AcDbText
 10
9798.251597832312
 20
1279.096192898147
 30
0.0
 40
50.0
  1
N/mm
 41
0.7
  7
BIGFONT
100
AcDbText
  0
LINE
  5
1380
330
1E
100
AcDbEntity
  8
0
  6
Continuous
 62
     1
370
    25
100
AcDbLine
 10
4800.592295326762
 20
5819.724561650128
 30
0.0
 11
4800.592295326762
 21
5419.724561650128
 31
0.0
  0
CIRCLE
  5
1381
330
1E
100
AcDbEntity
  8
0
  6
Continuous
 62
     7
370
    13
100
AcDbCircle
 10
5025.987259065351
 20
5523.964941626175
 30
0.0
 40
55.19999999999996
  0
TEXT
  5
1382
330
1E
100
AcDbEntity
  8
0
  6
Continuous
 62
     7
370
    13
100
AcDbText
 10
4976.68165906535
 20
5488.464141626177
 30
0.0
 40
72.0
  1
Ｓ
  7
BIGFONT
100
AcDbText
  0
TEXT
  5
1383
330
1E
100
AcDbEntity
  8
0
  6
Continuous
 62
     7
370
    13
100
AcDbText
 10
5031.672859065348
 20
5493.988941626176
 30
0.0
 40
40.0
  1
11
  7
BIGFONT
100
AcDbText
  0
LINE
  5
1384
330
1E
100
AcDbEntity
  8
0
  6
Continuous
 62
     7
370
    13
100
AcDbLine
 10
5316.889659065349
 20
5469.016941626176
 30
0.0
 11
4800.592295326762
 21
5469.016941626176
 31
0.0
  0
LINE
  5
1385
330
1E
100
AcDbEntity
  8
0
  6
Continuous
 62
     7
370
    13
100
AcDbLine
 10
4824.592295326758
 20
5475.429941626177
 30
0.0
 11
4800.592295326762
 21
5468.999341626175
 31
0.0
  0
LINE
  5
1386
330
1E
100
AcDbEntity
  8
0
  6
Continuous
 62
     7
370
    13
100
AcDbLine
 10
4800.592295326762
 20
5468.999341626175
 30
0.0
 11
4824.592295326758
 21
5462.568541626176
 31
0.0
  0
TEXT
  5
1387
330
1E
100
AcDbEntity
  8
0
  6
Continuous
 62
     7
370
    13
100
AcDbText
 10
5135.38245906535
 20
5489.376941626175
 30
0.0
 40
64.0
  1
D10
  7
BIGFONT
100
AcDbText
  0
LINE
  5
1388
330
1E
100
AcDbEntity
  8
2
  6
Continuous
 62
     7
370
    13
100
AcDbLine
 10
2871.184000000001
 20
1369.570999999999
 30
0.0
 11
5091.184000000001
 21
1369.570999999999
 31
0.0
  0
TEXT
  5
1389
330
1E
100
AcDbEntity
  8
2
  6
Continuous
 62
     7
370
    13
100
AcDbText
 10
2926.672000000003
 20
1390.736999999999
 30
0.0
 40
80.0
  1
Ｓ
  7
BIGFONT
100
AcDbText
  0
TEXT
  5
138A
330
1E
100
AcDbEntity
  8
2
  6
Continuous
 62
     7
370
    13
100
AcDbText
 10
2998.213418788945
 20
1397.592999999999
 30
0.0
 40
40.0
  1
11
 41
0.5
  7
BIGFONT
100
AcDbText
  0
CIRCLE
  5
138B
330
1E
100
AcDbEntity
  8
2
  6
Continuous
 62
     7
370
    13
100
AcDbCircle
 10
2981.184000000001
 20
1429.570999999999
 30
0.0
 40
52.0
  0
TEXT
  5
138C
330
1E
100
AcDbEntity
  8
2
  6
Continuous
 62
     7
370
    13
100
AcDbText
 10
3132.368
 20
1393.611000000001
 30
0.0
 40
64.0
  1
D10
  7
BIGFONT
100
AcDbText
  0
TEXT
  5
138D
330
1E
100
AcDbEntity
  8
2
  6
Continuous
 62
     7
370
    13
100
AcDbText
 10
4003.029999999998
 20
1393.871000000001
 30
0.0
 40
64.0
  1
0.560
  7
BIGFONT
100
AcDbText
  0
TEXT
  5
138E
330
1E
100
AcDbEntity
  8
2
  6
Continuous
 62
     7
370
    13
100
AcDbText
 10
3458.658251132231
 20
1393.822999999999
 30
0.0
 40
64.0
  1
400
  7
BIGFONT
100
AcDbText
  0
TEXT
  5
138F
330
1E
100
AcDbEntity
  8
2
  6
Continuous
 62
     7
370
    13
100
AcDbText
 10
3800.212912540443
 20
1393.668999999999
 30
0.0
 40
64.0
  1
2
  7
BIGFONT
100
AcDbText
  0
TEXT
  5
1390
330
1E
100
AcDbEntity
  8
2
  6
Continuous
 62
     7
370
    13
100
AcDbText
 10
4494.432003830288
 20
1391.430026662428
 30
0.0
 40
64.0
  1
0.45
  7
BIGFONT
100
AcDbText
  0
LINE
  5
1391
330
1E
100
AcDbEntity
  8
2
  6
Continuous
 62
     7
370
    13
100
AcDbLine
 10
4935.552
 20
1408.284999999998
 30
0.0
 11
4935.552
 21
1438.284999999999
 31
0.0
  0
LINE
  5
1392
330
1E
100
AcDbEntity
  8
0
  6
Continuous
 62
     1
370
    25
100
AcDbLine
 10
3170.47986437627
 20
5246.378864376268
 30
0.0
 11
3198.764135623733
 21
5274.663135623729
 31
0.0
  0
LINE
  5
1393
330
1E
100
AcDbEntity
  8
0
  6
Continuous
 62
     1
370
    25
100
AcDbLine
 10
3770.479864376268
 20
5246.378864376268
 30
0.0
 11
3798.764135623731
 21
5274.663135623729
 31
0.0
  0
LINE
  5
1394
330
1E
100
AcDbEntity
  8
0
  6
Continuous
 62
     1
370
    25
100
AcDbLine
 10
4072.84486437627
 20
5246.378864376268
 30
0.0
 11
4101.129135623732
 21
5274.663135623729
 31
0.0
  0
LINE
  5
1395
330
1E
100
AcDbEntity
  8
0
  6
Continuous
 62
     1
370
    25
100
AcDbLine
 10
4672.844864376269
 20
5246.378864376268
 30
0.0
 11
4701.129135623733
 21
5274.663135623729
 31
0.0
  0
TEXT
  5
1396
330
1E
100
AcDbEntity
  8
0
  6
Continuous
 62
     7
370
    13
100
AcDbText
 10
2723.69030843357
 20
5400.746819138455
 30
0.0
 40
64.0
  1
D10
  7
BIGFONT
100
AcDbText
  0
TEXT
  5
1397
330
1E
100
AcDbEntity
  8
0
  6
Continuous
 62
     7
370
    13
100
AcDbText
 10
2628.087718515168
 20
5409.726819138456
 30
0.0
 40
40.0
  1
12
 41
0.6
  7
BIGFONT
100
AcDbText
  0
CIRCLE
  5
1398
330
1E
100
AcDbEntity
  8
0
  6
Continuous
 62
     7
370
    13
100
AcDbCircle
 10
2617.759308433568
 20
5441.913819138456
 30
0.0
 40
55.0
  0
TEXT
  5
1399
330
1E
100
AcDbEntity
  8
0
  6
Continuous
 62
     7
370
    13
100
AcDbText
 10
2564.082308433568
 20
5404.784819138456
 30
0.0
 40
72.0
  1
Ｓ
  7
BIGFONT
100
AcDbText
  0
LINE
  5
139A
330
1E
100
AcDbEntity
  8
0
  6
Continuous
 62
     7
370
    13
100
AcDbLine
 10
3017.217905743925
 20
5385.423043163894
 30
0.0
 11
3176.613582264501
 21
5252.526854199839
 31
0.0
  0
LINE
  5
139B
330
1E
100
AcDbEntity
  8
0
  6
Continuous
 62
     7
370
    13
100
AcDbLine
 10
3152.17898243968
 20
5263.810379758856
 30
0.0
 11
3176.609993483622
 21
5252.511618693553
 31
0.0
  0
LINE
  5
139C
330
1E
100
AcDbEntity
  8
0
  6
Continuous
 62
     7
370
    13
100
AcDbLine
 10
3176.609993483622
 20
5252.511618693553
 30
0.0
 11
3161.10156078951
 21
5274.512119390859
 31
0.0
  0
LINE
  5
139D
330
1E
100
AcDbEntity
  8
0
  6
Continuous
 62
     7
370
    13
100
AcDbLine
 10
2541.652023508621
 20
5385.423043163894
 30
0.0
 11
3017.217905743925
 21
5385.423043163895
 31
0.0
  0
LINE
  5
139E
330
1E
100
AcDbEntity
  8
0
  6
Continuous
 62
     1
370
    25
100
AcDbLine
 10
980.2019999999993
 20
5260.520999999998
 30
0.0
 11
1010.626518454524
 21
5267.719903188896
 31
0.0
  0
TEXT
  5
139F
330
1E
100
AcDbEntity
  8
0
  6
Continuous
 62
     7
370
    13
100
AcDbText
 10
695.5716651862749
 20
5400.707819138457
 30
0.0
 40
64.0
  1
D10
  7
BIGFONT
100
AcDbText
  0
TEXT
  5
13A0
330
1E
100
AcDbEntity
  8
0
  6
Continuous
 62
     7
370
    13
100
AcDbText
 10
599.9690752678707
 20
5409.687819138458
 30
0.0
 40
40.0
  1
12
 41
0.6
  7
BIGFONT
100
AcDbText
  0
CIRCLE
  5
13A1
330
1E
100
AcDbEntity
  8
0
  6
Continuous
 62
     7
370
    13
100
AcDbCircle
 10
589.6406651862726
 20
5441.874819138457
 30
0.0
 40
55.0
  0
TEXT
  5
13A2
330
1E
100
AcDbEntity
  8
0
  6
Continuous
 62
     7
370
    13
100
AcDbText
 10
535.9636651862729
 20
5404.745819138458
 30
0.0
 40
72.0
  1
Ｓ
  7
BIGFONT
100
AcDbText
  0
LINE
  5
13A3
330
1E
100
AcDbEntity
  8
0
  6
Continuous
 62
     7
370
    13
100
AcDbLine
 10
845.6753992681079
 20
5385.384043163895
 30
0.0
 11
992.1032180858928
 21
5263.299809111971
 31
0.0
  0
LINE
  5
13A4
330
1E
100
AcDbEntity
  8
0
  6
Continuous
 62
     7
370
    13
100
AcDbLine
 10
967.6686182610719
 20
5274.583334670989
 30
0.0
 11
992.0996293050139
 21
5263.284573605685
 31
0.0
  0
LINE
  5
13A5
330
1E
100
AcDbEntity
  8
0
  6
Continuous
 62
     7
370
    13
100
AcDbLine
 10
992.0996293050139
 20
5263.284573605685
 30
0.0
 11
976.5911966109015
 21
5285.285074302991
 31
0.0
  0
LINE
  5
13A6
330
1E
100
AcDbEntity
  8
0
  6
Continuous
 62
     7
370
    13
100
AcDbLine
 10
513.5333802613258
 20
5385.384043163895
 30
0.0
 11
845.6753992681079
 21
5385.384043163895
 31
0.0
  0
LINE
  5
13A7
330
1E
100
AcDbEntity
  8
2
  6
Continuous
 62
     7
370
    13
100
AcDbLine
 10
2871.184000000001
 20
1249.571
 30
0.0
 11
5091.184000000001
 21
1249.571
 31
0.0
  0
TEXT
  5
13A8
330
1E
100
AcDbEntity
  8
2
  6
Continuous
 62
     7
370
    13
100
AcDbText
 10
2926.672000000003
 20
1270.737
 30
0.0
 40
80.0
  1
Ｓ
  7
BIGFONT
100
AcDbText
  0
TEXT
  5
13A9
330
1E
100
AcDbEntity
  8
2
  6
Continuous
 62
     7
370
    13
100
AcDbText
 10
2998.213418788945
 20
1277.593
 30
0.0
 40
40.0
  1
12
 41
0.5
  7
BIGFONT
100
AcDbText
  0
CIRCLE
  5
13AA
330
1E
100
AcDbEntity
  8
2
  6
Continuous
 62
     7
370
    13
100
AcDbCircle
 10
2981.184000000001
 20
1309.571
 30
0.0
 40
52.0
  0
TEXT
  5
13AB
330
1E
100
AcDbEntity
  8
2
  6
Continuous
 62
     7
370
    13
100
AcDbText
 10
3132.368
 20
1273.611000000002
 30
0.0
 40
64.0
  1
D10
  7
BIGFONT
100
AcDbText
  0
TEXT
  5
13AC
330
1E
100
AcDbEntity
  8
2
  6
Continuous
 62
     7
370
    13
100
AcDbText
 10
4003.029999999998
 20
1273.871000000002
 30
0.0
 40
64.0
  1
0.560
  7
BIGFONT
100
AcDbText
  0
TEXT
  5
13AD
330
1E
100
AcDbEntity
  8
2
  6
Continuous
 62
     7
370
    13
100
AcDbText
 10
3458.658251132231
 20
1273.823
 30
0.0
 40
64.0
  1
40
  7
BIGFONT
100
AcDbText
  0
TEXT
  5
13AE
330
1E
100
AcDbEntity
  8
2
  6
Continuous
 62
     7
370
    13
100
AcDbText
 10
3800.212912540443
 20
1273.669
 30
0.0
 40
64.0
  1
4
  7
BIGFONT
100
AcDbText
  0
TEXT
  5
13AF
330
1E
100
AcDbEntity
  8
2
  6
Continuous
 62
     7
370
    13
100
AcDbText
 10
4494.432003830288
 20
1271.430026662429
 30
0.0
 40
64.0
  1
0.09
  7
BIGFONT
100
AcDbText
  0
ENDSEC
  0
SECTION
  2
OBJECTS
  0
DICTIONARY
  5
C
330
0
100
AcDbDictionary
281
     1
  3
ACAD_COLOR
350
6D9
  3
ACAD_GROUP
350
D
  3
ACAD_LAYOUT
350
6DC
  3
ACAD_MATERIAL
350
6C4
  3
ACAD_MLINESTYLE
350
16
  3
ACAD_PLOTSETTINGS
350
18
  3
ACAD_PLOTSTYLENAME
350
6C2
  3
ACAD_TABLESTYLE
350
6DA
  3
ACAD_VISUALSTYLE
350
6C8
  3
AcDbVariableDictionary
350
13B0
  3
DWGPROPS
350
13B5
1001
ACAD
1000
TREAT_AS_HARD
1070
     0
1000
TREAT_AS_HARD
1070
     0
1000
TREAT_AS_HARD
1070
     0
1000
TREAT_AS_HARD
1070
     0
1000
TREAT_AS_HARD
1070
     0
1000
TREAT_AS_HARD
1070
     0
  0
DICTIONARY
  5
6E1
330
2
100
AcDbDictionary
280
     1
281
     1
  3
ACAD_LAYERSTATES
360
6E2
  0
DICTIONARY
  5
678
330
1E
100
AcDbDictionary
281
     1
  3
ACAD_LAYOUTSELFREF
350
6BE
1001
ACAD
1000
TREAT_AS_HARD
1070
     0
1000
TREAT_AS_HARD
1070
     0
1000
TREAT_AS_HARD
1070
     0
1000
TREAT_AS_HARD
1070
     0
1000
TREAT_AS_HARD
1070
     0
  0
DICTIONARY
  5
676
330
1A
100
AcDbDictionary
281
     1
  3
ACAD_LAYOUTSELFREF
350
6BD
1001
ACAD
1000
TREAT_AS_HARD
1070
     0
1000
TREAT_AS_HARD
1070
     0
1000
TREAT_AS_HARD
1070
     0
1000
TREAT_AS_HARD
1070
     0
1000
TREAT_AS_HARD
1070
     0
  0
DICTIONARY
  5
6D9
102
{ACAD_REACTORS
330
C
102
}
330
C
100
AcDbDictionary
281
     1
  0
DICTIONARY
  5
D
102
{ACAD_REACTORS
330
C
102
}
330
C
100
AcDbDictionary
281
     1
1001
ACAD
1000
TREAT_AS_HARD
1070
     0
1000
TREAT_AS_HARD
1070
     0
1000
TREAT_AS_HARD
1070
     0
1000
TREAT_AS_HARD
1070
     0
1000
TREAT_AS_HARD
1070
     0
1000
TREAT_AS_HARD
1070
     0
  0
DICTIONARY
  5
6DC
102
{ACAD_REACTORS
330
C
102
}
330
C
100
AcDbDictionary
281
     1
  3
Model
350
6DD
  3
レイアウト1
350
6DE
  0
DICTIONARY
  5
6C4
102
{ACAD_REACTORS
330
C
102
}
330
C
100
AcDbDictionary
281
     1
  3
ByBlock
350
6C6
  3
ByLayer
350
6C5
  3
Global
350
6C7
  0
DICTIONARY
  5
16
102
{ACAD_REACTORS
330
C
102
}
330
C
100
AcDbDictionary
281
     1
  3
STANDARD
350
17
1001
ACAD
1000
TREAT_AS_HARD
1070
     0
1000
TREAT_AS_HARD
1070
     0
1000
TREAT_AS_HARD
1070
     0
1000
TREAT_AS_HARD
1070
     0
1000
TREAT_AS_HARD
1070
     0
1000
TREAT_AS_HARD
1070
     0
  0
DICTIONARY
  5
18
102
{ACAD_REACTORS
330
C
102
}
330
C
100
AcDbDictionary
281
     1
1001
ACAD
1000
TREAT_AS_HARD
1070
     0
1000
TREAT_AS_HARD
1070
     0
1000
TREAT_AS_HARD
1070
     0
1000
TREAT_AS_HARD
1070
     0
1000
TREAT_AS_HARD
1070
     0
1000
TREAT_AS_HARD
1070
     0
  0
ACDBDICTIONARYWDFLT
  5
6C2
102
{ACAD_REACTORS
330
C
102
}
330
C
100
AcDbDictionary
281
     1
  3
Normal
350
6C3
100
AcDbDictionaryWithDefault
340
6C3
  0
DICTIONARY
  5
6DA
102
{ACAD_REACTORS
330
C
102
}
330
C
100
AcDbDictionary
281
     1
  3
Standard
350
6DB
  0
DICTIONARY
  5
6C8
102
{ACAD_REACTORS
330
C
102
}
330
C
100
AcDbDictionary
281
     1
  3
2dWireframe
350
6CE
  3
3D Hidden
350
6D0
  3
3dWireframe
350
6CF
  3
Basic
350
6CD
  3
Brighten
350
6D4
  3
ColorChange
350
6D8
  3
Conceptual
350
6D1
  3
Dim
350
6D3
  3
Facepattern
350
6D7
  3
Flat
350
6C9
  3
FlatWithEdges
350
6CA
  3
Gouraud
350
6CB
  3
GouraudWithEdges
350
6CC
  3
Linepattern
350
6D6
  3
Realistic
350
6D2
  3
Thicken
350
6D5
  0
DICTIONARY
  5
13B0
102
{ACAD_REACTORS
330
C
102
}
330
C
100
AcDbDictionary
281
     1
  3
CTABLESTYLE
350
13B1
  3
DIMASSOC
350
13B4
  3
INDEXCTL
350
13B3
  3
SORTENTS
350
13B2
  0
XRECORD
  5
13B5
102
{ACAD_REACTORS
330
C
102
}
330
C
100
AcDbXrecord
280
     1
  1
DWGPROPS COOKIE
  2

  3

  4

  6

  7

  8
段本
  9

300
=
301
=
302
=
303
=
304
=
305
=
306
=
307
=
308
=
309
=
 40
0.0580915277777778
 41
2452128.730035996
 42
2455111.366252523
  1

 90
        0
  0
DICTIONARY
  5
6E2
102
{ACAD_REACTORS
330
6E1
102
}
330
6E1
100
AcDbDictionary
281
     1
  0
XRECORD
  5
6BE
102
{ACAD_REACTORS
330
678
102
}
330
678
100
AcDbXrecord
280
     1
340
1E
  0
XRECORD
  5
6BD
102
{ACAD_REACTORS
330
676
102
}
330
676
100
AcDbXrecord
280
     1
340
1A
  0
LAYOUT
  5
6DD
102
{ACAD_XDICTIONARY
360
13BE
102
}
102
{ACAD_REACTORS
330
6DC
102
}
330
6DC
100
AcDbPlotSettings
  1

  2
自動 RICOH IPSiO NX700 RPDL (YOUR-5FBDA9497F 上)
  4

  6

 40
0.0
 41
0.0
 42
0.0
 43
0.0
 44
0.0
 45
0.0
 46
0.0
 47
0.0
 48
0.0
 49
0.0
140
0.0
141
0.0
142
1.0
143
1.0
 70
  1712
 72
     0
 73
     0
 74
     0
  7

 75
     0
147
1.0
148
0.0
149
0.0
100
AcDbLayout
  1
Model
 70
     1
 71
     0
 10
0.0
 20
0.0
 11
12.0
 21
9.0
 12
0.0
 22
0.0
 32
0.0
 14
0.0
 24
0.0
 34
0.0
 15
0.0
 25
0.0
 35
0.0
146
0.0
 13
0.0
 23
0.0
 33
0.0
 16
1.0
 26
0.0
 36
0.0
 17
0.0
 27
1.0
 37
0.0
 76
     0
330
1E
331
6BC
  0
LAYOUT
  5
6DE
102
{ACAD_XDICTIONARY
360
13C0
102
}
102
{ACAD_REACTORS
330
6DC
102
}
330
6DC
100
AcDbPlotSettings
  1

  2
自動 RICOH IPSiO NX700 RPDL (YOUR-5FBDA9497F 上)
  4

  6

 40
0.0
 41
0.0
 42
0.0
 43
0.0
 44
0.0
 45
0.0
 46
0.0
 47
0.0
 48
0.0
 49
0.0
140
0.0
141
0.0
142
1.0
143
1.0
 70
   688
 72
     0
 73
     0
 74
     5
  7

 75
    16
147
1.0
148
0.0
149
0.0
100
AcDbLayout
  1
レイアウト1
 70
     1
 71
     1
 10
0.0
 20
0.0
 11
12.0
 21
9.0
 12
0.0
 22
0.0
 32
0.0
 14
1.000000000000000E+20
 24
1.000000000000000E+20
 34
1.000000000000000E+20
 15
-1.000000000000000E+20
 25
-1.000000000000000E+20
 35
-1.000000000000000E+20
146
0.0
 13
0.0
 23
0.0
 33
0.0
 16
1.0
 26
0.0
 36
0.0
 17
0.0
 27
1.0
 37
0.0
 76
     0
330
1A
  0
MATERIAL
  5
6C6
102
{ACAD_XDICTIONARY
360
13B8
102
}
102
{ACAD_REACTORS
330
6C4
102
}
330
6C4
100
AcDbMaterial
  1
ByBlock
  0
MATERIAL
  5
6C5
102
{ACAD_XDICTIONARY
360
13B6
102
}
102
{ACAD_REACTORS
330
6C4
102
}
330
6C4
100
AcDbMaterial
  1
ByLayer
  0
MATERIAL
  5
6C7
102
{ACAD_XDICTIONARY
360
13BA
102
}
102
{ACAD_REACTORS
330
6C4
102
}
330
6C4
100
AcDbMaterial
  1
Global
  0
MLINESTYLE
  5
17
102
{ACAD_REACTORS
330
16
102
}
330
16
100
AcDbMlineStyle
  2
STANDARD
 70
     0
  3

 62
   256
 51
90.0
 52
90.0
 71
     2
 49
0.5
 62
   256
  6
BYLAYER
 49
-0.5
 62
   256
  6
BYLAYER
  0
ACDBPLACEHOLDER
  5
6C3
102
{ACAD_REACTORS
330
6C2
102
}
330
6C2
  0
TABLESTYLE
  5
6DB
102
{ACAD_XDICTIONARY
360
13BC
102
}
102
{ACAD_REACTORS
330
6DA
102
}
330
6DA
100
AcDbTableStyle
  3
Standard
 70
     0
 71
     0
 40
0.06
 41
0.06
280
     0
281
     0
  7
STANDARD
140
0.18
170
     2
 62
     0
 63
     7
283
     0
274
    -2
284
     1
 64
     0
275
    -2
285
     1
 65
     0
276
    -2
286
     1
 66
     0
277
    -2
287
     1
 67
     0
278
    -2
288
     1
 68
     0
279
    -2
289
     1
 69
     0
  7
STANDARD
140
0.25
170
     5
 62
     0
 63
     7
283
     0
274
    -2
284
     1
 64
     0
275
    -2
285
     1
 65
     0
276
    -2
286
     1
 66
     0
277
    -2
287
     1
 67
     0
278
    -2
288
     1
 68
     0
279
    -2
289
     1
 69
     0
  7
STANDARD
140
0.18
170
     5
 62
     0
 63
     7
283
     0
274
    -2
284
     1
 64
     0
275
    -2
285
     1
 65
     0
276
    -2
286
     1
 66
     0
277
    -2
287
     1
 67
     0
278
    -2
288
     1
 68
     0
279
    -2
289
     1
 69
     0
  0
VISUALSTYLE
  5
6CE
102
{ACAD_REACTORS
330
6C8
102
}
330
6C8
100
AcDbVisualStyle
  2
2dWireframe
 70
     4
 71
     0
 72
     2
 73
     0
 90
        0
 40
-0.6
 41
-30.0
 62
     5
 63
     7
 74
     1
 91
        4
 64
     7
 65
   257
 75
     1
175
     1
 42
1.0
 92
        0
 66
   257
 43
1.0
 76
     1
 77
     6
 78
     2
 67
     7
 79
     5
170
     0
171
     0
290
     0
174
     0
 93
        1
 44
0.0
173
     0
291
     0
 45
0.0
1001
ACAD
1000
AcDbSavedByObjectVersion
1070
     0
  0
VISUALSTYLE
  5
6D0
102
{ACAD_REACTORS
330
6C8
102
}
330
6C8
100
AcDbVisualStyle
  2
3D Hidden
 70
     6
 71
     1
 72
     2
 73
     2
 90
        0
 40
-0.6
 41
-30.0
 62
     5
 63
     7
 74
     2
 91
        2
 64
     7
 65
   257
 75
     2
175
     1
 42
40.0
 92
        0
 66
   257
 43
1.0
 76
     1
 77
     6
 78
     2
 67
     7
 79
     3
170
     0
171
     0
290
     0
174
     0
 93
        1
 44
0.0
173
     0
291
     0
 45
0.0
1001
ACAD
1000
AcDbSavedByObjectVersion
1070
     0
  0
VISUALSTYLE
  5
6CF
102
{ACAD_REACTORS
330
6C8
102
}
330
6C8
100
AcDbVisualStyle
  2
3dWireframe
 70
     5
 71
     0
 72
     2
 73
     0
 90
        0
 40
-0.6
 41
-30.0
 62
     5
 63
     7
 74
     1
 91
        4
 64
     7
 65
   257
 75
     1
175
     1
 42
1.0
 92
        0
 66
   257
 43
1.0
 76
     1
 77
     6
 78
     2
 67
     7
 79
     5
170
     0
171
     0
290
     0
174
     0
 93
        1
 44
0.0
173
     0
291
     0
 45
0.0
1001
ACAD
1000
AcDbSavedByObjectVersion
1070
     0
  0
VISUALSTYLE
  5
6CD
102
{ACAD_REACTORS
330
6C8
102
}
330
6C8
100
AcDbVisualStyle
  2
Basic
 70
     7
 71
     1
 72
     0
 73
     1
 90
        0
 40
-0.6
 41
-30.0
 62
     5
 63
     7
 74
     0
 91
        4
 64
     7
 65
   257
 75
     1
175
     1
 42
1.0
 92
        8
 66
     7
 43
1.0
 76
     1
 77
     6
 78
     2
 67
     7
 79
     5
170
     0
171
     0
290
     0
174
     0
 93
        1
 44
0.0
173
     0
291
     1
 45
0.0
1001
ACAD
1000
AcDbSavedByObjectVersion
1070
     0
  0
VISUALSTYLE
  5
6D4
102
{ACAD_REACTORS
330
6C8
102
}
330
6C8
100
AcDbVisualStyle
  2
Brighten
 70
    12
 71
     2
 72
     2
 73
     0
 90
        0
 40
-0.6
 41
-30.0
 62
     5
 63
     7
 74
     1
 91
        4
 64
     7
 65
   257
 75
     1
175
     1
 42
1.0
 92
        8
 66
     7
 43
1.0
 76
     1
 77
     6
 78
     2
 67
     7
 79
     5
170
     0
171
     0
290
     0
174
     0
 93
        1
 44
50.0
173
     0
291
     1
 45
0.0
1001
ACAD
1000
AcDbSavedByObjectVersion
1070
     0
  0
VISUALSTYLE
  5
6D8
102
{ACAD_REACTORS
330
6C8
102
}
330
6C8
100
AcDbVisualStyle
  2
ColorChange
 70
    16
 71
     2
 72
     2
 73
     3
 90
        0
 40
-0.6
 41
-30.0
 62
     5
 63
     8
 74
     1
 91
        4
 64
     7
 65
   257
 75
     1
175
     1
 42
1.0
 92
        8
 66
     8
 43
1.0
 76
     1
 77
     6
 78
     2
 67
     7
 79
     5
170
     0
171
     0
290
     0
174
     0
 93
        1
 44
0.0
173
     0
291
     1
 45
0.0
1001
ACAD
1000
AcDbSavedByObjectVersion
1070
     0
  0
VISUALSTYLE
  5
6D1
102
{ACAD_REACTORS
330
6C8
102
}
330
6C8
100
AcDbVisualStyle
  2
Conceptual
 70
     9
 71
     3
 72
     2
 73
     0
 90
        0
 40
-0.6
 41
-30.0
 62
     5
 63
     7
 74
     2
 91
        2
 64
     7
 65
   257
 75
     1
175
     1
 42
40.0
 92
        8
 66
     7
 43
1.0
 76
     1
 77
     6
 78
     2
 67
     7
 79
     3
170
     0
171
     0
290
     0
174
     0
 93
        1
 44
0.0
173
     0
291
     0
 45
0.0
1001
ACAD
1000
AcDbSavedByObjectVersion
1070
     0
  0
VISUALSTYLE
  5
6D3
102
{ACAD_REACTORS
330
6C8
102
}
330
6C8
100
AcDbVisualStyle
  2
Dim
 70
    11
 71
     2
 72
     2
 73
     0
 90
        0
 40
-0.6
 41
-30.0
 62
     5
 63
     7
 74
     1
 91
        4
 64
     7
 65
   257
 75
     1
175
     1
 42
1.0
 92
        8
 66
     7
 43
1.0
 76
     1
 77
     6
 78
     2
 67
     7
 79
     5
170
     0
171
     0
290
     0
174
     0
 93
        1
 44
-50.0
173
     0
291
     1
 45
0.0
1001
ACAD
1000
AcDbSavedByObjectVersion
1070
     0
  0
VISUALSTYLE
  5
6D7
102
{ACAD_REACTORS
330
6C8
102
}
330
6C8
100
AcDbVisualStyle
  2
Facepattern
 70
    15
 71
     2
 72
     2
 73
     0
 90
        0
 40
-0.6
 41
-30.0
 62
     5
 63
     7
 74
     1
 91
        4
 64
     7
 65
   257
 75
     1
175
     1
 42
1.0
 92
        8
 66
     7
 43
1.0
 76
     1
 77
     6
 78
     2
 67
     7
 79
     5
170
     0
171
     0
290
     0
174
     0
 93
        1
 44
0.0
173
     0
291
     1
 45
0.0
1001
ACAD
1000
AcDbSavedByObjectVersion
1070
     0
  0
VISUALSTYLE
  5
6C9
102
{ACAD_REACTORS
330
6C8
102
}
330
6C8
100
AcDbVisualStyle
  2
Flat
 70
     0
 71
     2
 72
     1
 73
     1
 90
        2
 40
-0.6
 41
30.0
 62
     5
 63
     7
 74
     0
 91
        4
 64
     7
 65
   257
 75
     1
175
     1
 42
1.0
 92
        8
 66
     7
 43
1.0
 76
     1
 77
     6
 78
     2
 67
     7
 79
     5
170
     0
171
     0
290
     0
174
     0
 93
       13
 44
0.0
173
     0
291
     1
 45
0.0
1001
ACAD
1000
AcDbSavedByObjectVersion
1070
     0
  0
VISUALSTYLE
  5
6CA
102
{ACAD_REACTORS
330
6C8
102
}
330
6C8
100
AcDbVisualStyle
  2
FlatWithEdges
 70
     1
 71
     2
 72
     1
 73
     1
 90
        2
 40
-0.6
 41
30.0
 62
     5
 63
     7
 74
     1
 91
        4
 64
     7
 65
   257
 75
     1
175
     1
 42
1.0
 92
        0
 66
   257
 43
1.0
 76
     1
 77
     6
 78
     2
 67
     7
 79
     5
170
     0
171
     0
290
     0
174
     0
 93
       13
 44
0.0
173
     0
291
     1
 45
0.0
1001
ACAD
1000
AcDbSavedByObjectVersion
1070
     0
  0
VISUALSTYLE
  5
6CB
102
{ACAD_REACTORS
330
6C8
102
}
330
6C8
100
AcDbVisualStyle
  2
Gouraud
 70
     2
 71
     2
 72
     2
 73
     1
 90
        2
 40
-0.6
 41
30.0
 62
     5
 63
     7
 74
     0
 91
        4
 64
     7
 65
   257
 75
     1
175
     1
 42
1.0
 92
        0
 66
     7
 43
1.0
 76
     1
 77
     6
 78
     2
 67
     7
 79
     5
170
     0
171
     0
290
     0
174
     0
 93
       13
 44
0.0
173
     0
291
     1
 45
0.0
1001
ACAD
1000
AcDbSavedByObjectVersion
1070
     0
  0
VISUALSTYLE
  5
6CC
102
{ACAD_REACTORS
330
6C8
102
}
330
6C8
100
AcDbVisualStyle
  2
GouraudWithEdges
 70
     3
 71
     2
 72
     2
 73
     1
 90
        2
 40
-0.6
 41
30.0
 62
     5
 63
     7
 74
     1
 91
        4
 64
     7
 65
   257
 75
     1
175
     1
 42
1.0
 92
        0
 66
   257
 43
1.0
 76
     1
 77
     6
 78
     2
 67
     7
 79
     5
170
     0
171
     0
290
     0
174
     0
 93
       13
 44
0.0
173
     0
291
     1
 45
0.0
1001
ACAD
1000
AcDbSavedByObjectVersion
1070
     0
  0
VISUALSTYLE
  5
6D6
102
{ACAD_REACTORS
330
6C8
102
}
330
6C8
100
AcDbVisualStyle
  2
Linepattern
 70
    14
 71
     2
 72
     2
 73
     0
 90
        0
 40
-0.6
 41
-30.0
 62
     5
 63
     7
 74
     1
 91
        4
 64
     7
 65
   257
 75
     7
175
     7
 42
1.0
 92
        8
 66
     7
 43
1.0
 76
     1
 77
     6
 78
     2
 67
     7
 79
     5
170
     0
171
     0
290
     0
174
     0
 93
        1
 44
0.0
173
     0
291
     1
 45
0.0
1001
ACAD
1000
AcDbSavedByObjectVersion
1070
     0
  0
VISUALSTYLE
  5
6D2
102
{ACAD_REACTORS
330
6C8
102
}
330
6C8
100
AcDbVisualStyle
  2
Realistic
 70
     8
 71
     2
 72
     2
 73
     0
 90
        0
 40
-0.6
 41
-30.0
 62
     5
 63
     7
 74
     1
 91
        0
 64
     7
 65
   257
 75
     1
175
     1
 42
1.0
 92
        8
 66
     8
 43
1.0
 76
     1
 77
     6
 78
     2
 67
     7
 79
     5
170
     0
171
     0
290
     0
174
     0
 93
       13
 44
0.0
173
     0
291
     0
 45
0.0
1001
ACAD
1000
AcDbSavedByObjectVersion
1070
     0
  0
VISUALSTYLE
  5
6D5
102
{ACAD_REACTORS
330
6C8
102
}
330
6C8
100
AcDbVisualStyle
  2
Thicken
 70
    13
 71
     2
 72
     2
 73
     0
 90
        0
 40
-0.6
 41
-30.0
 62
     5
 63
     7
 74
     1
 91
        4
 64
     7
 65
   257
 75
     1
175
     1
 42
1.0
 92
       12
 66
     7
 43
1.0
 76
     1
 77
     6
 78
     2
 67
     7
 79
     5
170
     0
171
     0
290
     0
174
     0
 93
        1
 44
0.0
173
     0
291
     1
 45
0.0
1001
ACAD
1000
AcDbSavedByObjectVersion
1070
     0
  0
DICTIONARYVAR
  5
13B1
102
{ACAD_REACTORS
330
13B0
102
}
330
13B0
100
DictionaryVariables
280
     0
  1
STANDARD
  0
DICTIONARYVAR
  5
13B4
102
{ACAD_REACTORS
330
13B0
102
}
330
13B0
100
DictionaryVariables
280
     0
  1
1
  0
DICTIONARYVAR
  5
13B3
102
{ACAD_REACTORS
330
13B0
102
}
330
13B0
100
DictionaryVariables
280
     0
  1
0
  0
DICTIONARYVAR
  5
13B2
102
{ACAD_REACTORS
330
13B0
102
}
330
13B0
100
DictionaryVariables
280
     0
  1
127
  0
DICTIONARY
  5
13BE
330
6DD
100
AcDbDictionary
280
     1
281
     1
  3
ACAD_XREC_ROUNDTRIP
360
13BF
  0
DICTIONARY
  5
13C0
330
6DE
100
AcDbDictionary
280
     1
281
     1
  3
ACAD_XREC_ROUNDTRIP
360
13C1
  0
DICTIONARY
  5
13B8
330
6C6
100
AcDbDictionary
280
     1
281
     1
  3
ACAD_XREC_ROUNDTRIP
360
13B9
  0
DICTIONARY
  5
13B6
330
6C5
100
AcDbDictionary
280
     1
281
     1
  3
ACAD_XREC_ROUNDTRIP
360
13B7
  0
DICTIONARY
  5
13BA
330
6C7
100
AcDbDictionary
280
     1
281
     1
  3
ACAD_XREC_ROUNDTRIP
360
13BB
  0
DICTIONARY
  5
13BC
330
6DB
100
AcDbDictionary
280
     1
281
     1
  3
ACAD_XREC_ROUNDTRIP
360
13BD
  0
XRECORD
  5
13BF
102
{ACAD_REACTORS
330
13BE
102
}
330
13BE
100
AcDbXrecord
280
     1
102
SHADEPLOT
 70
     0
102
SHADEPLOTRESLEVEL
 70
     2
102
SHADEPLOTCUSTOMDPI
 70
   300
  0
XRECORD
  5
13C1
102
{ACAD_REACTORS
330
13C0
102
}
330
13C0
100
AcDbXrecord
280
     1
102
SHADEPLOT
 70
     0
102
SHADEPLOTRESLEVEL
 70
     2
102
SHADEPLOTCUSTOMDPI
 70
   300
  0
XRECORD
  5
13B9
102
{ACAD_REACTORS
330
13B8
102
}
330
13B8
100
AcDbXrecord
280
     1
102
MATERIAL
148
0.0
149
0.0
149
0.0
 93
        0
 94
       63
282
     0
 72
     1
 77
     1
171
     1
175
     1
179
     1
273
     0
  0
XRECORD
  5
13B7
102
{ACAD_REACTORS
330
13B6
102
}
330
13B6
100
AcDbXrecord
280
     1
102
MATERIAL
148
0.0
149
0.0
149
0.0
 93
        0
 94
       63
282
     0
 72
     1
 77
     1
171
     1
175
     1
179
     1
273
     0
  0
XRECORD
  5
13BB
102
{ACAD_REACTORS
330
13BA
102
}
330
13BA
100
AcDbXrecord
280
     1
102
MATERIAL
148
0.0
149
0.0
149
0.0
 93
        0
 94
       63
282
     0
 72
     1
 77
     1
171
     1
175
     1
179
     1
273
     0
  0
XRECORD
  5
13BD
102
{ACAD_REACTORS
330
13BC
102
}
330
13BC
100
AcDbXrecord
280
     1
102
ACAD_ROUNDTRIP_PRE2007_TABLESTYLE
 90
      512
 91
        0
  1

 92
      512
 93
        0
  2

 94
      512
 95
        0
  3

  0
ENDSEC
  0
EOF
