  0
SECTION
  2
HEADER
  9
$ACADVER
  1
AC1015
  9
$ACADMAINTVER
 70
    20
  9
$DWGCODEPAGE
  3
ANSI_932
  9
$INSBASE
 10
0.0
 20
0.0
 30
0.0
  9
$EXTMIN
 10
-0.6221634862486099
 20
-0.1518940982477943
 30
-0.0000000000000058
  9
$EXTMAX
 10
10775.62889054568
 20
7695.847239154208
 30
0.0000000000000104
  9
$LIMMIN
 10
-297.0
 20
-210.0
  9
$LIMMAX
 10
297.0
 20
210.0
  9
$ORTHOMODE
 70
     1
  9
$REGENMODE
 70
     1
  9
$FILLMODE
 70
     1
  9
$QTEXTMODE
 70
     0
  9
$MIRRTEXT
 70
     1
  9
$LTSCALE
 40
100.0
  9
$ATTMODE
 70
     1
  9
$TEXTSIZE
 40
1.0
  9
$TRACEWID
 40
0.05
  9
$TEXTSTYLE
  7
BIGFONT
  9
$CLAYER
  8
0
  9
$CELTYPE
  6
CONTINUOUS
  9
$CECOLOR
 62
   256
  9
$CELTSCALE
 40
1.0
  9
$DISPSILH
 70
     0
  9
$DIMSCALE
 40
1.0
  9
$DIMASZ
 40
0.18
  9
$DIMEXO
 40
0.0625
  9
$DIMDLI
 40
0.38
  9
$DIMRND
 40
0.0
  9
$DIMDLE
 40
0.0
  9
$DIMEXE
 40
0.18
  9
$DIMTP
 40
0.0
  9
$DIMTM
 40
0.0
  9
$DIMTXT
 40
0.18
  9
$DIMCEN
 40
0.09
  9
$DIMTSZ
 40
0.0
  9
$DIMTOL
 70
     0
  9
$DIMLIM
 70
     0
  9
$DIMTIH
 70
     1
  9
$DIMTOH
 70
     1
  9
$DIMSE1
 70
     0
  9
$DIMSE2
 70
     0
  9
$DIMTAD
 70
     0
  9
$DIMZIN
 70
     0
  9
$DIMBLK
  1

  9
$DIMASO
 70
     1
  9
$DIMSHO
 70
     1
  9
$DIMPOST
  1

  9
$DIMAPOST
  1

  9
$DIMALT
 70
     0
  9
$DIMALTD
 70
     2
  9
$DIMALTF
 40
25.4
  9
$DIMLFAC
 40
1.0
  9
$DIMTOFL
 70
     0
  9
$DIMTVP
 40
0.0
  9
$DIMTIX
 70
     0
  9
$DIMSOXD
 70
     0
  9
$DIMSAH
 70
     0
  9
$DIMBLK1
  1

  9
$DIMBLK2
  1

  9
$DIMSTYLE
  2
STANDARD
  9
$DIMCLRD
 70
     0
  9
$DIMCLRE
 70
     0
  9
$DIMCLRT
 70
     0
  9
$DIMTFAC
 40
1.0
  9
$DIMGAP
 40
0.09
  9
$DIMJUST
 70
     0
  9
$DIMSD1
 70
     0
  9
$DIMSD2
 70
     0
  9
$DIMTOLJ
 70
     1
  9
$DIMTZIN
 70
     0
  9
$DIMALTZ
 70
     0
  9
$DIMALTTZ
 70
     0
  9
$DIMUPT
 70
     0
  9
$DIMDEC
 70
     4
  9
$DIMTDEC
 70
     4
  9
$DIMALTU
 70
     2
  9
$DIMALTTD
 70
     2
  9
$DIMTXSTY
  7
STANDARD
  9
$DIMAUNIT
 70
     0
  9
$DIMADEC
 70
     0
  9
$DIMALTRND
 40
0.0
  9
$DIMAZIN
 70
     0
  9
$DIMDSEP
 70
    46
  9
$DIMATFIT
 70
     3
  9
$DIMFRAC
 70
     0
  9
$DIMLDRBLK
  1

  9
$DIMLUNIT
 70
     2
  9
$DIMLWD
 70
    -2
  9
$DIMLWE
 70
    -2
  9
$DIMTMOVE
 70
     0
  9
$LUNITS
 70
     2
  9
$LUPREC
 70
     4
  9
$SKETCHINC
 40
0.1
  9
$FILLETRAD
 40
0.0
  9
$AUNITS
 70
     0
  9
$AUPREC
 70
     0
  9
$MENU
  1
.
  9
$ELEVATION
 40
0.0
  9
$PELEVATION
 40
0.0
  9
$THICKNESS
 40
0.0
  9
$LIMCHECK
 70
     0
  9
$CHAMFERA
 40
0.0
  9
$CHAMFERB
 40
0.0
  9
$CHAMFERC
 40
0.0
  9
$CHAMFERD
 40
0.0
  9
$SKPOLY
 70
     0
  9
$TDCREATE
 40
2452128.680599306
  9
$TDUCREATE
 40
2452128.305599306
  9
$TDUPDATE
 40
2455111.367118055
  9
$TDUUPDATE
 40
2455110.992118056
  9
$TDINDWG
 40
0.0451559954
  9
$TDUSRTIMER
 40
0.0451538542
  9
$USRTIMER
 70
     1
  9
$ANGBASE
 50
0.0
  9
$ANGDIR
 70
     0
  9
$PDMODE
 70
     0
  9
$PDSIZE
 40
0.0
  9
$PLINEWID
 40
0.0
  9
$SPLFRAME
 70
     0
  9
$SPLINETYPE
 70
     6
  9
$SPLINESEGS
 70
     8
  9
$HANDSEED
  5
1255
  9
$SURFTAB1
 70
     6
  9
$SURFTAB2
 70
     6
  9
$SURFTYPE
 70
     6
  9
$SURFU
 70
     6
  9
$SURFV
 70
     6
  9
$UCSBASE
  2

  9
$UCSNAME
  2

  9
$UCSORG
 10
0.0
 20
0.0
 30
0.0
  9
$UCSXDIR
 10
1.0
 20
0.0
 30
0.0
  9
$UCSYDIR
 10
0.0
 20
1.0
 30
0.0
  9
$UCSORTHOREF
  2

  9
$UCSORTHOVIEW
 70
     0
  9
$UCSORGTOP
 10
0.0
 20
0.0
 30
0.0
  9
$UCSORGBOTTOM
 10
0.0
 20
0.0
 30
0.0
  9
$UCSORGLEFT
 10
0.0
 20
0.0
 30
0.0
  9
$UCSORGRIGHT
 10
0.0
 20
0.0
 30
0.0
  9
$UCSORGFRONT
 10
0.0
 20
0.0
 30
0.0
  9
$UCSORGBACK
 10
0.0
 20
0.0
 30
0.0
  9
$PUCSBASE
  2

  9
$PUCSNAME
  2

  9
$PUCSORG
 10
0.0
 20
0.0
 30
0.0
  9
$PUCSXDIR
 10
1.0
 20
0.0
 30
0.0
  9
$PUCSYDIR
 10
0.0
 20
1.0
 30
0.0
  9
$PUCSORTHOREF
  2

  9
$PUCSORTHOVIEW
 70
     0
  9
$PUCSORGTOP
 10
0.0
 20
0.0
 30
0.0
  9
$PUCSORGBOTTOM
 10
0.0
 20
0.0
 30
0.0
  9
$PUCSORGLEFT
 10
0.0
 20
0.0
 30
0.0
  9
$PUCSORGRIGHT
 10
0.0
 20
0.0
 30
0.0
  9
$PUCSORGFRONT
 10
0.0
 20
0.0
 30
0.0
  9
$PUCSORGBACK
 10
0.0
 20
0.0
 30
0.0
  9
$USERI1
 70
     0
  9
$USERI2
 70
     0
  9
$USERI3
 70
     0
  9
$USERI4
 70
     0
  9
$USERI5
 70
     0
  9
$USERR1
 40
0.0
  9
$USERR2
 40
0.0
  9
$USERR3
 40
0.0
  9
$USERR4
 40
0.0
  9
$USERR5
 40
0.0
  9
$WORLDVIEW
 70
     1
  9
$SHADEDGE
 70
     3
  9
$SHADEDIF
 70
    70
  9
$TILEMODE
 70
     1
  9
$MAXACTVP
 70
    64
  9
$PINSBASE
 10
0.0
 20
0.0
 30
0.0
  9
$PLIMCHECK
 70
     0
  9
$PEXTMIN
 10
1.000000000000000E+20
 20
1.000000000000000E+20
 30
1.000000000000000E+20
  9
$PEXTMAX
 10
-1.000000000000000E+20
 20
-1.000000000000000E+20
 30
-1.000000000000000E+20
  9
$PLIMMIN
 10
0.0
 20
0.0
  9
$PLIMMAX
 10
12.0
 20
9.0
  9
$UNITMODE
 70
     0
  9
$VISRETAIN
 70
     1
  9
$PLINEGEN
 70
     0
  9
$PSLTSCALE
 70
     1
  9
$TREEDEPTH
 70
  3020
  9
$CMLSTYLE
  2
STANDARD
  9
$CMLJUST
 70
     0
  9
$CMLSCALE
 40
1.0
  9
$PROXYGRAPHICS
 70
     1
  9
$MEASUREMENT
 70
     0
  9
$CELWEIGHT
370
    -1
  9
$ENDCAPS
280
     0
  9
$JOINSTYLE
280
     0
  9
$LWDISPLAY
290
     0
  9
$INSUNITS
 70
     0
  9
$HYPERLINKBASE
  1

  9
$STYLESHEET
  1

  9
$XEDIT
290
     1
  9
$CEPSNTYPE
380
     0
  9
$PSTYLEMODE
290
     1
  9
$FINGERPRINTGUID
  2
{BD4A1695-B130-486C-99B4-E0FEED1A1051}
  9
$VERSIONGUID
  2
{720951E9-CF84-4A51-8C8A-C61C8B9CD8BE}
  9
$EXTNAMES
290
     1
  9
$PSVPSCALE
 40
0.0
  9
$OLESTARTUP
290
     0
  0
ENDSEC
  0
SECTION
  2
CLASSES
  0
CLASS
  1
ACDBDICTIONARYWDFLT
  2
AcDbDictionaryWithDefault
  3
ObjectDBX Classes
 90
        0
280
     0
281
     0
  0
CLASS
  1
ACDBPLACEHOLDER
  2
AcDbPlaceHolder
  3
ObjectDBX Classes
 90
        0
280
     0
281
     0
  0
CLASS
  1
LAYOUT
  2
AcDbLayout
  3
ObjectDBX Classes
 90
        0
280
     0
281
     0
  0
CLASS
  1
DICTIONARYVAR
  2
AcDbDictionaryVar
  3
ObjectDBX Classes
 90
        0
280
     0
281
     0
  0
CLASS
  1
MATERIAL
  2
AcDbMaterial
  3
ObjectDBX Classes
 90
     1153
280
     0
281
     0
  0
CLASS
  1
VISUALSTYLE
  2
AcDbVisualStyle
  3
ObjectDBX Classes
 90
     4095
280
     0
281
     0
  0
CLASS
  1
TABLESTYLE
  2
AcDbTableStyle
  3
ObjectDBX Classes
 90
     4095
280
     0
281
     0
  0
CLASS
  1
SORTENTSTABLE
  2
AcDbSortentsTable
  3
ObjectDBX Classes
 90
        0
280
     0
281
     0
  0
ENDSEC
  0
SECTION
  2
TABLES
  0
TABLE
  2
VPORT
  5
8
330
0
100
AcDbSymbolTable
 70
     1
  0
VPORT
  5
66C
330
8
100
AcDbSymbolTableRecord
100
AcDbViewportTableRecord
  2
*ACTIVE
 70
     0
 10
0.0
 20
0.0
 11
1.0
 21
1.0
 12
5387.503363529718
 22
3847.847672527981
 13
0.0
 23
0.0
 14
1.0
 24
1.0
 15
0.0
 25
0.0
 16
0.0
 26
0.0
 36
1.0
 17
0.0
 27
0.0
 37
0.0
 40
8142.177631491909
 41
1.331536388140161
 42
50.0
 43
0.0
 44
0.0
 50
0.0
 51
0.0
 71
     0
 72
   100
 73
     1
 74
     1
 75
     0
 76
     0
 77
     0
 78
     0
281
     0
 65
     1
110
0.0
120
0.0
130
0.0
111
1.0
121
0.0
131
0.0
112
0.0
122
1.0
132
0.0
 79
     0
146
0.0
  0
ENDTAB
  0
TABLE
  2
LTYPE
  5
5
330
0
100
AcDbSymbolTable
 70
     5
  0
LTYPE
  5
13
330
5
100
AcDbSymbolTableRecord
100
AcDbLinetypeTableRecord
  2
BYBLOCK
 70
     0
  3

 72
    65
 73
     0
 40
0.0
  0
LTYPE
  5
14
330
5
100
AcDbSymbolTableRecord
100
AcDbLinetypeTableRecord
  2
BYLAYER
 70
     0
  3

 72
    65
 73
     0
 40
0.0
  0
LTYPE
  5
15
330
5
100
AcDbSymbolTableRecord
100
AcDbLinetypeTableRecord
  2
CONTINUOUS
 70
     0
  3
実線
 72
    65
 73
     0
 40
0.0
  0
LTYPE
  5
23
330
5
100
AcDbSymbolTableRecord
100
AcDbLinetypeTableRecord
  2
HIDDEN
 70
     0
  3
_ _ _ _ _ _ _ _ _ _ _ _ _ _ _ _ _ _ _ _ _ _ _
 72
    65
 73
     2
 40
0.375
 49
0.25
 74
     0
 49
-0.125
 74
     0
  0
LTYPE
  5
24
330
5
100
AcDbSymbolTableRecord
100
AcDbLinetypeTableRecord
  2
DASHED
 70
     0
  3
__ __ __ __ __ __ __ __ __ __ __ __ __ __ __
 72
    65
 73
     2
 40
0.75
 49
0.5
 74
     0
 49
-0.25
 74
     0
  0
LTYPE
  5
25
330
5
100
AcDbSymbolTableRecord
100
AcDbLinetypeTableRecord
  2
CENTER
 70
     0
  3
____ _ ____ _ ____ _ ____ _ ____ _ ____ _ ____
 72
    65
 73
     4
 40
2.0
 49
1.25
 74
     0
 49
-0.25
 74
     0
 49
0.25
 74
     0
 49
-0.25
 74
     0
  0
LTYPE
  5
26
330
5
100
AcDbSymbolTableRecord
100
AcDbLinetypeTableRecord
  2
PHANTOM
 70
     0
  3
_____ _ _ _____ _ _ _____ _ _ _____ _ _ ____
 72
    65
 73
     6
 40
2.5
 49
1.25
 74
     0
 49
-0.25
 74
     0
 49
0.25
 74
     0
 49
-0.25
 74
     0
 49
0.25
 74
     0
 49
-0.25
 74
     0
  0
ENDTAB
  0
TABLE
  2
LAYER
  5
2
330
0
100
AcDbSymbolTable
 70
     4
  0
LAYER
  5
10
330
2
100
AcDbSymbolTableRecord
100
AcDbLayerTableRecord
  2
0
 70
     0
 62
     7
  6
CONTINUOUS
370
    -3
390
673
  0
LAYER
  5
27
330
2
100
AcDbSymbolTableRecord
100
AcDbLayerTableRecord
  2
1
 70
     0
 62
     7
  6
CONTINUOUS
370
    -3
390
673
  0
LAYER
  5
28
330
2
100
AcDbSymbolTableRecord
100
AcDbLayerTableRecord
  2
2
 70
     0
 62
     7
  6
CONTINUOUS
370
    -3
390
673
  0
LAYER
  5
29
330
2
100
AcDbSymbolTableRecord
100
AcDbLayerTableRecord
  2
3
 70
     0
 62
     7
  6
CONTINUOUS
370
    -3
390
673
  0
ENDTAB
  0
TABLE
  2
STYLE
  5
3
330
0
100
AcDbSymbolTable
 70
     2
  0
STYLE
  5
11
330
3
100
AcDbSymbolTableRecord
100
AcDbTextStyleTableRecord
  2
STANDARD
 70
     0
 40
0.0
 41
1.0
 50
0.0
 71
     0
 42
0.2
  3
txt
  4

  0
STYLE
  5
22
330
3
100
AcDbSymbolTableRecord
100
AcDbTextStyleTableRecord
  2
BIGFONT
 70
     0
 40
0.0
 41
1.0
 50
0.0
 71
     0
 42
1.0
  3

  4
bigfont
  0
ENDTAB
  0
TABLE
  2
VIEW
  5
6
330
0
100
AcDbSymbolTable
 70
     0
  0
ENDTAB
  0
TABLE
  2
UCS
  5
7
330
0
100
AcDbSymbolTable
 70
     0
  0
ENDTAB
  0
TABLE
  2
APPID
  5
9
330
0
100
AcDbSymbolTable
 70
     1
  0
APPID
  5
12
330
9
100
AcDbSymbolTableRecord
100
AcDbRegAppTableRecord
  2
ACAD
 70
     0
  0
ENDTAB
  0
TABLE
  2
DIMSTYLE
  5
A
330
0
100
AcDbSymbolTable
 70
     1
100
AcDbDimStyleTable
 71
     0
  0
DIMSTYLE
105
5EC
330
A
100
AcDbSymbolTableRecord
100
AcDbDimStyleTableRecord
  2
STANDARD
 70
     0
340
11
  0
ENDTAB
  0
TABLE
  2
BLOCK_RECORD
  5
1
330
0
100
AcDbSymbolTable
 70
     1
  0
BLOCK_RECORD
  5
1E
102
{ACAD_XDICTIONARY
360
5F2
102
}
330
1
100
AcDbSymbolTableRecord
100
AcDbBlockTableRecord
  2
*MODEL_SPACE
340
68D
  0
BLOCK_RECORD
  5
1A
102
{ACAD_XDICTIONARY
360
5F0
102
}
330
1
100
AcDbSymbolTableRecord
100
AcDbBlockTableRecord
  2
*PAPER_SPACE
340
68E
  0
ENDTAB
  0
ENDSEC
  0
SECTION
  2
BLOCKS
  0
BLOCK
  5
1F
330
1E
100
AcDbEntity
  8
0
100
AcDbBlockBegin
  2
*MODEL_SPACE
 70
     0
 10
0.0
 20
0.0
 30
0.0
  3
*MODEL_SPACE
  1

  0
ENDBLK
  5
20
330
1E
100
AcDbEntity
  8
0
100
AcDbBlockEnd
  0
BLOCK
  5
1B
330
1A
100
AcDbEntity
 67
     1
  8
0
100
AcDbBlockBegin
  2
*PAPER_SPACE
 70
     0
 10
0.0
 20
0.0
 30
0.0
  3
*PAPER_SPACE
  1

  0
ENDBLK
  5
1C
330
1A
100
AcDbEntity
 67
     1
  8
0
100
AcDbBlockEnd
  0
ENDSEC
  0
SECTION
  2
ENTITIES
  0
LINE
  5
C6D
330
1E
100
AcDbEntity
  8
0
  6
Continuous
 62
     7
370
    13
100
AcDbLine
 10
8389.961000000001
 20
4857.363999999999
 30
0.0
 11
8389.961000000001
 21
5095.364
 31
0.0
  0
LINE
  5
C6E
330
1E
100
AcDbEntity
  8
0
  6
Continuous
 62
     7
370
    13
100
AcDbLine
 10
8389.961000000001
 20
5095.364
 30
0.0
 11
8392.960999999997
 21
5098.364000000001
 31
0.0
  0
LINE
  5
C6F
330
1E
100
AcDbEntity
  8
0
  6
Continuous
 62
     7
370
    13
100
AcDbLine
 10
8392.960999999997
 20
5098.364000000001
 30
0.0
 11
8392.960999999997
 21
5440.001999999998
 31
0.0
  0
LINE
  5
C70
330
1E
100
AcDbEntity
  8
0
  6
Continuous
 62
     7
370
    13
100
AcDbLine
 10
8389.961000000001
 20
5443.002
 30
0.0
 11
8392.960999999997
 21
5440.001999999998
 31
0.0
  0
LINE
  5
C71
330
1E
100
AcDbEntity
  8
0
  6
Continuous
 62
     7
370
    13
100
AcDbLine
 10
8389.961000000001
 20
5443.002
 30
0.0
 11
8389.961000000001
 21
5845.364
 31
0.0
  0
LINE
  5
C72
330
1E
100
AcDbEntity
  8
0
  6
Continuous
 62
     7
370
    13
100
AcDbLine
 10
8389.961000000001
 20
5845.364
 30
0.0
 11
10384.96099999999
 21
5845.364
 31
0.0
  0
LINE
  5
C73
330
1E
100
AcDbEntity
  8
0
  6
Continuous
 62
     7
370
    13
100
AcDbLine
 10
8401.960999999998
 20
4845.364
 30
0.0
 11
10372.96099999999
 21
4845.364
 31
0.0
  0
LINE
  5
C74
330
1E
100
AcDbEntity
  8
0
  6
Continuous
 62
     7
370
    13
100
AcDbLine
 10
8389.961000000001
 20
4933.002
 30
0.0
 11
10384.96099999999
 21
4933.002
 31
0.0
  0
LINE
  5
C75
330
1E
100
AcDbEntity
  8
0
  6
Continuous
 62
     7
370
    13
100
AcDbLine
 10
8389.961000000001
 20
4965.227999999999
 30
0.0
 11
10384.96099999999
 21
4965.227999999999
 31
0.0
  0
LINE
  5
C76
330
1E
100
AcDbEntity
  8
0
  6
Continuous
 62
     7
370
    13
100
AcDbLine
 10
8392.960999999997
 20
5018.002
 30
0.0
 11
10381.96099999999
 21
5018.002
 31
0.0
  0
LINE
  5
C77
330
1E
100
AcDbEntity
  8
0
  6
Continuous
 62
     7
370
    13
100
AcDbLine
 10
8389.961000000001
 20
4857.363999999999
 30
0.0
 11
8401.960999999998
 21
4845.364
 31
0.0
  0
LINE
  5
C78
330
1E
100
AcDbEntity
  8
0
  6
Continuous
 62
     7
370
    13
100
AcDbLine
 10
8775.674999999997
 20
5345.363999999999
 30
0.0
 11
8964.199999999999
 21
5345.363999999999
 31
0.0
  0
LINE
  5
C79
330
1E
100
AcDbEntity
  8
0
  6
Continuous
 62
     7
370
    13
100
AcDbLine
 10
8395.960999999998
 20
5480.363999999998
 30
0.0
 11
8395.960999999998
 21
5550.363999999999
 31
0.0
  0
LINE
  5
C7A
330
1E
100
AcDbEntity
  8
0
  6
Continuous
 62
     7
370
    13
100
AcDbLine
 10
8395.960999999998
 20
5480.363999999998
 30
0.0
 11
8475.960999999998
 21
5480.363999999998
 31
0.0
  0
LINE
  5
C7B
330
1E
100
AcDbEntity
  8
0
  6
Continuous
 62
     7
370
    13
100
AcDbLine
 10
8475.960999999998
 20
5480.363999999998
 30
0.0
 11
8475.960999999998
 21
5550.363999999999
 31
0.0
  0
LINE
  5
C7C
330
1E
100
AcDbEntity
  8
0
  6
Continuous
 62
     7
370
    13
100
AcDbLine
 10
8395.960999999998
 20
5550.363999999999
 30
0.0
 11
8475.960999999998
 21
5550.363999999999
 31
0.0
  0
LINE
  5
C7D
330
1E
100
AcDbEntity
  8
0
  6
Continuous
 62
     7
370
    13
100
AcDbLine
 10
8357.707999999993
 20
5515.364
 30
0.0
 11
8511.802999999995
 21
5515.364
 31
0.0
  0
LINE
  5
C7E
330
1E
100
AcDbEntity
  8
0
  6
Continuous
 62
     7
370
    13
100
AcDbLine
 10
10378.96099999999
 20
5480.363999999998
 30
0.0
 11
10378.96099999999
 21
5550.363999999999
 31
0.0
  0
LINE
  5
C7F
330
1E
100
AcDbEntity
  8
0
  6
Continuous
 62
     7
370
    13
100
AcDbLine
 10
10298.96099999999
 20
5550.363999999999
 30
0.0
 11
10378.96099999999
 21
5550.363999999999
 31
0.0
  0
LINE
  5
C80
330
1E
100
AcDbEntity
  8
0
  6
Continuous
 62
     7
370
    13
100
AcDbLine
 10
10298.96099999999
 20
5480.363999999998
 30
0.0
 11
10298.96099999999
 21
5550.363999999999
 31
0.0
  0
LINE
  5
C81
330
1E
100
AcDbEntity
  8
0
  6
Continuous
 62
     7
370
    13
100
AcDbLine
 10
10298.96099999999
 20
5480.363999999998
 30
0.0
 11
10378.96099999999
 21
5480.363999999998
 31
0.0
  0
LINE
  5
C82
330
1E
100
AcDbEntity
  8
0
  6
Continuous
 62
     7
370
    13
100
AcDbLine
 10
10263.119
 20
5515.364
 30
0.0
 11
10417.214
 21
5515.364
 31
0.0
  0
LINE
  5
C83
330
1E
100
AcDbEntity
  8
0
  6
Continuous
 62
     7
370
    13
100
AcDbLine
 10
987.5
 20
1050.226000000002
 30
0.0
 11
987.5
 21
3045.226000000001
 31
0.0
  0
LINE
  5
C84
330
1E
100
AcDbEntity
  8
0
  6
Continuous
 62
     7
370
    13
100
AcDbLine
 10
987.5
 20
1050.226000000002
 30
0.0
 11
1487.5
 21
1050.226000000002
 31
0.0
  0
LINE
  5
C85
330
1E
100
AcDbEntity
  8
0
  6
Continuous
 62
     7
370
    13
100
AcDbLine
 10
1487.5
 20
1050.226000000002
 30
0.0
 11
1490.500000000002
 21
1053.226000000002
 31
0.0
  0
LINE
  5
C86
330
1E
100
AcDbEntity
  8
0
  6
Continuous
 62
     7
370
    13
100
AcDbLine
 10
1490.500000000002
 20
1053.226000000002
 30
0.0
 11
1737.5
 21
1053.226000000002
 31
0.0
  0
LINE
  5
C87
330
1E
100
AcDbEntity
  8
0
  6
Continuous
 62
     7
370
    13
100
AcDbLine
 10
1737.5
 20
1053.226000000002
 30
0.0
 11
1737.5
 21
3042.226000000001
 31
0.0
  0
LINE
  5
C88
330
1E
100
AcDbEntity
  8
0
  6
Continuous
 62
     7
370
    13
100
AcDbLine
 10
1490.500000000002
 20
3042.226000000001
 30
0.0
 11
1737.5
 21
3042.226000000001
 31
0.0
  0
LINE
  5
C89
330
1E
100
AcDbEntity
  8
0
  6
Continuous
 62
     7
370
    13
100
AcDbLine
 10
1487.5
 20
3045.226000000001
 30
0.0
 11
1490.500000000002
 21
3042.226000000001
 31
0.0
  0
LINE
  5
C8A
330
1E
100
AcDbEntity
  8
0
  6
Continuous
 62
     7
370
    13
100
AcDbLine
 10
987.5
 20
3045.226000000001
 30
0.0
 11
1487.5
 21
3045.226000000001
 31
0.0
  0
LINE
  5
C8B
330
1E
100
AcDbEntity
  8
0
  6
Continuous
 62
     7
370
    13
100
AcDbLine
 10
1432.499999999996
 20
3002.226000000001
 30
0.0
 11
1432.499999999996
 21
3042.226000000001
 31
0.0
  0
LINE
  5
C8C
330
1E
100
AcDbEntity
  8
0
  6
Continuous
 62
     7
370
    13
100
AcDbLine
 10
1342.500000000002
 20
3042.226000000001
 30
0.0
 11
1432.499999999996
 21
3042.226000000001
 31
0.0
  0
LINE
  5
C8D
330
1E
100
AcDbEntity
  8
0
  6
Continuous
 62
     7
370
    13
100
AcDbLine
 10
1342.500000000002
 20
3002.226000000001
 30
0.0
 11
1342.500000000002
 21
3042.226000000001
 31
0.0
  0
LINE
  5
C8E
330
1E
100
AcDbEntity
  8
0
  6
Continuous
 62
     7
370
    13
100
AcDbLine
 10
1332.500000000002
 20
2832.226000000001
 30
0.0
 11
1332.500000000002
 21
3032.226000000001
 31
0.0
  0
LINE
  5
C8F
330
1E
100
AcDbEntity
  8
0
  6
Continuous
 62
     7
370
    13
100
AcDbLine
 10
1442.5
 20
2832.226000000001
 30
0.0
 11
1442.5
 21
3032.226000000001
 31
0.0
  0
LINE
  5
C90
330
1E
100
AcDbEntity
  8
0
  6
HIDDEN
 62
     7
370
    13
100
AcDbLine
 10
1387.5
 20
2950.292
 30
0.0
 11
1387.5
 21
3094.882
 31
0.0
  0
LINE
  5
C91
330
1E
100
AcDbEntity
  8
0
  6
Continuous
 62
     7
370
    13
100
AcDbLine
 10
3040.0
 20
4857.363999999999
 30
0.0
 11
3040.0
 21
5155.363999999998
 31
0.0
  0
LINE
  5
C92
330
1E
100
AcDbEntity
  8
0
  6
Continuous
 62
     7
370
    13
100
AcDbLine
 10
3040.0
 20
5155.363999999998
 30
0.0
 11
3043.0
 21
5158.364
 31
0.0
  0
LINE
  5
C93
330
1E
100
AcDbEntity
  8
0
  6
Continuous
 62
     7
370
    13
100
AcDbLine
 10
3043.0
 20
5158.364
 30
0.0
 11
3043.0
 21
5442.363999999998
 31
0.0
  0
LINE
  5
C94
330
1E
100
AcDbEntity
  8
0
  6
Continuous
 62
     7
370
    13
100
AcDbLine
 10
3040.0
 20
5445.363999999998
 30
0.0
 11
3043.0
 21
5442.363999999998
 31
0.0
  0
LINE
  5
C95
330
1E
100
AcDbEntity
  8
0
  6
Continuous
 62
     7
370
    13
100
AcDbLine
 10
3040.0
 20
5445.363999999998
 30
0.0
 11
3040.0
 21
5845.364
 31
0.0
  0
LINE
  5
C96
330
1E
100
AcDbEntity
  8
0
  6
Continuous
 62
     7
370
    13
100
AcDbLine
 10
3040.0
 20
5845.364
 30
0.0
 11
5035.000000000002
 21
5845.364
 31
0.0
  0
LINE
  5
C97
330
1E
100
AcDbEntity
  8
0
  6
Continuous
 62
     7
370
    13
100
AcDbLine
 10
5035.000000000002
 20
5445.363999999998
 30
0.0
 11
5035.000000000002
 21
5845.364
 31
0.0
  0
LINE
  5
C98
330
1E
100
AcDbEntity
  8
0
  6
Continuous
 62
     7
370
    13
100
AcDbLine
 10
5031.999999999999
 20
5442.363999999998
 30
0.0
 11
5035.000000000002
 21
5445.363999999998
 31
0.0
  0
LINE
  5
C99
330
1E
100
AcDbEntity
  8
0
  6
Continuous
 62
     7
370
    13
100
AcDbLine
 10
5031.999999999999
 20
5158.364
 30
0.0
 11
5031.999999999999
 21
5442.363999999998
 31
0.0
  0
LINE
  5
C9A
330
1E
100
AcDbEntity
  8
0
  6
Continuous
 62
     7
370
    13
100
AcDbLine
 10
5031.999999999999
 20
5158.364
 30
0.0
 11
5035.000000000002
 21
5155.363999999998
 31
0.0
  0
LINE
  5
C9B
330
1E
100
AcDbEntity
  8
0
  6
Continuous
 62
     7
370
    13
100
AcDbLine
 10
5035.000000000002
 20
4857.363999999999
 30
0.0
 11
5035.000000000002
 21
5155.363999999998
 31
0.0
  0
LINE
  5
C9C
330
1E
100
AcDbEntity
  8
0
  6
Continuous
 62
     7
370
    13
100
AcDbLine
 10
3052.0
 20
4845.364
 30
0.0
 11
5023.000000000002
 21
4845.364
 31
0.0
  0
LINE
  5
C9D
330
1E
100
AcDbEntity
  8
0
  6
Continuous
 62
     7
370
    13
100
AcDbLine
 10
3040.0
 20
4857.363999999999
 30
0.0
 11
3052.0
 21
4845.364
 31
0.0
  0
LINE
  5
C9E
330
1E
100
AcDbEntity
  8
0
  6
Continuous
 62
     7
370
    13
100
AcDbLine
 10
5023.000000000002
 20
4845.364
 30
0.0
 11
5035.000000000002
 21
4857.363999999999
 31
0.0
  0
LINE
  5
C9F
330
1E
100
AcDbEntity
  8
0
  6
Continuous
 62
     7
370
    13
100
AcDbLine
 10
3043.0
 20
5560.363999999998
 30
0.0
 11
3083.000000000002
 21
5560.363999999998
 31
0.0
  0
LINE
  5
CA0
330
1E
100
AcDbEntity
  8
0
  6
Continuous
 62
     7
370
    13
100
AcDbLine
 10
3043.0
 20
5470.364
 30
0.0
 11
3043.0
 21
5560.363999999998
 31
0.0
  0
LINE
  5
CA1
330
1E
100
AcDbEntity
  8
0
  6
Continuous
 62
     7
370
    13
100
AcDbLine
 10
3043.0
 20
5470.364
 30
0.0
 11
3083.000000000002
 21
5470.364
 31
0.0
  0
LINE
  5
CA2
330
1E
100
AcDbEntity
  8
0
  6
Continuous
 62
     7
370
    13
100
AcDbLine
 10
3053.000000000002
 20
5460.363999999998
 30
0.0
 11
3252.999999999998
 21
5460.363999999998
 31
0.0
  0
LINE
  5
CA3
330
1E
100
AcDbEntity
  8
0
  6
Continuous
 62
     7
370
    13
100
AcDbLine
 10
3053.000000000002
 20
5570.364000000001
 30
0.0
 11
3252.999999999998
 21
5570.364000000001
 31
0.0
  0
LINE
  5
CA4
330
1E
100
AcDbEntity
  8
0
  6
Continuous
 62
     7
370
    13
100
AcDbLine
 10
6437.499999999999
 20
6189.120999999997
 30
0.0
 11
6557.500000000001
 21
6189.120999999997
 31
0.0
  0
LINE
  5
CA5
330
1E
100
AcDbEntity
  8
0
  6
Continuous
 62
     7
370
    13
100
AcDbLine
 10
6557.500000000001
 20
5867.726000000002
 30
0.0
 11
6557.500000000001
 21
6209.120999999997
 31
0.0
  0
LINE
  5
CA6
330
1E
100
AcDbEntity
  8
0
  6
Continuous
 62
     7
370
    13
100
AcDbLine
 10
6437.499999999999
 20
5867.726000000002
 30
0.0
 11
6437.499999999999
 21
6209.120999999997
 31
0.0
  0
LINE
  5
CA7
330
1E
100
AcDbEntity
  8
0
  6
Continuous
 62
     7
370
    13
100
AcDbLine
 10
6533.499999999998
 20
6182.675199999999
 30
0.0
 11
6557.500000000001
 21
6189.105999999998
 31
0.0
  0
LINE
  5
CA8
330
1E
100
AcDbEntity
  8
0
  6
Continuous
 62
     7
370
    13
100
AcDbLine
 10
6557.500000000001
 20
6189.105999999998
 30
0.0
 11
6533.499999999998
 21
6195.536599999997
 31
0.0
  0
LINE
  5
CA9
330
1E
100
AcDbEntity
  8
0
  6
Continuous
 62
     7
370
    13
100
AcDbLine
 10
6461.500000000002
 20
6195.536599999997
 30
0.0
 11
6437.499999999999
 21
6189.105999999998
 31
0.0
  0
LINE
  5
CAA
330
1E
100
AcDbEntity
  8
0
  6
Continuous
 62
     7
370
    13
100
AcDbLine
 10
6437.499999999999
 20
6189.105999999998
 30
0.0
 11
6461.500000000002
 21
6182.675199999999
 31
0.0
  0
TEXT
  5
CAB
330
1E
100
AcDbEntity
  8
0
  6
Continuous
 62
     7
370
    13
100
AcDbText
 10
6439.954272524899
 20
6201.120999999997
 30
0.0
 40
64.0
  1
120
 41
0.875
  7
BIGFONT
100
AcDbText
  0
LINE
  5
CAC
330
1E
100
AcDbEntity
  8
0
  6
Continuous
 62
     7
370
    13
100
AcDbLine
 10
2055.509
 20
4869.755
 30
0.0
 11
2058.362000000001
 21
4915.481799999998
 31
0.0
  0
LINE
  5
CAD
330
1E
100
AcDbEntity
  8
0
  6
Continuous
 62
     7
370
    13
100
AcDbLine
 10
1757.801200000002
 20
4934.233599999998
 30
0.0
 11
2078.323200000003
 21
4914.2364
 31
0.0
  0
LINE
  5
CAE
330
1E
100
AcDbEntity
  8
0
  6
Continuous
 62
     7
370
    13
100
AcDbLine
 10
1754.9562
 20
4888.506599999999
 30
0.0
 11
2075.470200000002
 21
4868.509599999999
 31
0.0
  0
LINE
  5
CAF
330
1E
100
AcDbEntity
  8
0
  6
Continuous
 62
     7
370
    13
100
AcDbLine
 10
2061.350799999999
 20
4963.388799999997
 30
0.0
 11
2058.362000000001
 21
4915.481799999998
 31
0.0
  0
LINE
  5
CB0
330
1E
100
AcDbEntity
  8
0
  6
Continuous
 62
     7
370
    13
100
AcDbLine
 10
2053.456200000001
 20
4939.8198
 30
0.0
 11
2058.380000000003
 21
4915.466000000001
 31
0.0
  0
LINE
  5
CB1
330
1E
100
AcDbEntity
  8
0
  6
Continuous
 62
     7
370
    13
100
AcDbLine
 10
2058.380000000003
 20
4915.466000000001
 30
0.0
 11
2066.292800000001
 21
4939.018799999999
 31
0.0
  0
LINE
  5
CB2
330
1E
100
AcDbEntity
  8
0
  6
Continuous
 62
     7
370
    13
100
AcDbLine
 10
2055.509
 20
4869.755
 30
0.0
 11
2052.520199999999
 21
4821.848
 31
0.0
  0
LINE
  5
CB3
330
1E
100
AcDbEntity
  8
0
  6
Continuous
 62
     7
370
    13
100
AcDbLine
 10
2060.444
 20
4845.392
 30
0.0
 11
2055.520000000004
 21
4869.746
 31
0.0
  0
LINE
  5
CB4
330
1E
100
AcDbEntity
  8
0
  6
Continuous
 62
     7
370
    13
100
AcDbLine
 10
2055.520000000004
 20
4869.746
 30
0.0
 11
2047.607400000001
 21
4846.193
 31
0.0
  0
TEXT
  5
CB5
330
1E
100
AcDbEntity
  8
0
  6
Continuous
 62
     7
370
    13
100
AcDbText
 10
2046.385200000003
 20
4916.229000000001
 30
0.0
 40
64.0
  1
45
 50
86.43
 41
0.875
  7
BIGFONT
100
AcDbText
  0
LINE
  5
CB6
330
1E
100
AcDbEntity
  8
0
  6
HIDDEN
 62
     7
370
    13
100
AcDbLine
 10
987.5
 20
5382.864000000001
 30
0.0
 11
1107.5
 21
5382.864000000001
 31
0.0
  0
LINE
  5
CB7
330
1E
100
AcDbEntity
  8
0
  6
HIDDEN
 62
     7
370
    13
100
AcDbLine
 10
987.5
 20
5307.864000000001
 30
0.0
 11
1109.063
 21
5307.864000000001
 31
0.0
  0
LINE
  5
CB8
330
1E
100
AcDbEntity
  8
0
  6
Continuous
 62
     7
370
    13
100
AcDbLine
 10
934.5519999999996
 20
5345.363999999999
 30
0.0
 11
1035.548999999999
 21
5345.363999999999
 31
0.0
  0
LINE
  5
CB9
330
1E
100
AcDbEntity
  8
0
  6
Continuous
 62
     7
370
    13
100
AcDbLine
 10
1048.484
 20
5345.363999999999
 30
0.0
 11
1051.236000000001
 21
5345.363999999999
 31
0.0
  0
LINE
  5
CBA
330
1E
100
AcDbEntity
  8
0
  6
Continuous
 62
     7
370
    13
100
AcDbLine
 10
1062.432000000002
 20
5345.363999999999
 30
0.0
 11
1163.24
 21
5345.363999999999
 31
0.0
  0
LINE
  5
CBB
330
1E
100
AcDbEntity
  8
0
  6
Continuous
 62
     7
370
    13
100
AcDbLine
 10
987.5
 20
4845.364
 30
0.0
 11
1737.5
 21
4845.364
 31
0.0
  0
LINE
  5
CBC
330
1E
100
AcDbEntity
  8
0
  6
Continuous
 62
     7
370
    13
100
AcDbLine
 10
1737.5
 20
4845.364
 30
0.0
 11
1737.5
 21
4935.363999999998
 31
0.0
  0
LINE
  5
CBD
330
1E
100
AcDbEntity
  8
0
  6
Continuous
 62
     7
370
    13
100
AcDbLine
 10
987.5
 20
4845.364
 30
0.0
 11
987.5
 21
5845.364
 31
0.0
  0
LINE
  5
CBE
330
1E
100
AcDbEntity
  8
0
  6
Continuous
 62
     7
370
    13
100
AcDbLine
 10
987.5
 20
5845.364
 30
0.0
 11
1107.5
 21
5845.364
 31
0.0
  0
LINE
  5
CBF
330
1E
100
AcDbEntity
  8
0
  6
Continuous
 62
     7
370
    13
100
AcDbLine
 10
1107.5
 20
5020.364
 30
0.0
 11
1107.5
 21
5845.364
 31
0.0
  0
LINE
  5
CC0
330
1E
100
AcDbEntity
  8
0
  6
Continuous
 62
     7
370
    13
100
AcDbLine
 10
1157.423000000002
 20
4967.590000000001
 30
0.0
 11
1737.5
 21
4935.363999999998
 31
0.0
  0
LINE
  5
CC1
330
1E
100
AcDbEntity
  8
0
  6
Continuous
 62
     7
370
    13
100
AcDbLine
 10
1107.5
 20
5020.364
 30
0.0
 11
1157.423000000002
 21
4967.590000000001
 31
0.0
  0
LINE
  5
CC2
330
1E
100
AcDbEntity
  8
0
  6
Continuous
 62
     1
370
    25
100
AcDbLine
 10
1062.5
 20
4923.364000000001
 30
0.0
 11
1062.5
 21
5805.364
 31
0.0
  0
LINE
  5
CC3
330
1E
100
AcDbEntity
  8
0
  6
Continuous
 62
     1
370
    25
100
AcDbLine
 10
1063.836000000001
 20
4937.738
 30
0.0
 11
1697.5
 21
4902.532
 31
0.0
  0
POINT
  5
CC4
330
1E
100
AcDbEntity
  8
0
  6
Continuous
 62
     1
370
    25
100
AcDbPoint
 10
1055.0
 20
5129.364
 30
0.0
  0
POINT
  5
CC5
330
1E
100
AcDbEntity
  8
0
  6
Continuous
 62
     1
370
    25
100
AcDbPoint
 10
1055.115
 20
5429.364
 30
0.0
  0
POINT
  5
CC6
330
1E
100
AcDbEntity
  8
0
  6
Continuous
 62
     1
370
    25
100
AcDbPoint
 10
1055.0
 20
5630.364000000001
 30
0.0
  0
POINT
  5
CC7
330
1E
100
AcDbEntity
  8
0
  6
Continuous
 62
     1
370
    25
100
AcDbPoint
 10
1055.0
 20
5790.364000000002
 30
0.0
  0
POINT
  5
CC8
330
1E
100
AcDbEntity
  8
0
  6
Continuous
 62
     7
370
    13
100
AcDbPoint
 10
1213.476
 20
4921.924
 30
0.0
  0
POINT
  5
CC9
330
1E
100
AcDbEntity
  8
0
  6
Continuous
 62
     1
370
    25
100
AcDbPoint
 10
1682.5
 20
4896.283
 30
0.0
  0
LINE
  5
CCA
330
1E
100
AcDbEntity
  8
0
  6
Continuous
 62
     1
370
    25
100
AcDbLine
 10
1092.500000000002
 20
4893.364000000001
 30
0.0
 11
1172.500000000002
 21
4893.364000000001
 31
0.0
  0
LINE
  5
CCB
330
1E
100
AcDbEntity
  8
0
  6
Continuous
 62
     7
370
    13
100
AcDbLine
 10
1062.5
 20
4967.912999999999
 30
0.0
 11
1062.5
 21
5047.912999999999
 31
0.0
  0
ARC
  5
CCC
330
1E
100
AcDbEntity
  8
0
  6
Continuous
 62
     1
370
    25
100
AcDbCircle
 10
1092.500000000002
 20
4967.912999999999
 30
0.0
 40
30.0
100
AcDbArc
 50
180.0
 51
266.8203800000476
  0
ARC
  5
CCD
330
1E
100
AcDbEntity
  8
0
  6
Continuous
 62
     1
370
    25
100
AcDbCircle
 10
1092.500000000002
 20
4923.364000000001
 30
0.0
 40
30.0
100
AcDbArc
 50
180.0
 51
270.0
  0
LINE
  5
CCE
330
1E
100
AcDbEntity
  8
0
  6
Continuous
 62
     7
370
    13
100
AcDbLine
 10
1062.5
 20
5033.778
 30
0.0
 11
1062.5
 21
5081.778
 31
0.0
  0
LINE
  5
CCF
330
1E
100
AcDbEntity
  8
0
  6
Continuous
 62
     1
370
    25
100
AcDbLine
 10
1168.448
 20
4893.364000000001
 30
0.0
 11
1216.448
 21
4893.364000000001
 31
0.0
  0
LINE
  5
CD0
330
1E
100
AcDbEntity
  8
0
  6
Continuous
 62
     7
370
    13
100
AcDbLine
 10
6497.500000000002
 20
5466.864000000002
 30
0.0
 11
6497.500000000002
 21
5563.863999999998
 31
0.0
  0
LINE
  5
CD1
330
1E
100
AcDbEntity
  8
0
  6
Continuous
 62
     7
370
    13
100
AcDbLine
 10
6497.500000000002
 20
5466.864000000002
 30
0.0
 11
6547.500000000002
 21
5466.864000000002
 31
0.0
  0
LINE
  5
CD2
330
1E
100
AcDbEntity
  8
0
  6
Continuous
 62
     7
370
    13
100
AcDbLine
 10
6547.500000000002
 20
5466.864000000002
 30
0.0
 11
6547.500000000002
 21
5563.863999999998
 31
0.0
  0
LINE
  5
CD3
330
1E
100
AcDbEntity
  8
0
  6
Continuous
 62
     7
370
    13
100
AcDbLine
 10
6497.500000000002
 20
5563.863999999998
 30
0.0
 11
6547.500000000002
 21
5563.863999999998
 31
0.0
  0
LINE
  5
CD4
330
1E
100
AcDbEntity
  8
0
  6
Continuous
 62
     7
370
    13
100
AcDbLine
 10
6511.185999999999
 20
5515.364
 30
0.0
 11
6522.500000000002
 21
5526.678
 31
0.0
  0
LINE
  5
CD5
330
1E
100
AcDbEntity
  8
0
  6
Continuous
 62
     7
370
    13
100
AcDbLine
 10
6522.500000000002
 20
5504.049999999999
 30
0.0
 11
6533.814000000001
 21
5515.364
 31
0.0
  0
ARC
  5
CD6
330
1E
100
AcDbEntity
  8
0
  6
Continuous
 62
     7
370
    13
100
AcDbCircle
 10
6528.157000000001
 20
5521.021
 30
0.0
 40
8.0
100
AcDbArc
 50
315.000000000007
 51
135.0000000000069
  0
ARC
  5
CD7
330
1E
100
AcDbEntity
  8
0
  6
Continuous
 62
     7
370
    13
100
AcDbCircle
 10
6516.843000000003
 20
5509.707
 30
0.0
 40
8.0
100
AcDbArc
 50
135.0000000000069
 51
315.000000000007
  0
LINE
  5
CD8
330
1E
100
AcDbEntity
  8
0
  6
Continuous
 62
     7
370
    13
100
AcDbLine
 10
6474.053000000002
 20
5515.364
 30
0.0
 11
6573.054999999998
 21
5515.364
 31
0.0
  0
LINE
  5
CD9
330
1E
100
AcDbEntity
  8
0
  6
Continuous
 62
     7
370
    13
100
AcDbLine
 10
6522.500000000002
 20
5445.587
 30
0.0
 11
6522.500000000002
 21
5586.001
 31
0.0
  0
LINE
  5
CDA
330
1E
100
AcDbEntity
  8
0
  6
Continuous
 62
     7
370
    13
100
AcDbLine
 10
6787.505999999999
 20
4897.894
 30
0.0
 11
6884.309000000003
 21
4891.715
 31
0.0
  0
LINE
  5
CDB
330
1E
100
AcDbEntity
  8
0
  6
Continuous
 62
     7
370
    13
100
AcDbLine
 10
6884.309000000003
 20
4891.715
 30
0.0
 11
6887.494000000001
 21
4941.614000000001
 31
0.0
  0
LINE
  5
CDC
330
1E
100
AcDbEntity
  8
0
  6
Continuous
 62
     7
370
    13
100
AcDbLine
 10
6790.690999999997
 20
4947.792999999998
 30
0.0
 11
6887.494000000001
 21
4941.614000000001
 31
0.0
  0
LINE
  5
CDD
330
1E
100
AcDbEntity
  8
0
  6
Continuous
 62
     7
370
    13
100
AcDbLine
 10
6787.505999999999
 20
4897.894
 30
0.0
 11
6790.690999999997
 21
4947.792999999998
 31
0.0
  0
LINE
  5
CDE
330
1E
100
AcDbEntity
  8
0
  6
Continuous
 62
     7
370
    13
100
AcDbLine
 10
6826.209000000004
 20
4920.474999999999
 30
0.0
 11
6836.778999999997
 21
4908.463000000002
 31
0.0
  0
LINE
  5
CDF
330
1E
100
AcDbEntity
  8
0
  6
Continuous
 62
     7
370
    13
100
AcDbLine
 10
6838.221
 20
4931.045000000001
 30
0.0
 11
6848.791
 21
4919.033
 31
0.0
  0
ARC
  5
CE0
330
1E
100
AcDbEntity
  8
0
  6
Continuous
 62
     7
370
    13
100
AcDbCircle
 10
6832.214999999997
 20
4925.76
 30
0.0
 40
8.0
100
AcDbArc
 50
41.34627099995252
 51
221.3462700000346
  0
ARC
  5
CE1
330
1E
100
AcDbEntity
  8
0
  6
Continuous
 62
     7
370
    13
100
AcDbCircle
 10
6842.784999999998
 20
4913.747999999999
 30
0.0
 40
8.0
100
AcDbArc
 50
221.3462700000346
 51
41.34627099995252
  0
LINE
  5
CE2
330
1E
100
AcDbEntity
  8
0
  6
Continuous
 62
     7
370
    13
100
AcDbLine
 10
6834.413999999999
 20
4871.404999999999
 30
0.0
 11
6840.719999999999
 21
4970.206000000001
 31
0.0
  0
LINE
  5
CE3
330
1E
100
AcDbEntity
  8
0
  6
Continuous
 62
     7
370
    13
100
AcDbLine
 10
6767.005999999999
 20
4924.253
 30
0.0
 11
6907.135000000001
 21
4915.309
 31
0.0
  0
LINE
  5
CE4
330
1E
100
AcDbEntity
  8
0
  6
HIDDEN
 62
     7
370
    13
100
AcDbLine
 10
6437.499999999999
 20
5382.864000000001
 30
0.0
 11
6557.500000000001
 21
5382.864000000001
 31
0.0
  0
LINE
  5
CE5
330
1E
100
AcDbEntity
  8
0
  6
HIDDEN
 62
     7
370
    13
100
AcDbLine
 10
6437.499999999999
 20
5307.864000000001
 30
0.0
 11
6559.063
 21
5307.864000000001
 31
0.0
  0
LINE
  5
CE6
330
1E
100
AcDbEntity
  8
0
  6
Continuous
 62
     7
370
    13
100
AcDbLine
 10
6379.551999999998
 20
5345.363999999999
 30
0.0
 11
6480.549
 21
5345.363999999999
 31
0.0
  0
LINE
  5
CE7
330
1E
100
AcDbEntity
  8
0
  6
Continuous
 62
     7
370
    13
100
AcDbLine
 10
6508.483999999999
 20
5345.363999999999
 30
0.0
 11
6511.236
 21
5345.363999999999
 31
0.0
  0
LINE
  5
CE8
330
1E
100
AcDbEntity
  8
0
  6
Continuous
 62
     7
370
    13
100
AcDbLine
 10
6507.431999999998
 20
5345.363999999999
 30
0.0
 11
6608.239999999999
 21
5345.363999999999
 31
0.0
  0
LINE
  5
CE9
330
1E
100
AcDbEntity
  8
0
  6
Continuous
 62
     7
370
    13
100
AcDbLine
 10
6437.499999999999
 20
4845.364
 30
0.0
 11
7187.500000000001
 21
4845.364
 31
0.0
  0
LINE
  5
CEA
330
1E
100
AcDbEntity
  8
0
  6
Continuous
 62
     7
370
    13
100
AcDbLine
 10
7187.500000000001
 20
4845.364
 30
0.0
 11
7187.500000000001
 21
4935.363999999998
 31
0.0
  0
LINE
  5
CEB
330
1E
100
AcDbEntity
  8
0
  6
Continuous
 62
     7
370
    13
100
AcDbLine
 10
6437.499999999999
 20
4845.364
 30
0.0
 11
6437.499999999999
 21
5836.363999999997
 31
0.0
  0
LINE
  5
CEC
330
1E
100
AcDbEntity
  8
0
  6
Continuous
 62
     7
370
    13
100
AcDbLine
 10
6446.500000000002
 20
5845.364
 30
0.0
 11
6548.500000000001
 21
5845.364
 31
0.0
  0
LINE
  5
CED
330
1E
100
AcDbEntity
  8
0
  6
Continuous
 62
     7
370
    13
100
AcDbLine
 10
6557.500000000001
 20
5020.364
 30
0.0
 11
6557.500000000001
 21
5836.363999999997
 31
0.0
  0
LINE
  5
CEE
330
1E
100
AcDbEntity
  8
0
  6
Continuous
 62
     7
370
    13
100
AcDbLine
 10
6607.423000000001
 20
4967.590000000001
 30
0.0
 11
7187.500000000001
 21
4935.363999999998
 31
0.0
  0
LINE
  5
CEF
330
1E
100
AcDbEntity
  8
0
  6
Continuous
 62
     7
370
    13
100
AcDbLine
 10
6557.500000000001
 20
5020.364
 30
0.0
 11
6607.423000000001
 21
4967.590000000001
 31
0.0
  0
LINE
  5
CF0
330
1E
100
AcDbEntity
  8
0
  6
Continuous
 62
     7
370
    13
100
AcDbLine
 10
6548.500000000001
 20
5845.364
 30
0.0
 11
6557.500000000001
 21
5836.363999999997
 31
0.0
  0
LINE
  5
CF1
330
1E
100
AcDbEntity
  8
0
  6
Continuous
 62
     7
370
    13
100
AcDbLine
 10
6437.499999999999
 20
5836.363999999997
 30
0.0
 11
6446.500000000002
 21
5845.364
 31
0.0
  0
LINE
  5
CF2
330
1E
100
AcDbEntity
  8
0
  6
Continuous
 62
     7
370
    13
100
AcDbLine
 10
6557.500000000001
 20
4345.364
 30
0.0
 11
7187.500000000001
 21
4345.364
 31
0.0
  0
LINE
  5
CF3
330
1E
100
AcDbEntity
  8
0
  6
Continuous
 62
     7
370
    13
100
AcDbLine
 10
7163.499999999998
 20
4338.9152
 30
0.0
 11
7187.500000000001
 21
4345.346000000001
 31
0.0
  0
LINE
  5
CF4
330
1E
100
AcDbEntity
  8
0
  6
Continuous
 62
     7
370
    13
100
AcDbLine
 10
7187.500000000001
 20
4345.346000000001
 30
0.0
 11
7163.499999999998
 21
4351.776599999999
 31
0.0
  0
LINE
  5
CF5
330
1E
100
AcDbEntity
  8
0
  6
Continuous
 62
     7
370
    13
100
AcDbLine
 10
6581.500000000002
 20
4351.776599999999
 30
0.0
 11
6557.500000000001
 21
4345.346000000001
 31
0.0
  0
LINE
  5
CF6
330
1E
100
AcDbEntity
  8
0
  6
Continuous
 62
     7
370
    13
100
AcDbLine
 10
6557.500000000001
 20
4345.346000000001
 30
0.0
 11
6581.500000000002
 21
4338.9152
 31
0.0
  0
TEXT
  5
CF7
330
1E
100
AcDbEntity
  8
0
  6
Continuous
 62
     7
370
    13
100
AcDbText
 10
6788.499999999998
 20
4357.363999999999
 30
0.0
 40
64.0
  1
630
 41
0.875
  7
BIGFONT
100
AcDbText
  0
LINE
  5
CF8
330
1E
100
AcDbEntity
  8
0
  6
Continuous
 62
     7
370
    13
100
AcDbLine
 10
6437.499999999999
 20
4195.364
 30
0.0
 11
7187.500000000001
 21
4195.364
 31
0.0
  0
LINE
  5
CF9
330
1E
100
AcDbEntity
  8
0
  6
Continuous
 62
     7
370
    13
100
AcDbLine
 10
7187.500000000001
 20
4825.364
 30
0.0
 11
7187.500000000001
 21
4175.364
 31
0.0
  0
LINE
  5
CFA
330
1E
100
AcDbEntity
  8
0
  6
Continuous
 62
     7
370
    13
100
AcDbLine
 10
6437.499999999999
 20
4825.364
 30
0.0
 11
6437.499999999999
 21
4175.364
 31
0.0
  0
LINE
  5
CFB
330
1E
100
AcDbEntity
  8
0
  6
Continuous
 62
     7
370
    13
100
AcDbLine
 10
7163.499999999998
 20
4188.915199999999
 30
0.0
 11
7187.500000000001
 21
4195.345999999999
 31
0.0
  0
LINE
  5
CFC
330
1E
100
AcDbEntity
  8
0
  6
Continuous
 62
     7
370
    13
100
AcDbLine
 10
7187.500000000001
 20
4195.345999999999
 30
0.0
 11
7163.499999999998
 21
4201.7766
 31
0.0
  0
LINE
  5
CFD
330
1E
100
AcDbEntity
  8
0
  6
Continuous
 62
     7
370
    13
100
AcDbLine
 10
6461.500000000002
 20
4201.7766
 30
0.0
 11
6437.499999999999
 21
4195.345999999999
 31
0.0
  0
LINE
  5
CFE
330
1E
100
AcDbEntity
  8
0
  6
Continuous
 62
     7
370
    13
100
AcDbLine
 10
6437.499999999999
 20
4195.345999999999
 30
0.0
 11
6461.500000000002
 21
4188.915199999999
 31
0.0
  0
TEXT
  5
CFF
330
1E
100
AcDbEntity
  8
0
  6
Continuous
 62
     7
370
    13
100
AcDbText
 10
6728.500000000003
 20
4207.364
 30
0.0
 40
64.0
  1
750
 41
0.875
  7
BIGFONT
100
AcDbText
  0
LINE
  5
D00
330
1E
100
AcDbEntity
  8
0
  6
Continuous
 62
     7
370
    13
100
AcDbLine
 10
5937.499999999999
 20
4970.364
 30
0.0
 11
5937.499999999999
 21
5845.364
 31
0.0
  0
LINE
  5
D01
330
1E
100
AcDbEntity
  8
0
  6
Continuous
 62
     7
370
    13
100
AcDbLine
 10
5943.930600000001
 20
5821.345999999999
 30
0.0
 11
5937.499999999999
 21
5845.346000000001
 31
0.0
  0
LINE
  5
D02
330
1E
100
AcDbEntity
  8
0
  6
Continuous
 62
     7
370
    13
100
AcDbLine
 10
5937.499999999999
 20
5845.346000000001
 30
0.0
 11
5931.0692
 21
5821.345999999999
 31
0.0
  0
LINE
  5
D03
330
1E
100
AcDbEntity
  8
0
  6
Continuous
 62
     7
370
    13
100
AcDbLine
 10
5931.0692
 20
4994.346000000001
 30
0.0
 11
5937.499999999999
 21
4970.346000000001
 31
0.0
  0
LINE
  5
D04
330
1E
100
AcDbEntity
  8
0
  6
Continuous
 62
     7
370
    13
100
AcDbLine
 10
5937.499999999999
 20
4970.346000000001
 30
0.0
 11
5943.930600000001
 21
4994.346000000001
 31
0.0
  0
TEXT
  5
D05
330
1E
100
AcDbEntity
  8
0
  6
Continuous
 62
     7
370
    13
100
AcDbText
 10
5925.500000000002
 20
5323.863999999999
 30
0.0
 40
64.0
  1
875
 50
90.0
 41
0.875
  7
BIGFONT
100
AcDbText
  0
LINE
  5
D06
330
1E
100
AcDbEntity
  8
0
  6
Continuous
 62
     7
370
    13
100
AcDbLine
 10
5787.500000000002
 20
4845.364
 30
0.0
 11
5787.500000000002
 21
5845.364
 31
0.0
  0
LINE
  5
D07
330
1E
100
AcDbEntity
  8
0
  6
Continuous
 62
     7
370
    13
100
AcDbLine
 10
6426.500000000001
 20
5845.364
 30
0.0
 11
5767.500000000001
 21
5845.364
 31
0.0
  0
LINE
  5
D08
330
1E
100
AcDbEntity
  8
0
  6
Continuous
 62
     7
370
    13
100
AcDbLine
 10
6417.500000000003
 20
4845.364
 30
0.0
 11
5767.500000000001
 21
4845.364
 31
0.0
  0
LINE
  5
D09
330
1E
100
AcDbEntity
  8
0
  6
Continuous
 62
     7
370
    13
100
AcDbLine
 10
5793.930600000002
 20
5821.345999999999
 30
0.0
 11
5787.500000000002
 21
5845.346000000001
 31
0.0
  0
LINE
  5
D0A
330
1E
100
AcDbEntity
  8
0
  6
Continuous
 62
     7
370
    13
100
AcDbLine
 10
5787.500000000002
 20
5845.346000000001
 30
0.0
 11
5781.069200000001
 21
5821.345999999999
 31
0.0
  0
LINE
  5
D0B
330
1E
100
AcDbEntity
  8
0
  6
Continuous
 62
     7
370
    13
100
AcDbLine
 10
5781.069200000001
 20
4869.346000000001
 30
0.0
 11
5787.500000000002
 21
4845.346000000001
 31
0.0
  0
LINE
  5
D0C
330
1E
100
AcDbEntity
  8
0
  6
Continuous
 62
     7
370
    13
100
AcDbLine
 10
5787.500000000002
 20
4845.346000000001
 30
0.0
 11
5793.930600000002
 21
4869.346000000001
 31
0.0
  0
TEXT
  5
D0D
330
1E
100
AcDbEntity
  8
0
  6
Continuous
 62
     7
370
    13
100
AcDbText
 10
5775.500000000001
 20
5233.364
 30
0.0
 40
64.0
  1
1000
 50
90.0
 41
0.875
  7
BIGFONT
100
AcDbText
  0
LINE
  5
D0E
330
1E
100
AcDbEntity
  8
0
  6
Continuous
 62
     7
370
    13
100
AcDbLine
 10
6937.500000000001
 20
4495.364000000001
 30
0.0
 11
7187.500000000001
 21
4495.364000000001
 31
0.0
  0
LINE
  5
D0F
330
1E
100
AcDbEntity
  8
0
  6
Continuous
 62
     7
370
    13
100
AcDbLine
 10
7187.500000000001
 20
4495.364000000001
 30
0.0
 11
7187.500000000001
 21
4495.364000000001
 31
0.0
  0
LINE
  5
D10
330
1E
100
AcDbEntity
  8
0
  6
Continuous
 62
     7
370
    13
100
AcDbLine
 10
7163.499999999998
 20
4488.915200000001
 30
0.0
 11
7187.500000000001
 21
4495.346
 31
0.0
  0
LINE
  5
D11
330
1E
100
AcDbEntity
  8
0
  6
Continuous
 62
     7
370
    13
100
AcDbLine
 10
7187.500000000001
 20
4495.346
 30
0.0
 11
7163.499999999998
 21
4501.776599999999
 31
0.0
  0
LINE
  5
D12
330
1E
100
AcDbEntity
  8
0
  6
Continuous
 62
     7
370
    13
100
AcDbLine
 10
6961.500000000002
 20
4501.776599999999
 30
0.0
 11
6937.500000000001
 21
4495.346
 31
0.0
  0
LINE
  5
D13
330
1E
100
AcDbEntity
  8
0
  6
Continuous
 62
     7
370
    13
100
AcDbLine
 10
6937.500000000001
 20
4495.346
 30
0.0
 11
6961.500000000002
 21
4488.915200000001
 31
0.0
  0
TEXT
  5
D14
330
1E
100
AcDbEntity
  8
0
  6
Continuous
 62
     7
370
    13
100
AcDbText
 10
6978.500000000003
 20
4507.363999999999
 30
0.0
 40
64.0
  1
250
 41
0.875
  7
BIGFONT
100
AcDbText
  0
LINE
  5
D15
330
1E
100
AcDbEntity
  8
0
  6
Continuous
 62
     7
370
    13
100
AcDbLine
 10
6437.499999999999
 20
5345.363999999999
 30
0.0
 11
6557.500000000001
 21
5345.363999999999
 31
0.0
  0
LINE
  5
D16
330
1E
100
AcDbEntity
  8
0
  6
Continuous
 62
     7
370
    13
100
AcDbLine
 10
6937.500000000001
 20
4845.364
 30
0.0
 11
6937.500000000001
 21
4949.238000000001
 31
0.0
  0
LINE
  5
D17
330
1E
100
AcDbEntity
  8
0
  6
Continuous
 62
     7
370
    13
100
AcDbLine
 10
6437.499999999999
 20
5095.364
 30
0.0
 11
6557.500000000001
 21
5095.364
 31
0.0
  0
LINE
  5
D18
330
1E
100
AcDbEntity
  8
0
  6
Continuous
 62
     7
370
    13
100
AcDbLine
 10
6087.500000000002
 20
5095.364
 30
0.0
 11
6087.500000000002
 21
5445.363999999998
 31
0.0
  0
LINE
  5
D19
330
1E
100
AcDbEntity
  8
0
  6
Continuous
 62
     7
370
    13
100
AcDbLine
 10
6417.500000000003
 20
5345.363999999999
 30
0.0
 11
6067.500000000002
 21
5345.363999999999
 31
0.0
  0
LINE
  5
D1A
330
1E
100
AcDbEntity
  8
0
  6
Continuous
 62
     7
370
    13
100
AcDbLine
 10
6093.930600000001
 20
5321.345999999999
 30
0.0
 11
6087.500000000002
 21
5345.345999999999
 31
0.0
  0
LINE
  5
D1B
330
1E
100
AcDbEntity
  8
0
  6
Continuous
 62
     7
370
    13
100
AcDbLine
 10
6087.500000000002
 20
5345.345999999999
 30
0.0
 11
6081.0692
 21
5321.345999999999
 31
0.0
  0
LINE
  5
D1C
330
1E
100
AcDbEntity
  8
0
  6
Continuous
 62
     7
370
    13
100
AcDbLine
 10
6081.0692
 20
5119.346000000001
 30
0.0
 11
6087.500000000002
 21
5095.346000000001
 31
0.0
  0
LINE
  5
D1D
330
1E
100
AcDbEntity
  8
0
  6
Continuous
 62
     7
370
    13
100
AcDbLine
 10
6087.500000000002
 20
5095.346000000001
 30
0.0
 11
6093.930600000001
 21
5119.346000000001
 31
0.0
  0
TEXT
  5
D1E
330
1E
100
AcDbEntity
  8
0
  6
Continuous
 62
     7
370
    13
100
AcDbText
 10
6075.500000000001
 20
5186.363999999999
 30
0.0
 40
64.0
  1
250
 50
90.0
 41
0.875
  7
BIGFONT
100
AcDbText
  0
LINE
  5
D1F
330
1E
100
AcDbEntity
  8
0
  6
Continuous
 62
     7
370
    13
100
AcDbLine
 10
6087.500000000002
 20
5445.363999999998
 30
0.0
 11
6087.500000000002
 21
5845.364
 31
0.0
  0
LINE
  5
D20
330
1E
100
AcDbEntity
  8
0
  6
Continuous
 62
     7
370
    13
100
AcDbLine
 10
6087.500000000002
 20
5845.364
 30
0.0
 11
6087.500000000002
 21
5845.364
 31
0.0
  0
LINE
  5
D21
330
1E
100
AcDbEntity
  8
0
  6
Continuous
 62
     7
370
    13
100
AcDbLine
 10
6093.930600000001
 20
5821.345999999999
 30
0.0
 11
6087.500000000002
 21
5845.346000000001
 31
0.0
  0
LINE
  5
D22
330
1E
100
AcDbEntity
  8
0
  6
Continuous
 62
     7
370
    13
100
AcDbLine
 10
6087.500000000002
 20
5845.346000000001
 30
0.0
 11
6081.0692
 21
5821.345999999999
 31
0.0
  0
LINE
  5
D23
330
1E
100
AcDbEntity
  8
0
  6
Continuous
 62
     7
370
    13
100
AcDbLine
 10
6081.0692
 20
5369.346000000001
 30
0.0
 11
6087.500000000002
 21
5345.345999999999
 31
0.0
  0
LINE
  5
D24
330
1E
100
AcDbEntity
  8
0
  6
Continuous
 62
     7
370
    13
100
AcDbLine
 10
6087.500000000002
 20
5345.345999999999
 30
0.0
 11
6093.930600000001
 21
5369.346000000001
 31
0.0
  0
TEXT
  5
D25
330
1E
100
AcDbEntity
  8
0
  6
Continuous
 62
     7
370
    13
100
AcDbText
 10
6075.500000000001
 20
5561.363999999999
 30
0.0
 40
64.0
  1
500
 50
90.0
 41
0.875
  7
BIGFONT
100
AcDbText
  0
LINE
  5
D26
330
1E
100
AcDbEntity
  8
0
  6
Continuous
 62
     7
370
    13
100
AcDbLine
 10
6557.500000000001
 20
5171.026999999999
 30
0.0
 11
6607.500000000001
 21
5171.026999999999
 31
0.0
  0
LINE
  5
D27
330
1E
100
AcDbEntity
  8
0
  6
Continuous
 62
     7
370
    13
100
AcDbLine
 10
6607.500000000001
 20
5040.364000000002
 30
0.0
 11
6607.500000000001
 21
5191.027
 31
0.0
  0
LINE
  5
D28
330
1E
100
AcDbEntity
  8
0
  6
Continuous
 62
     7
370
    13
100
AcDbLine
 10
6557.500000000001
 20
5040.364000000002
 30
0.0
 11
6557.500000000001
 21
5191.027
 31
0.0
  0
LINE
  5
D29
330
1E
100
AcDbEntity
  8
0
  6
Continuous
 62
     7
370
    13
100
AcDbLine
 10
6583.500000000002
 20
5164.5952
 30
0.0
 11
6607.500000000001
 21
5171.026000000002
 31
0.0
  0
LINE
  5
D2A
330
1E
100
AcDbEntity
  8
0
  6
Continuous
 62
     7
370
    13
100
AcDbLine
 10
6607.500000000001
 20
5171.026000000002
 30
0.0
 11
6583.500000000002
 21
5177.456600000001
 31
0.0
  0
LINE
  5
D2B
330
1E
100
AcDbEntity
  8
0
  6
Continuous
 62
     7
370
    13
100
AcDbLine
 10
6581.500000000002
 20
5177.456600000001
 30
0.0
 11
6557.500000000001
 21
5171.026000000002
 31
0.0
  0
LINE
  5
D2C
330
1E
100
AcDbEntity
  8
0
  6
Continuous
 62
     7
370
    13
100
AcDbLine
 10
6557.500000000001
 20
5171.026000000002
 30
0.0
 11
6581.500000000002
 21
5164.5952
 31
0.0
  0
TEXT
  5
D2D
330
1E
100
AcDbEntity
  8
0
  6
Continuous
 62
     7
370
    13
100
AcDbText
 10
6526.500000000002
 20
5183.027
 30
0.0
 40
64.0
  1
50
 41
0.875
  7
BIGFONT
100
AcDbText
  0
POINT
  5
D2E
330
1E
100
AcDbEntity
  8
0
  6
Continuous
 62
     1
370
    25
100
AcDbPoint
 10
1507.5
 20
4905.58
 30
0.0
  0
LINE
  5
D2F
330
1E
100
AcDbEntity
  8
0
  6
Continuous
 62
     7
370
    13
100
AcDbLine
 10
8389.961000000001
 20
4193.001999999999
 30
0.0
 11
10384.96099999999
 21
4193.001999999999
 31
0.0
  0
LINE
  5
D30
330
1E
100
AcDbEntity
  8
0
  6
Continuous
 62
     7
370
    13
100
AcDbLine
 10
10384.96099999999
 20
4837.364
 30
0.0
 11
10384.96099999999
 21
4173.001999999999
 31
0.0
  0
LINE
  5
D31
330
1E
100
AcDbEntity
  8
0
  6
Continuous
 62
     7
370
    13
100
AcDbLine
 10
8389.961000000001
 20
4837.364
 30
0.0
 11
8389.961000000001
 21
4173.001999999999
 31
0.0
  0
LINE
  5
D32
330
1E
100
AcDbEntity
  8
0
  6
Continuous
 62
     7
370
    13
100
AcDbLine
 10
10360.96
 20
4186.5552
 30
0.0
 11
10384.96
 21
4192.986000000001
 31
0.0
  0
LINE
  5
D33
330
1E
100
AcDbEntity
  8
0
  6
Continuous
 62
     7
370
    13
100
AcDbLine
 10
10384.96
 20
4192.986000000001
 30
0.0
 11
10360.96
 21
4199.416600000001
 31
0.0
  0
LINE
  5
D34
330
1E
100
AcDbEntity
  8
0
  6
Continuous
 62
     7
370
    13
100
AcDbLine
 10
8413.959999999997
 20
4199.416600000001
 30
0.0
 11
8389.96
 21
4192.986000000001
 31
0.0
  0
LINE
  5
D35
330
1E
100
AcDbEntity
  8
0
  6
Continuous
 62
     7
370
    13
100
AcDbLine
 10
8389.96
 20
4192.986000000001
 30
0.0
 11
8413.959999999997
 21
4186.5552
 31
0.0
  0
TEXT
  5
D36
330
1E
100
AcDbEntity
  8
0
  6
Continuous
 62
     7
370
    13
100
AcDbText
 10
9275.460999999998
 20
4205.002
 30
0.0
 40
64.0
  1
1995
 41
0.875
  7
BIGFONT
100
AcDbText
  0
LINE
  5
D37
330
1E
100
AcDbEntity
  8
0
  6
Continuous
 62
     7
370
    13
100
AcDbLine
 10
7488.820999999998
 20
4845.364
 30
0.0
 11
7488.820999999998
 21
4935.355999999997
 31
0.0
  0
LINE
  5
D38
330
1E
100
AcDbEntity
  8
0
  6
Continuous
 62
     7
370
    13
100
AcDbLine
 10
7207.500000000002
 20
4935.355999999997
 30
0.0
 11
7508.820999999999
 21
4935.355999999997
 31
0.0
  0
LINE
  5
D39
330
1E
100
AcDbEntity
  8
0
  6
Continuous
 62
     7
370
    13
100
AcDbLine
 10
7207.500000000002
 20
4845.364
 30
0.0
 11
7508.820999999999
 21
4845.364
 31
0.0
  0
LINE
  5
D3A
330
1E
100
AcDbEntity
  8
0
  6
Continuous
 62
     7
370
    13
100
AcDbLine
 10
7495.250599999997
 20
4911.346
 30
0.0
 11
7488.820000000001
 21
4935.346
 31
0.0
  0
LINE
  5
D3B
330
1E
100
AcDbEntity
  8
0
  6
Continuous
 62
     7
370
    13
100
AcDbLine
 10
7488.820000000001
 20
4935.346
 30
0.0
 11
7482.3892
 21
4911.346
 31
0.0
  0
LINE
  5
D3C
330
1E
100
AcDbEntity
  8
0
  6
Continuous
 62
     7
370
    13
100
AcDbLine
 10
7482.3892
 20
4869.346000000001
 30
0.0
 11
7488.820000000001
 21
4845.346000000001
 31
0.0
  0
LINE
  5
D3D
330
1E
100
AcDbEntity
  8
0
  6
Continuous
 62
     7
370
    13
100
AcDbLine
 10
7488.820000000001
 20
4845.346000000001
 30
0.0
 11
7495.250599999997
 21
4869.346000000001
 31
0.0
  0
TEXT
  5
D3E
330
1E
100
AcDbEntity
  8
0
  6
Continuous
 62
     7
370
    13
100
AcDbText
 10
7476.820999999998
 20
4865.005682505
 30
0.0
 40
64.0
  1
90
 50
90.0
 41
0.875
  7
BIGFONT
100
AcDbText
  0
LINE
  5
D3F
330
1E
100
AcDbEntity
  8
0
  6
Continuous
 62
     7
370
    13
100
AcDbLine
 10
6087.500000000002
 20
4845.364
 30
0.0
 11
6087.500000000002
 21
5095.905000000001
 31
0.0
  0
LINE
  5
D40
330
1E
100
AcDbEntity
  8
0
  6
Continuous
 62
     7
370
    13
100
AcDbLine
 10
6417.500000000003
 20
5095.905000000001
 30
0.0
 11
6067.500000000002
 21
5095.905000000001
 31
0.0
  0
LINE
  5
D41
330
1E
100
AcDbEntity
  8
0
  6
Continuous
 62
     7
370
    13
100
AcDbLine
 10
6087.500000000002
 20
4845.364
 30
0.0
 11
6087.500000000002
 21
4845.364
 31
0.0
  0
LINE
  5
D42
330
1E
100
AcDbEntity
  8
0
  6
Continuous
 62
     7
370
    13
100
AcDbLine
 10
6093.930600000001
 20
5071.886000000001
 30
0.0
 11
6087.500000000002
 21
5095.886000000001
 31
0.0
  0
LINE
  5
D43
330
1E
100
AcDbEntity
  8
0
  6
Continuous
 62
     7
370
    13
100
AcDbLine
 10
6087.500000000002
 20
5095.886000000001
 30
0.0
 11
6081.0692
 21
5071.886000000001
 31
0.0
  0
LINE
  5
D44
330
1E
100
AcDbEntity
  8
0
  6
Continuous
 62
     7
370
    13
100
AcDbLine
 10
6081.0692
 20
4869.346000000001
 30
0.0
 11
6087.500000000002
 21
4845.346000000001
 31
0.0
  0
LINE
  5
D45
330
1E
100
AcDbEntity
  8
0
  6
Continuous
 62
     7
370
    13
100
AcDbLine
 10
6087.500000000002
 20
4845.346000000001
 30
0.0
 11
6093.930600000001
 21
4869.346000000001
 31
0.0
  0
TEXT
  5
D46
330
1E
100
AcDbEntity
  8
0
  6
Continuous
 62
     7
370
    13
100
AcDbText
 10
6075.500000000001
 20
4886.634400000001
 30
0.0
 40
64.0
  1
250
 50
90.0
 41
0.875
  7
BIGFONT
100
AcDbText
  0
LINE
  5
D47
330
1E
100
AcDbEntity
  8
0
  6
Continuous
 62
     7
370
    13
100
AcDbLine
 10
1062.5
 20
6108.406999999997
 30
0.0
 11
1107.5
 21
6108.406999999997
 31
0.0
  0
LINE
  5
D48
330
1E
100
AcDbEntity
  8
0
  6
Continuous
 62
     7
370
    13
100
AcDbLine
 10
1107.5
 20
5865.364
 30
0.0
 11
1107.5
 21
6128.406999999998
 31
0.0
  0
LINE
  5
D49
330
1E
100
AcDbEntity
  8
0
  6
Continuous
 62
     7
370
    13
100
AcDbLine
 10
1062.5
 20
5865.364
 30
0.0
 11
1062.5
 21
6128.406999999998
 31
0.0
  0
LINE
  5
D4A
330
1E
100
AcDbEntity
  8
0
  6
Continuous
 62
     7
370
    13
100
AcDbLine
 10
1155.5
 20
6108.406999999997
 30
0.0
 11
1107.5
 21
6108.406999999997
 31
0.0
  0
LINE
  5
D4B
330
1E
100
AcDbEntity
  8
0
  6
Continuous
 62
     7
370
    13
100
AcDbLine
 10
1131.5
 20
6114.836600000002
 30
0.0
 11
1107.5
 21
6108.405999999998
 31
0.0
  0
LINE
  5
D4C
330
1E
100
AcDbEntity
  8
0
  6
Continuous
 62
     7
370
    13
100
AcDbLine
 10
1107.5
 20
6108.405999999998
 30
0.0
 11
1131.5
 21
6101.975200000001
 31
0.0
  0
LINE
  5
D4D
330
1E
100
AcDbEntity
  8
0
  6
Continuous
 62
     7
370
    13
100
AcDbLine
 10
1062.5
 20
6108.406999999997
 30
0.0
 11
1014.5
 21
6108.406999999997
 31
0.0
  0
LINE
  5
D4E
330
1E
100
AcDbEntity
  8
0
  6
Continuous
 62
     7
370
    13
100
AcDbLine
 10
1038.5
 20
6101.975200000001
 30
0.0
 11
1062.5
 21
6108.405999999998
 31
0.0
  0
LINE
  5
D4F
330
1E
100
AcDbEntity
  8
0
  6
Continuous
 62
     7
370
    13
100
AcDbLine
 10
1062.5
 20
6108.405999999998
 30
0.0
 11
1038.5
 21
6114.836600000002
 31
0.0
  0
TEXT
  5
D50
330
1E
100
AcDbEntity
  8
0
  6
Continuous
 62
     7
370
    13
100
AcDbText
 10
1029.0
 20
6120.406999999997
 30
0.0
 40
64.0
  1
45
 41
0.875
  7
BIGFONT
100
AcDbText
  0
LINE
  5
D51
330
1E
100
AcDbEntity
  8
3
  6
Continuous
 62
     7
370
    13
100
AcDbLine
 10
8732.799999999997
 20
41.98600000000078
 30
0.0
 11
8732.799999999997
 21
1041.986000000001
 31
0.0
  0
LINE
  5
D52
330
1E
100
AcDbEntity
  8
3
  6
Continuous
 62
     7
370
    13
100
AcDbLine
 10
8732.799999999997
 20
41.98600000000078
 30
0.0
 11
8732.799999999997
 21
1041.986000000001
 31
0.0
  0
LINE
  5
D53
330
1E
100
AcDbEntity
  8
3
  6
Continuous
 62
     7
370
    13
100
AcDbLine
 10
8732.799999999997
 20
41.98600000000078
 30
0.0
 11
8732.799999999997
 21
1041.986000000001
 31
0.0
  0
TEXT
  5
D54
330
1E
100
AcDbEntity
  8
0
  6
Continuous
 62
     7
370
    13
100
AcDbText
 10
2982.197999999998
 20
7181.672999999999
 30
0.0
 40
200.0
  1
ＫＬウォール３型．一般部構造図
  7
BIGFONT
100
AcDbText
  0
LINE
  5
D55
330
1E
100
AcDbEntity
  8
0
  6
Continuous
 62
     7
370
    13
100
AcDbLine
 10
2860.646000000001
 20
7121.716999999998
 30
0.0
 11
8458.216999999999
 21
7121.716999999998
 31
0.0
  0
TEXT
  5
D56
330
1E
100
AcDbEntity
  8
0
  6
Continuous
 62
     7
370
    13
100
AcDbText
 10
6544.088000000002
 20
7176.537999999998
 30
0.0
 40
130.0
  1
（Ｈ＝１０００）
  7
BIGFONT
100
AcDbText
  0
TEXT
  5
D57
330
1E
100
AcDbEntity
  8
0
  6
Continuous
 62
     7
370
    13
100
AcDbText
 10
7716.168
 20
7183.203999999999
 30
0.0
 40
110.0
  1
Ｓ＝１：２０
  7
BIGFONT
100
AcDbText
  0
TEXT
  5
D58
330
1E
100
AcDbEntity
  8
0
  6
Continuous
 62
     7
370
    13
100
AcDbText
 10
618.5319999999992
 20
2316.82133433248
 30
0.0
 40
100.0
  1
上面
 50
90.0
  7
BIGFONT
100
AcDbText
  0
TEXT
  5
D59
330
1E
100
AcDbEntity
  8
0
  6
Continuous
 62
     7
370
    13
100
AcDbText
 10
617.046000000002
 20
1530.441334332481
 30
0.0
 40
100.0
  1
下面
 50
90.0
  7
BIGFONT
100
AcDbText
  0
TEXT
  5
D5A
330
1E
100
AcDbEntity
  8
0
  6
Continuous
 62
     7
370
    13
100
AcDbText
 10
3891.796325479663
 20
6220.799999999997
 30
0.0
 40
100.0
  1
背面
  7
BIGFONT
100
AcDbText
  0
TEXT
  5
D5B
330
1E
100
AcDbEntity
  8
0
  6
Continuous
 62
     7
370
    13
100
AcDbText
 10
3796.193
 20
6452.707000000001
 30
0.0
 40
120.0
  1
たて壁
  7
BIGFONT
100
AcDbText
  0
TEXT
  5
D5C
330
1E
100
AcDbEntity
  8
0
  6
Continuous
 62
     7
370
    13
100
AcDbText
 10
1244.892
 20
6446.324999999998
 30
0.0
 40
120.0
  1
断面図
  7
BIGFONT
100
AcDbText
  0
TEXT
  5
D5D
330
1E
100
AcDbEntity
  8
0
  6
Continuous
 62
     7
370
    13
100
AcDbText
 10
376.637999999999
 20
1901.222334332482
 30
0.0
 40
120.0
  1
底版
 50
90.0
  7
BIGFONT
100
AcDbText
  0
TEXT
  5
D5E
330
1E
100
AcDbEntity
  8
0
  6
Continuous
 62
     7
370
    13
100
AcDbText
 10
1185.476000000002
 20
6734.542999999996
 30
0.0
 40
150.0
  1
配筋図
  7
BIGFONT
100
AcDbText
  0
TEXT
  5
D5F
330
1E
100
AcDbEntity
  8
0
  6
Continuous
 62
     7
370
    13
100
AcDbText
 10
6560.998000000002
 20
6750.767999999998
 30
0.0
 40
150.0
  1
製品図
  7
BIGFONT
100
AcDbText
  0
LINE
  5
D60
330
1E
100
AcDbEntity
  8
0
  6
Continuous
 62
     7
370
    13
100
AcDbLine
 10
3765.807000000001
 20
6195.799999999999
 30
0.0
 11
4265.807000000001
 21
6195.799999999999
 31
0.0
  0
LINE
  5
D61
330
1E
100
AcDbEntity
  8
0
  6
Continuous
 62
     7
370
    13
100
AcDbLine
 10
3750.897000000001
 20
6427.707000000001
 30
0.0
 11
4276.338999999998
 21
6427.707000000001
 31
0.0
  0
LINE
  5
D62
330
1E
100
AcDbEntity
  8
0
  6
Continuous
 62
     7
370
    13
100
AcDbLine
 10
1193.848
 20
6427.707000000001
 30
0.0
 11
1719.289999999999
 21
6427.707000000001
 31
0.0
  0
LINE
  5
D63
330
1E
100
AcDbEntity
  8
0
  6
Continuous
 62
     7
370
    13
100
AcDbLine
 10
635.8029999999999
 20
2183.98
 30
0.0
 11
635.8029999999999
 21
2683.98
 31
0.0
  0
LINE
  5
D64
330
1E
100
AcDbEntity
  8
0
  6
Continuous
 62
     7
370
    13
100
AcDbLine
 10
635.8029999999999
 20
1400.050000000001
 30
0.0
 11
635.8029999999999
 21
1900.050000000001
 31
0.0
  0
LINE
  5
D65
330
1E
100
AcDbEntity
  8
0
  6
Continuous
 62
     7
370
    13
100
AcDbLine
 10
401.637999999999
 20
1776.197
 30
0.0
 11
401.637999999999
 21
2301.639000000001
 31
0.0
  0
LINE
  5
D66
330
1E
100
AcDbEntity
  8
0
  6
Continuous
 62
     7
370
    13
100
AcDbLine
 10
6511.072999999999
 20
6716.940999999998
 30
0.0
 11
7152.025
 21
6716.940999999998
 31
0.0
  0
LINE
  5
D67
330
1E
100
AcDbEntity
  8
0
  6
Continuous
 62
     7
370
    13
100
AcDbLine
 10
1143.128999999999
 20
6716.940999999998
 30
0.0
 11
1784.081
 21
6716.940999999998
 31
0.0
  0
LINE
  5
D68
330
1E
100
AcDbEntity
  8
0
  6
Continuous
 62
     7
370
    13
100
AcDbLine
 10
10384.96099999999
 20
4857.363999999999
 30
0.0
 11
10384.96099999999
 21
5095.364
 31
0.0
  0
LINE
  5
D69
330
1E
100
AcDbEntity
  8
0
  6
Continuous
 62
     7
370
    13
100
AcDbLine
 10
10381.96099999999
 20
5098.364000000001
 30
0.0
 11
10384.96099999999
 21
5095.364
 31
0.0
  0
LINE
  5
D6A
330
1E
100
AcDbEntity
  8
0
  6
Continuous
 62
     7
370
    13
100
AcDbLine
 10
10381.96099999999
 20
5098.364000000001
 30
0.0
 11
10381.96099999999
 21
5440.001999999998
 31
0.0
  0
LINE
  5
D6B
330
1E
100
AcDbEntity
  8
0
  6
Continuous
 62
     7
370
    13
100
AcDbLine
 10
10384.96099999999
 20
5443.002
 30
0.0
 11
10384.96099999999
 21
5845.364
 31
0.0
  0
LINE
  5
D6C
330
1E
100
AcDbEntity
  8
0
  6
Continuous
 62
     7
370
    13
100
AcDbLine
 10
10372.96099999999
 20
4845.364
 30
0.0
 11
10384.96099999999
 21
4857.363999999999
 31
0.0
  0
LINE
  5
D6D
330
1E
100
AcDbEntity
  8
0
  6
Continuous
 62
     7
370
    13
100
AcDbLine
 10
10381.96099999999
 20
5440.001999999998
 30
0.0
 11
10384.96099999999
 21
5443.002
 31
0.0
  0
LINE
  5
D6E
330
1E
100
AcDbEntity
  8
0
  6
Continuous
 62
     7
370
    13
100
AcDbLine
 10
9825.674999999998
 20
5345.363999999999
 30
0.0
 11
10014.2
 21
5345.363999999999
 31
0.0
  0
LINE
  5
D6F
330
1E
100
AcDbEntity
  8
0
  6
Continuous
 62
     7
370
    13
100
AcDbLine
 10
9912.461000000005
 20
5251.364000000002
 30
0.0
 11
9912.461000000005
 21
5439.364000000001
 31
0.0
  0
LINE
  5
D70
330
1E
100
AcDbEntity
  8
0
  6
Continuous
 62
     7
370
    13
100
AcDbLine
 10
8862.461000000001
 20
5251.364000000002
 30
0.0
 11
8862.461000000001
 21
5439.364000000001
 31
0.0
  0
CIRCLE
  5
D71
330
1E
100
AcDbEntity
  8
0
  6
Continuous
 62
     7
370
    13
100
AcDbCircle
 10
9912.461000000005
 20
5345.363999999999
 30
0.0
 40
37.5
  0
CIRCLE
  5
D72
330
1E
100
AcDbEntity
  8
0
  6
Continuous
 62
     7
370
    13
100
AcDbCircle
 10
8862.461000000001
 20
5345.363999999999
 30
0.0
 40
37.5
  0
LINE
  5
D73
330
1E
100
AcDbEntity
  8
0
  6
Continuous
 62
     7
370
    13
100
AcDbLine
 10
10381.966
 20
4645.364
 30
0.0
 11
10384.96099999999
 21
4645.364
 31
0.0
  0
LINE
  5
D74
330
1E
100
AcDbEntity
  8
0
  6
Continuous
 62
     7
370
    13
100
AcDbLine
 10
10384.96099999999
 20
4649.028
 30
0.0
 11
10384.96099999999
 21
4625.364000000001
 31
0.0
  0
LINE
  5
D75
330
1E
100
AcDbEntity
  8
0
  6
Continuous
 62
     7
370
    13
100
AcDbLine
 10
10381.966
 20
4828.288999999998
 30
0.0
 11
10381.966
 21
4625.364000000001
 31
0.0
  0
LINE
  5
D76
330
1E
100
AcDbEntity
  8
0
  6
Continuous
 62
     7
370
    13
100
AcDbLine
 10
10432.961
 20
4645.364
 30
0.0
 11
10384.96099999999
 21
4645.364
 31
0.0
  0
LINE
  5
D77
330
1E
100
AcDbEntity
  8
0
  6
Continuous
 62
     7
370
    13
100
AcDbLine
 10
10408.95999999999
 20
4651.7766
 30
0.0
 11
10384.96
 21
4645.346
 31
0.0
  0
LINE
  5
D78
330
1E
100
AcDbEntity
  8
0
  6
Continuous
 62
     7
370
    13
100
AcDbLine
 10
10384.96
 20
4645.346
 30
0.0
 11
10408.95999999999
 21
4638.9152
 31
0.0
  0
LINE
  5
D79
330
1E
100
AcDbEntity
  8
0
  6
Continuous
 62
     7
370
    13
100
AcDbLine
 10
10381.966
 20
4645.364
 30
0.0
 11
10333.966
 21
4645.364
 31
0.0
  0
LINE
  5
D7A
330
1E
100
AcDbEntity
  8
0
  6
Continuous
 62
     7
370
    13
100
AcDbLine
 10
10357.95999999995
 20
4638.9152
 30
0.0
 11
10381.96
 21
4645.346
 31
0.0
  0
LINE
  5
D7B
330
1E
100
AcDbEntity
  8
0
  6
Continuous
 62
     7
370
    13
100
AcDbLine
 10
10381.96
 20
4645.346
 30
0.0
 11
10357.95999999995
 21
4651.7766
 31
0.0
  0
LINE
  5
D7C
330
1E
100
AcDbEntity
  8
0
  6
Continuous
 62
     7
370
    13
100
AcDbLine
 10
10333.966
 20
4645.364
 30
0.0
 11
10269.966
 21
4645.364
 31
0.0
  0
TEXT
  5
D7D
330
1E
100
AcDbEntity
  8
0
  6
Continuous
 62
     7
370
    13
100
AcDbText
 10
10269.966
 20
4657.363999999999
 30
0.0
 40
64.0
  1
3
 41
0.875
  7
BIGFONT
100
AcDbText
  0
LINE
  5
D7E
330
1E
100
AcDbEntity
  8
0
  6
Continuous
 62
     7
370
    13
100
AcDbLine
 10
8389.961000000001
 20
4645.364
 30
0.0
 11
8392.960999999997
 21
4645.364
 31
0.0
  0
LINE
  5
D7F
330
1E
100
AcDbEntity
  8
0
  6
Continuous
 62
     7
370
    13
100
AcDbLine
 10
8392.960999999997
 20
4826.806000000001
 30
0.0
 11
8392.960999999997
 21
4625.364000000001
 31
0.0
  0
LINE
  5
D80
330
1E
100
AcDbEntity
  8
0
  6
Continuous
 62
     7
370
    13
100
AcDbLine
 10
8389.961000000001
 20
4645.364
 30
0.0
 11
8389.961000000001
 21
4625.364000000001
 31
0.0
  0
LINE
  5
D81
330
1E
100
AcDbEntity
  8
0
  6
Continuous
 62
     7
370
    13
100
AcDbLine
 10
8440.960999999997
 20
4645.364
 30
0.0
 11
8392.960999999997
 21
4645.364
 31
0.0
  0
LINE
  5
D82
330
1E
100
AcDbEntity
  8
0
  6
Continuous
 62
     7
370
    13
100
AcDbLine
 10
8416.959999999997
 20
4651.7766
 30
0.0
 11
8392.96
 21
4645.346
 31
0.0
  0
LINE
  5
D83
330
1E
100
AcDbEntity
  8
0
  6
Continuous
 62
     7
370
    13
100
AcDbLine
 10
8392.96
 20
4645.346
 30
0.0
 11
8416.959999999997
 21
4638.9152
 31
0.0
  0
LINE
  5
D84
330
1E
100
AcDbEntity
  8
0
  6
Continuous
 62
     7
370
    13
100
AcDbLine
 10
8389.961000000001
 20
4645.364
 30
0.0
 11
8341.960999999997
 21
4645.364
 31
0.0
  0
LINE
  5
D85
330
1E
100
AcDbEntity
  8
0
  6
Continuous
 62
     7
370
    13
100
AcDbLine
 10
8365.960000000001
 20
4638.9152
 30
0.0
 11
8389.96
 21
4645.346
 31
0.0
  0
LINE
  5
D86
330
1E
100
AcDbEntity
  8
0
  6
Continuous
 62
     7
370
    13
100
AcDbLine
 10
8389.96
 20
4645.346
 30
0.0
 11
8365.960000000001
 21
4651.7766
 31
0.0
  0
LINE
  5
D87
330
1E
100
AcDbEntity
  8
0
  6
Continuous
 62
     7
370
    13
100
AcDbLine
 10
8440.960999999997
 20
4645.364
 30
0.0
 11
8504.961000000001
 21
4645.364
 31
0.0
  0
TEXT
  5
D88
330
1E
100
AcDbEntity
  8
0
  6
Continuous
 62
     7
370
    13
100
AcDbText
 10
8448.960999999997
 20
4657.363999999999
 30
0.0
 40
64.0
  1
3
 41
0.875
  7
BIGFONT
100
AcDbText
  0
LINE
  5
D89
330
1E
100
AcDbEntity
  8
0
  6
Continuous
 62
     7
370
    13
100
AcDbLine
 10
5937.499999999999
 20
4845.364
 30
0.0
 11
5937.499999999999
 21
4970.364
 31
0.0
  0
LINE
  5
D8A
330
1E
100
AcDbEntity
  8
0
  6
Continuous
 62
     7
370
    13
100
AcDbLine
 10
5988.039999999999
 20
4970.364
 30
0.0
 11
5917.500000000002
 21
4970.364
 31
0.0
  0
LINE
  5
D8B
330
1E
100
AcDbEntity
  8
0
  6
Continuous
 62
     7
370
    13
100
AcDbLine
 10
5956.880999999999
 20
4845.364
 30
0.0
 11
5917.500000000002
 21
4845.364
 31
0.0
  0
LINE
  5
D8C
330
1E
100
AcDbEntity
  8
0
  6
Continuous
 62
     7
370
    13
100
AcDbLine
 10
5943.930600000001
 20
4946.346000000002
 30
0.0
 11
5937.499999999999
 21
4970.346000000001
 31
0.0
  0
LINE
  5
D8D
330
1E
100
AcDbEntity
  8
0
  6
Continuous
 62
     7
370
    13
100
AcDbLine
 10
5937.499999999999
 20
4970.346000000001
 30
0.0
 11
5931.0692
 21
4946.346000000002
 31
0.0
  0
LINE
  5
D8E
330
1E
100
AcDbEntity
  8
0
  6
Continuous
 62
     7
370
    13
100
AcDbLine
 10
5931.0692
 20
4869.346000000001
 30
0.0
 11
5937.499999999999
 21
4845.346000000001
 31
0.0
  0
LINE
  5
D8F
330
1E
100
AcDbEntity
  8
0
  6
Continuous
 62
     7
370
    13
100
AcDbLine
 10
5937.499999999999
 20
4845.346000000001
 30
0.0
 11
5943.930600000001
 21
4869.346000000001
 31
0.0
  0
TEXT
  5
D90
330
1E
100
AcDbEntity
  8
0
  6
Continuous
 62
     7
370
    13
100
AcDbText
 10
5925.500000000002
 20
4860.637702345112
 30
0.0
 40
64.0
  1
125
 50
90.0
 41
0.875
  7
BIGFONT
100
AcDbText
  0
LINE
  5
D91
330
1E
100
AcDbEntity
  8
0
  6
Continuous
 62
     7
370
    13
100
AcDbLine
 10
6123.087999999998
 20
4970.364
 30
0.0
 11
6417.993
 21
4970.364
 31
0.0
  0
LINE
  5
D92
330
1E
100
AcDbEntity
  8
0
  6
Continuous
 62
     7
370
    13
100
AcDbLine
 10
6837.955
 20
4645.364
 30
0.0
 11
7187.500000000001
 21
4645.364
 31
0.0
  0
LINE
  5
D93
330
1E
100
AcDbEntity
  8
0
  6
Continuous
 62
     7
370
    13
100
AcDbLine
 10
7187.500000000001
 20
4657.129
 30
0.0
 11
7187.500000000001
 21
4625.364000000001
 31
0.0
  0
LINE
  5
D94
330
1E
100
AcDbEntity
  8
0
  6
Continuous
 62
     7
370
    13
100
AcDbLine
 10
6837.955
 20
4825.364
 30
0.0
 11
6837.955
 21
4625.364000000001
 31
0.0
  0
LINE
  5
D95
330
1E
100
AcDbEntity
  8
0
  6
Continuous
 62
     7
370
    13
100
AcDbLine
 10
7163.499999999998
 20
4638.9152
 30
0.0
 11
7187.500000000001
 21
4645.346
 31
0.0
  0
LINE
  5
D96
330
1E
100
AcDbEntity
  8
0
  6
Continuous
 62
     7
370
    13
100
AcDbLine
 10
7187.500000000001
 20
4645.346
 30
0.0
 11
7163.499999999998
 21
4651.7766
 31
0.0
  0
LINE
  5
D97
330
1E
100
AcDbEntity
  8
0
  6
Continuous
 62
     7
370
    13
100
AcDbLine
 10
6861.939999999997
 20
4651.7766
 30
0.0
 11
6837.94
 21
4645.346
 31
0.0
  0
LINE
  5
D98
330
1E
100
AcDbEntity
  8
0
  6
Continuous
 62
     7
370
    13
100
AcDbLine
 10
6837.94
 20
4645.346
 30
0.0
 11
6861.939999999997
 21
4638.9152
 31
0.0
  0
TEXT
  5
D99
330
1E
100
AcDbEntity
  8
0
  6
Continuous
 62
     7
370
    13
100
AcDbText
 10
6928.727399999998
 20
4657.363999999999
 30
0.0
 40
64.0
  1
350
 41
0.875
  7
BIGFONT
100
AcDbText
  0
LINE
  5
D9A
330
1E
100
AcDbEntity
  8
0
  6
Continuous
 62
     7
370
    13
100
AcDbLine
 10
6437.499999999999
 20
4495.521
 30
0.0
 11
6937.500000000001
 21
4495.521
 31
0.0
  0
LINE
  5
D9B
330
1E
100
AcDbEntity
  8
0
  6
Continuous
 62
     7
370
    13
100
AcDbLine
 10
6937.500000000001
 20
4594.940999999997
 30
0.0
 11
6937.500000000001
 21
4475.520999999996
 31
0.0
  0
LINE
  5
D9C
330
1E
100
AcDbEntity
  8
0
  6
Continuous
 62
     7
370
    13
100
AcDbLine
 10
6437.499999999999
 20
4577.629
 30
0.0
 11
6437.499999999999
 21
4475.520999999996
 31
0.0
  0
LINE
  5
D9D
330
1E
100
AcDbEntity
  8
0
  6
Continuous
 62
     7
370
    13
100
AcDbLine
 10
6913.499999999998
 20
4489.075199999999
 30
0.0
 11
6937.500000000001
 21
4495.506
 31
0.0
  0
LINE
  5
D9E
330
1E
100
AcDbEntity
  8
0
  6
Continuous
 62
     7
370
    13
100
AcDbLine
 10
6937.500000000001
 20
4495.506
 30
0.0
 11
6913.499999999998
 21
4501.936599999999
 31
0.0
  0
LINE
  5
D9F
330
1E
100
AcDbEntity
  8
0
  6
Continuous
 62
     7
370
    13
100
AcDbLine
 10
6461.500000000002
 20
4501.936599999999
 30
0.0
 11
6437.499999999999
 21
4495.506
 31
0.0
  0
LINE
  5
DA0
330
1E
100
AcDbEntity
  8
0
  6
Continuous
 62
     7
370
    13
100
AcDbLine
 10
6437.499999999999
 20
4495.506
 30
0.0
 11
6461.500000000002
 21
4489.075199999999
 31
0.0
  0
TEXT
  5
DA1
330
1E
100
AcDbEntity
  8
0
  6
Continuous
 62
     7
370
    13
100
AcDbText
 10
6603.500000000003
 20
4507.520999999997
 30
0.0
 40
64.0
  1
500
 41
0.875
  7
BIGFONT
100
AcDbText
  0
LINE
  5
DA2
330
1E
100
AcDbEntity
  8
0
  6
Continuous
 62
     7
370
    13
100
AcDbLine
 10
6553.264000000002
 20
5840.599999999998
 30
0.0
 11
6674.892000000001
 21
6007.221999999998
 31
0.0
  0
LINE
  5
DA3
330
1E
100
AcDbEntity
  8
0
  6
Continuous
 62
     7
370
    13
100
AcDbLine
 10
6562.215999999998
 20
5863.762200000001
 30
0.0
 11
6553.26
 21
5840.586000000001
 31
0.0
  0
LINE
  5
DA4
330
1E
100
AcDbEntity
  8
0
  6
Continuous
 62
     7
370
    13
100
AcDbLine
 10
6553.26
 20
5840.586000000001
 30
0.0
 11
6572.604199999999
 21
5856.179199999997
 31
0.0
  0
LINE
  5
DA5
330
1E
100
AcDbEntity
  8
0
  6
Continuous
 62
     7
370
    13
100
AcDbLine
 10
6674.892000000001
 20
6007.221999999998
 30
0.0
 11
6991.350690475089
 21
6007.221999999998
 31
0.0
  0
TEXT
  5
DA6
330
1E
100
AcDbEntity
  8
0
  6
Continuous
 62
     7
370
    13
100
AcDbText
 10
6674.892000000001
 20
6019.221999999999
 30
0.0
 40
64.0
  1
９　面取り
 41
0.875
  7
BIGFONT
100
AcDbText
  0
TEXT
  5
DA7
330
1E
100
AcDbEntity
  8
0
  6
Continuous
 62
     7
370
    13
100
AcDbText
 10
6725.308
 20
6051.764999999997
 30
0.0
 40
50.0
  1
ｃ
  7
BIGFONT
100
AcDbText
  0
LINE
  5
DA8
330
1E
100
AcDbEntity
  8
0
  6
Continuous
 62
     7
370
    13
100
AcDbLine
 10
6441.892000000001
 20
5839.787999999998
 30
0.0
 11
6329.247999999997
 21
6007.221999999998
 31
0.0
  0
LINE
  5
DA9
330
1E
100
AcDbEntity
  8
0
  6
Continuous
 62
     7
370
    13
100
AcDbLine
 10
6423.147400000001
 20
5856.109199999998
 30
0.0
 11
6441.879999999999
 21
5839.786
 31
0.0
  0
LINE
  5
DAA
330
1E
100
AcDbEntity
  8
0
  6
Continuous
 62
     7
370
    13
100
AcDbLine
 10
6441.879999999999
 20
5839.786
 30
0.0
 11
6433.818799999999
 21
5863.288599999998
 31
0.0
  0
LINE
  5
DAB
330
1E
100
AcDbEntity
  8
0
  6
Continuous
 62
     7
370
    13
100
AcDbLine
 10
6329.247999999997
 20
6007.221999999998
 30
0.0
 11
5994.907020720095
 21
6007.221999999998
 31
0.0
  0
TEXT
  5
DAC
330
1E
100
AcDbEntity
  8
0
  6
Continuous
 62
     7
370
    13
100
AcDbText
 10
6009.566591212663
 20
6019.221999999999
 30
0.0
 40
64.0
  1
９　面取り
 41
0.875
  7
BIGFONT
100
AcDbText
  0
TEXT
  5
DAD
330
1E
100
AcDbEntity
  8
0
  6
Continuous
 62
     7
370
    13
100
AcDbText
 10
6057.292591212664
 20
6051.768999999997
 30
0.0
 40
50.0
  1
ｃ
  7
BIGFONT
100
AcDbText
  0
TEXT
  5
DAE
330
1E
100
AcDbEntity
  8
0
  6
Continuous
 62
     7
370
    13
100
AcDbText
 10
7127.288999999999
 20
5069.615999999999
 30
0.0
 40
60.0
  1
（4-継手フランジ）
 41
0.9333332999999999
  7
BIGFONT
100
AcDbText
  0
LINE
  5
DAF
330
1E
100
AcDbEntity
  8
0
  6
Continuous
 62
     7
370
    13
100
AcDbLine
 10
6486.549000000001
 20
5345.363999999999
 30
0.0
 11
6499.049000000001
 21
5345.363999999999
 31
0.0
  0
LINE
  5
DB0
330
1E
100
AcDbEntity
  8
0
  6
Continuous
 62
     7
370
    13
100
AcDbLine
 10
6237.500000000002
 20
5515.382
 30
0.0
 11
6237.500000000002
 21
5845.364
 31
0.0
  0
LINE
  5
DB1
330
1E
100
AcDbEntity
  8
0
  6
Continuous
 62
     7
370
    13
100
AcDbLine
 10
6247.417999999999
 20
5845.364
 30
0.0
 11
6217.500000000002
 21
5845.364
 31
0.0
  0
LINE
  5
DB2
330
1E
100
AcDbEntity
  8
0
  6
Continuous
 62
     7
370
    13
100
AcDbLine
 10
6417.500000000003
 20
5515.382
 30
0.0
 11
6217.500000000002
 21
5515.382
 31
0.0
  0
LINE
  5
DB3
330
1E
100
AcDbEntity
  8
0
  6
Continuous
 62
     7
370
    13
100
AcDbLine
 10
6243.930600000002
 20
5821.345999999999
 30
0.0
 11
6237.500000000002
 21
5845.346000000001
 31
0.0
  0
LINE
  5
DB4
330
1E
100
AcDbEntity
  8
0
  6
Continuous
 62
     7
370
    13
100
AcDbLine
 10
6237.500000000002
 20
5845.346000000001
 30
0.0
 11
6231.0692
 21
5821.345999999999
 31
0.0
  0
LINE
  5
DB5
330
1E
100
AcDbEntity
  8
0
  6
Continuous
 62
     7
370
    13
100
AcDbLine
 10
6231.0692
 20
5539.366000000001
 30
0.0
 11
6237.500000000002
 21
5515.366
 31
0.0
  0
LINE
  5
DB6
330
1E
100
AcDbEntity
  8
0
  6
Continuous
 62
     7
370
    13
100
AcDbLine
 10
6237.500000000002
 20
5515.366
 30
0.0
 11
6243.930600000002
 21
5539.366000000001
 31
0.0
  0
TEXT
  5
DB7
330
1E
100
AcDbEntity
  8
0
  6
Continuous
 62
     7
370
    13
100
AcDbText
 10
6225.500000000002
 20
5596.372999999999
 30
0.0
 40
64.0
  1
330
 50
90.0
 41
0.875
  7
BIGFONT
100
AcDbText
  0
LINE
  5
DB8
330
1E
100
AcDbEntity
  8
0
  6
Continuous
 62
     7
370
    13
100
AcDbLine
 10
6735.773000000003
 20
4969.796
 30
0.0
 11
6735.773000000003
 21
5020.364
 31
0.0
  0
LINE
  5
DB9
330
1E
100
AcDbEntity
  8
0
  6
Continuous
 62
     7
370
    13
100
AcDbLine
 10
6577.500000000002
 20
5020.364
 30
0.0
 11
6755.772999999999
 21
5020.364
 31
0.0
  0
LINE
  5
DBA
330
1E
100
AcDbEntity
  8
0
  6
Continuous
 62
     7
370
    13
100
AcDbLine
 10
6625.335999999997
 20
4969.796
 30
0.0
 11
6755.772999999999
 21
4969.796
 31
0.0
  0
LINE
  5
DBB
330
1E
100
AcDbEntity
  8
0
  6
Continuous
 62
     7
370
    13
100
AcDbLine
 10
6742.1906
 20
4996.346
 30
0.0
 11
6735.759999999996
 21
5020.346
 31
0.0
  0
LINE
  5
DBC
330
1E
100
AcDbEntity
  8
0
  6
Continuous
 62
     7
370
    13
100
AcDbLine
 10
6735.759999999996
 20
5020.346
 30
0.0
 11
6729.329200000002
 21
4996.346
 31
0.0
  0
LINE
  5
DBD
330
1E
100
AcDbEntity
  8
0
  6
Continuous
 62
     7
370
    13
100
AcDbLine
 10
6729.329200000002
 20
4993.786
 30
0.0
 11
6735.759999999996
 21
4969.786
 31
0.0
  0
LINE
  5
DBE
330
1E
100
AcDbEntity
  8
0
  6
Continuous
 62
     7
370
    13
100
AcDbLine
 10
6735.759999999996
 20
4969.786
 30
0.0
 11
6742.1906
 21
4993.786
 31
0.0
  0
TEXT
  5
DBF
330
1E
100
AcDbEntity
  8
0
  6
Continuous
 62
     7
370
    13
100
AcDbText
 10
6723.773000000003
 20
4939.08
 30
0.0
 40
64.0
  1
50
 50
90.0
 41
0.875
  7
BIGFONT
100
AcDbText
  0
LINE
  5
DC0
330
1E
100
AcDbEntity
  8
0
  6
Continuous
 62
     7
370
    13
100
AcDbLine
 10
6606.296
 20
4968.780999999999
 30
0.0
 11
6621.928000000001
 21
4966.783999999999
 31
0.0
  0
LINE
  5
DC1
330
1E
100
AcDbEntity
  8
0
  6
Continuous
 62
     7
370
    13
100
AcDbLine
 10
6557.500000000001
 20
5020.364
 30
0.0
 11
6557.500000000001
 21
5033.146000000002
 31
0.0
  0
LINE
  5
DC2
330
1E
100
AcDbEntity
  8
0
  6
Continuous
 62
     7
370
    13
100
AcDbLine
 10
6557.500000000001
 20
4975.015
 30
0.0
 11
6577.500000000002
 21
4972.459999999999
 31
0.0
  0
LINE
  5
DC3
330
1E
100
AcDbEntity
  8
0
  6
Continuous
 62
     7
370
    13
100
AcDbLine
 10
6557.500000000001
 20
4975.015
 30
0.0
 11
6557.500000000001
 21
4990.015
 31
0.0
  0
LINE
  5
DC4
330
1E
100
AcDbEntity
  8
0
  6
Continuous
 62
     7
370
    13
100
AcDbLine
 10
6437.499999999999
 20
4345.364
 30
0.0
 11
6557.500000000001
 21
4345.364
 31
0.0
  0
LINE
  5
DC5
330
1E
100
AcDbEntity
  8
0
  6
Continuous
 62
     7
370
    13
100
AcDbLine
 10
6557.500000000001
 20
4448.284999999997
 30
0.0
 11
6557.500000000001
 21
4325.364
 31
0.0
  0
LINE
  5
DC6
330
1E
100
AcDbEntity
  8
0
  6
Continuous
 62
     7
370
    13
100
AcDbLine
 10
6437.499999999999
 20
4361.390999999999
 30
0.0
 11
6437.499999999999
 21
4325.364
 31
0.0
  0
LINE
  5
DC7
330
1E
100
AcDbEntity
  8
0
  6
Continuous
 62
     7
370
    13
100
AcDbLine
 10
6533.499999999998
 20
4338.9152
 30
0.0
 11
6557.500000000001
 21
4345.346000000001
 31
0.0
  0
LINE
  5
DC8
330
1E
100
AcDbEntity
  8
0
  6
Continuous
 62
     7
370
    13
100
AcDbLine
 10
6557.500000000001
 20
4345.346000000001
 30
0.0
 11
6533.499999999998
 21
4351.776599999999
 31
0.0
  0
LINE
  5
DC9
330
1E
100
AcDbEntity
  8
0
  6
Continuous
 62
     7
370
    13
100
AcDbLine
 10
6461.500000000002
 20
4351.776599999999
 30
0.0
 11
6437.499999999999
 21
4345.346000000001
 31
0.0
  0
LINE
  5
DCA
330
1E
100
AcDbEntity
  8
0
  6
Continuous
 62
     7
370
    13
100
AcDbLine
 10
6437.499999999999
 20
4345.346000000001
 30
0.0
 11
6461.500000000002
 21
4338.9152
 31
0.0
  0
TEXT
  5
DCB
330
1E
100
AcDbEntity
  8
0
  6
Continuous
 62
     7
370
    13
100
AcDbText
 10
6413.500000000002
 20
4357.363999999999
 30
0.0
 40
64.0
  1
120
 41
0.875
  7
BIGFONT
100
AcDbText
  0
LINE
  5
DCC
330
1E
100
AcDbEntity
  8
0
  6
Continuous
 62
     7
370
    13
100
AcDbLine
 10
6557.500000000001
 20
4553.730999999999
 30
0.0
 11
6557.500000000001
 21
4827.449000000001
 31
0.0
  0
LINE
  5
DCD
330
1E
100
AcDbEntity
  8
0
  6
Continuous
 62
     7
370
    13
100
AcDbLine
 10
6937.500000000001
 20
4710.141000000001
 30
0.0
 11
6937.500000000001
 21
4827.449000000001
 31
0.0
  0
LINE
  5
DCE
330
1E
100
AcDbEntity
  8
0
  6
Continuous
 62
     7
370
    13
100
AcDbLine
 10
6844.356000000002
 20
4924.073
 30
0.0
 11
7040.925999999998
 21
5140.101999999998
 31
0.0
  0
LINE
  5
DCF
330
1E
100
AcDbEntity
  8
0
  6
Continuous
 62
     7
370
    13
100
AcDbLine
 10
6855.735800000001
 20
4946.145000000001
 30
0.0
 11
6844.339999999998
 21
4924.065999999999
 31
0.0
  0
LINE
  5
DD0
330
1E
100
AcDbEntity
  8
0
  6
Continuous
 62
     7
370
    13
100
AcDbLine
 10
6844.339999999998
 20
4924.065999999999
 30
0.0
 11
6865.248600000001
 21
4937.4892
 31
0.0
  0
LINE
  5
DD1
330
1E
100
AcDbEntity
  8
0
  6
Continuous
 62
     7
370
    13
100
AcDbLine
 10
7040.925999999998
 20
5140.101999999998
 30
0.0
 11
7824.926000000002
 21
5140.101999999998
 31
0.0
  0
TEXT
  5
DD2
330
1E
100
AcDbEntity
  8
0
  6
Continuous
 62
     7
370
    13
100
AcDbText
 10
7040.925999999998
 20
5152.102
 30
0.0
 40
64.0
  1
ボルト接合（W1/2×38)
 41
0.875
  7
BIGFONT
100
AcDbText
  0
LINE
  5
DD3
330
1E
100
AcDbEntity
  8
0
  6
Continuous
 62
     7
370
    13
100
AcDbLine
 10
8389.961000000001
 20
4345.364
 30
0.0
 11
8862.134000000001
 21
4345.364
 31
0.0
  0
LINE
  5
DD4
330
1E
100
AcDbEntity
  8
0
  6
Continuous
 62
     7
370
    13
100
AcDbLine
 10
8862.134000000001
 20
5221.274000000002
 30
0.0
 11
8862.134000000001
 21
4325.364
 31
0.0
  0
LINE
  5
DD5
330
1E
100
AcDbEntity
  8
0
  6
Continuous
 62
     7
370
    13
100
AcDbLine
 10
8389.961000000001
 20
4424.792
 30
0.0
 11
8389.961000000001
 21
4325.364
 31
0.0
  0
LINE
  5
DD6
330
1E
100
AcDbEntity
  8
0
  6
Continuous
 62
     7
370
    13
100
AcDbLine
 10
8838.119999999998
 20
4338.9152
 30
0.0
 11
8862.119999999997
 21
4345.346000000001
 31
0.0
  0
LINE
  5
DD7
330
1E
100
AcDbEntity
  8
0
  6
Continuous
 62
     7
370
    13
100
AcDbLine
 10
8862.119999999997
 20
4345.346000000001
 30
0.0
 11
8838.119999999998
 21
4351.776599999999
 31
0.0
  0
LINE
  5
DD8
330
1E
100
AcDbEntity
  8
0
  6
Continuous
 62
     7
370
    13
100
AcDbLine
 10
8413.959999999997
 20
4351.776599999999
 30
0.0
 11
8389.96
 21
4345.346000000001
 31
0.0
  0
LINE
  5
DD9
330
1E
100
AcDbEntity
  8
0
  6
Continuous
 62
     7
370
    13
100
AcDbLine
 10
8389.96
 20
4345.346000000001
 30
0.0
 11
8413.959999999997
 21
4338.9152
 31
0.0
  0
TEXT
  5
DDA
330
1E
100
AcDbEntity
  8
0
  6
Continuous
 62
     7
370
    13
100
AcDbText
 10
8525.247399999999
 20
4357.363999999999
 30
0.0
 40
64.0
  1
472.5
 41
0.875
  7
BIGFONT
100
AcDbText
  0
LINE
  5
DDB
330
1E
100
AcDbEntity
  8
0
  6
Continuous
 62
     7
370
    13
100
AcDbLine
 10
8862.134000000001
 20
4345.364
 30
0.0
 11
9911.892000000001
 21
4345.364
 31
0.0
  0
LINE
  5
DDC
330
1E
100
AcDbEntity
  8
0
  6
Continuous
 62
     7
370
    13
100
AcDbLine
 10
9911.892000000001
 20
5221.274000000002
 30
0.0
 11
9911.892000000001
 21
4325.364
 31
0.0
  0
LINE
  5
DDD
330
1E
100
AcDbEntity
  8
0
  6
Continuous
 62
     7
370
    13
100
AcDbLine
 10
9887.88
 20
4338.9152
 30
0.0
 11
9911.88
 21
4345.346000000001
 31
0.0
  0
LINE
  5
DDE
330
1E
100
AcDbEntity
  8
0
  6
Continuous
 62
     7
370
    13
100
AcDbLine
 10
9911.88
 20
4345.346000000001
 30
0.0
 11
9887.88
 21
4351.776599999999
 31
0.0
  0
LINE
  5
DDF
330
1E
100
AcDbEntity
  8
0
  6
Continuous
 62
     7
370
    13
100
AcDbLine
 10
8886.119999999996
 20
4351.776599999999
 30
0.0
 11
8862.119999999997
 21
4345.346000000001
 31
0.0
  0
LINE
  5
DE0
330
1E
100
AcDbEntity
  8
0
  6
Continuous
 62
     7
370
    13
100
AcDbLine
 10
8862.119999999997
 20
4345.346000000001
 30
0.0
 11
8886.119999999996
 21
4338.9152
 31
0.0
  0
TEXT
  5
DE1
330
1E
100
AcDbEntity
  8
0
  6
Continuous
 62
     7
370
    13
100
AcDbText
 10
9275.013000000001
 20
4357.363999999999
 30
0.0
 40
64.0
  1
1050
 41
0.875
  7
BIGFONT
100
AcDbText
  0
LINE
  5
DE2
330
1E
100
AcDbEntity
  8
0
  6
Continuous
 62
     7
370
    13
100
AcDbLine
 10
9911.892000000001
 20
4345.364
 30
0.0
 11
10384.96099999999
 21
4345.364
 31
0.0
  0
LINE
  5
DE3
330
1E
100
AcDbEntity
  8
0
  6
Continuous
 62
     7
370
    13
100
AcDbLine
 10
10384.96099999999
 20
4367.187999999997
 30
0.0
 11
10384.96099999999
 21
4325.364
 31
0.0
  0
LINE
  5
DE4
330
1E
100
AcDbEntity
  8
0
  6
Continuous
 62
     7
370
    13
100
AcDbLine
 10
10360.96
 20
4338.9152
 30
0.0
 11
10384.96
 21
4345.346000000001
 31
0.0
  0
LINE
  5
DE5
330
1E
100
AcDbEntity
  8
0
  6
Continuous
 62
     7
370
    13
100
AcDbLine
 10
10384.96
 20
4345.346000000001
 30
0.0
 11
10360.96
 21
4351.776599999999
 31
0.0
  0
LINE
  5
DE6
330
1E
100
AcDbEntity
  8
0
  6
Continuous
 62
     7
370
    13
100
AcDbLine
 10
9935.879999999999
 20
4351.776599999999
 30
0.0
 11
9911.88
 21
4345.346000000001
 31
0.0
  0
LINE
  5
DE7
330
1E
100
AcDbEntity
  8
0
  6
Continuous
 62
     7
370
    13
100
AcDbLine
 10
9911.88
 20
4345.346000000001
 30
0.0
 11
9935.879999999999
 21
4338.9152
 31
0.0
  0
TEXT
  5
DE8
330
1E
100
AcDbEntity
  8
0
  6
Continuous
 62
     7
370
    13
100
AcDbText
 10
10047.6264
 20
4357.363999999999
 30
0.0
 40
64.0
  1
472.5
 41
0.875
  7
BIGFONT
100
AcDbText
  0
LINE
  5
DE9
330
1E
100
AcDbEntity
  8
0
  6
Continuous
 62
     7
370
    13
100
AcDbLine
 10
8087.460999999997
 20
4845.258
 30
0.0
 11
8087.460999999997
 21
5445.243999999998
 31
0.0
  0
LINE
  5
DEA
330
1E
100
AcDbEntity
  8
0
  6
Continuous
 62
     7
370
    13
100
AcDbLine
 10
8731.005999999998
 20
5345.243999999998
 30
0.0
 11
8067.461000000001
 21
5345.243999999998
 31
0.0
  0
LINE
  5
DEB
330
1E
100
AcDbEntity
  8
0
  6
Continuous
 62
     7
370
    13
100
AcDbLine
 10
8369.961000000001
 20
4845.258
 30
0.0
 11
8067.461000000001
 21
4845.258
 31
0.0
  0
LINE
  5
DEC
330
1E
100
AcDbEntity
  8
0
  6
Continuous
 62
     7
370
    13
100
AcDbLine
 10
8093.890599999999
 20
5321.225999999999
 30
0.0
 11
8087.460000000001
 21
5345.226000000002
 31
0.0
  0
LINE
  5
DED
330
1E
100
AcDbEntity
  8
0
  6
Continuous
 62
     7
370
    13
100
AcDbLine
 10
8087.460000000001
 20
5345.226000000002
 30
0.0
 11
8081.029199999999
 21
5321.225999999999
 31
0.0
  0
LINE
  5
DEE
330
1E
100
AcDbEntity
  8
0
  6
Continuous
 62
     7
370
    13
100
AcDbLine
 10
8081.029199999999
 20
4869.246
 30
0.0
 11
8087.460000000001
 21
4845.245999999999
 31
0.0
  0
LINE
  5
DEF
330
1E
100
AcDbEntity
  8
0
  6
Continuous
 62
     7
370
    13
100
AcDbLine
 10
8087.460000000001
 20
4845.245999999999
 30
0.0
 11
8093.890599999999
 21
4869.246
 31
0.0
  0
TEXT
  5
DF0
330
1E
100
AcDbEntity
  8
0
  6
Continuous
 62
     7
370
    13
100
AcDbText
 10
8075.460999999997
 20
5061.251
 30
0.0
 40
64.0
  1
500
 50
90.0
 41
0.875
  7
BIGFONT
100
AcDbText
  0
LINE
  5
DF1
330
1E
100
AcDbEntity
  8
0
  6
Continuous
 62
     7
370
    13
100
AcDbLine
 10
8087.460999999997
 20
5445.243999999998
 30
0.0
 11
8087.460999999997
 21
5845.364
 31
0.0
  0
LINE
  5
DF2
330
1E
100
AcDbEntity
  8
0
  6
Continuous
 62
     7
370
    13
100
AcDbLine
 10
8369.961000000001
 20
5845.364
 30
0.0
 11
8067.461000000001
 21
5845.364
 31
0.0
  0
LINE
  5
DF3
330
1E
100
AcDbEntity
  8
0
  6
Continuous
 62
     7
370
    13
100
AcDbLine
 10
8093.890599999999
 20
5821.345999999999
 30
0.0
 11
8087.460000000001
 21
5845.346000000001
 31
0.0
  0
LINE
  5
DF4
330
1E
100
AcDbEntity
  8
0
  6
Continuous
 62
     7
370
    13
100
AcDbLine
 10
8087.460000000001
 20
5845.346000000001
 30
0.0
 11
8081.029199999999
 21
5821.345999999999
 31
0.0
  0
LINE
  5
DF5
330
1E
100
AcDbEntity
  8
0
  6
Continuous
 62
     7
370
    13
100
AcDbLine
 10
8081.029199999999
 20
5369.226000000002
 30
0.0
 11
8087.460000000001
 21
5345.226000000002
 31
0.0
  0
LINE
  5
DF6
330
1E
100
AcDbEntity
  8
0
  6
Continuous
 62
     7
370
    13
100
AcDbLine
 10
8087.460000000001
 20
5345.226000000002
 30
0.0
 11
8093.890599999999
 21
5369.226000000002
 31
0.0
  0
TEXT
  5
DF7
330
1E
100
AcDbEntity
  8
0
  6
Continuous
 62
     7
370
    13
100
AcDbText
 10
8075.460999999997
 20
5561.304
 30
0.0
 40
64.0
  1
500
 50
90.0
 41
0.875
  7
BIGFONT
100
AcDbText
  0
LINE
  5
DF8
330
1E
100
AcDbEntity
  8
0
  6
Continuous
 62
     7
370
    13
100
AcDbLine
 10
8884.777000000005
 20
5314.227999999999
 30
0.0
 11
9022.342
 21
5091.838999999999
 31
0.0
  0
LINE
  5
DF9
330
1E
100
AcDbEntity
  8
0
  6
Continuous
 62
     7
370
    13
100
AcDbLine
 10
8902.854600000001
 20
5297.198199999998
 30
0.0
 11
8884.760000000005
 21
5314.226000000001
 31
0.0
  0
LINE
  5
DFA
330
1E
100
AcDbEntity
  8
0
  6
Continuous
 62
     7
370
    13
100
AcDbLine
 10
8884.760000000005
 20
5314.226000000001
 30
0.0
 11
8891.916400000004
 21
5290.4322
 31
0.0
  0
LINE
  5
DFB
330
1E
100
AcDbEntity
  8
0
  6
Continuous
 62
     7
370
    13
100
AcDbLine
 10
9022.342
 20
5091.838999999999
 30
0.0
 11
9523.425590966066
 21
5091.838999999999
 31
0.0
  0
TEXT
  5
DFC
330
1E
100
AcDbEntity
  8
0
  6
Continuous
 62
     7
370
    13
100
AcDbText
 10
9022.342
 20
5103.839
 30
0.0
 40
64.0
  1
2-φ75水抜穴
 41
0.875
  7
BIGFONT
100
AcDbText
  0
LINE
  5
DFD
330
1E
100
AcDbEntity
  8
0
  6
Continuous
 62
     1
370
    25
100
AcDbLine
 10
1067.5
 20
5005.361
 30
0.0
 11
1173.448
 21
4893.364000000001
 31
0.0
  0
LINE
  5
DFE
330
1E
100
AcDbEntity
  8
0
  6
Continuous
 62
     7
370
    13
100
AcDbLine
 10
4475.713999999999
 20
5345.363999999999
 30
0.0
 11
4664.239000000001
 21
5345.363999999999
 31
0.0
  0
LINE
  5
DFF
330
1E
100
AcDbEntity
  8
0
  6
Continuous
 62
     7
370
    13
100
AcDbLine
 10
4562.499999999999
 20
5251.364000000002
 30
0.0
 11
4562.499999999999
 21
5439.364000000001
 31
0.0
  0
CIRCLE
  5
E00
330
1E
100
AcDbEntity
  8
0
  6
Continuous
 62
     7
370
    13
100
AcDbCircle
 10
4562.499999999999
 20
5345.363999999999
 30
0.0
 40
37.5
  0
LINE
  5
E01
330
1E
100
AcDbEntity
  8
0
  6
Continuous
 62
     7
370
    13
100
AcDbLine
 10
3425.714
 20
5345.363999999999
 30
0.0
 11
3614.238999999998
 21
5345.363999999999
 31
0.0
  0
LINE
  5
E02
330
1E
100
AcDbEntity
  8
0
  6
Continuous
 62
     7
370
    13
100
AcDbLine
 10
3512.5
 20
5251.364000000002
 30
0.0
 11
3512.5
 21
5439.364000000001
 31
0.0
  0
CIRCLE
  5
E03
330
1E
100
AcDbEntity
  8
0
  6
Continuous
 62
     7
370
    13
100
AcDbCircle
 10
3512.5
 20
5345.363999999999
 30
0.0
 40
37.5
  0
LINE
  5
E04
330
1E
100
AcDbEntity
  8
0
  6
HIDDEN
 62
     7
370
    13
100
AcDbLine
 10
2985.879000000001
 20
5515.525000000002
 30
0.0
 11
3130.469
 21
5515.525000000002
 31
0.0
  0
LINE
  5
E05
330
1E
100
AcDbEntity
  8
0
  6
Continuous
 62
     7
370
    13
100
AcDbLine
 10
4992.000000000001
 20
5470.686000000001
 30
0.0
 11
5031.999999999999
 21
5470.686000000001
 31
0.0
  0
LINE
  5
E06
330
1E
100
AcDbEntity
  8
0
  6
Continuous
 62
     7
370
    13
100
AcDbLine
 10
5031.999999999999
 20
5470.686000000001
 30
0.0
 11
5031.999999999999
 21
5560.686
 31
0.0
  0
LINE
  5
E07
330
1E
100
AcDbEntity
  8
0
  6
Continuous
 62
     7
370
    13
100
AcDbLine
 10
4992.000000000001
 20
5560.686
 30
0.0
 11
5031.999999999999
 21
5560.686
 31
0.0
  0
LINE
  5
E08
330
1E
100
AcDbEntity
  8
0
  6
Continuous
 62
     7
370
    13
100
AcDbLine
 10
4822.0
 20
5570.686000000002
 30
0.0
 11
5022.000000000002
 21
5570.686000000002
 31
0.0
  0
LINE
  5
E09
330
1E
100
AcDbEntity
  8
0
  6
Continuous
 62
     7
370
    13
100
AcDbLine
 10
4822.0
 20
5460.685999999999
 30
0.0
 11
5022.000000000002
 21
5460.685999999999
 31
0.0
  0
LINE
  5
E0A
330
1E
100
AcDbEntity
  8
0
  6
HIDDEN
 62
     7
370
    13
100
AcDbLine
 10
4944.530999999997
 20
5515.525000000002
 30
0.0
 11
5089.121000000001
 21
5515.525000000002
 31
0.0
  0
LINE
  5
E0B
330
1E
100
AcDbEntity
  8
0
  6
Continuous
 62
     1
370
    25
100
AcDbLine
 10
3287.5
 20
4890.364
 30
0.0
 11
3287.5
 21
5789.364
 31
0.0
  0
LINE
  5
E0C
330
1E
100
AcDbEntity
  8
0
  6
Continuous
 62
     1
370
    25
100
AcDbLine
 10
3587.5
 20
4890.364
 30
0.0
 11
3587.5
 21
5789.364
 31
0.0
  0
LINE
  5
E0D
330
1E
100
AcDbEntity
  8
0
  6
Continuous
 62
     1
370
    25
100
AcDbLine
 10
3887.5
 20
4890.364
 30
0.0
 11
3887.5
 21
5789.364
 31
0.0
  0
LINE
  5
E0E
330
1E
100
AcDbEntity
  8
0
  6
Continuous
 62
     1
370
    25
100
AcDbLine
 10
4187.499999999999
 20
4890.364
 30
0.0
 11
4187.499999999999
 21
5789.364
 31
0.0
  0
LINE
  5
E0F
330
1E
100
AcDbEntity
  8
0
  6
Continuous
 62
     1
370
    25
100
AcDbLine
 10
4487.499999999999
 20
4890.364
 30
0.0
 11
4487.499999999999
 21
5789.364
 31
0.0
  0
LINE
  5
E10
330
1E
100
AcDbEntity
  8
0
  6
Continuous
 62
     1
370
    25
100
AcDbLine
 10
4787.5
 20
4890.364
 30
0.0
 11
4787.5
 21
5789.364
 31
0.0
  0
LINE
  5
E11
330
1E
100
AcDbEntity
  8
0
  6
Continuous
 62
     1
370
    25
100
AcDbLine
 10
3092.500000000002
 20
5789.364
 30
0.0
 11
4982.500000000001
 21
5789.364
 31
0.0
  0
LINE
  5
E12
330
1E
100
AcDbEntity
  8
0
  6
Continuous
 62
     1
370
    25
100
AcDbLine
 10
3092.500000000002
 20
4929.363999999999
 30
0.0
 11
4982.500000000001
 21
4929.363999999999
 31
0.0
  0
LINE
  5
E13
330
1E
100
AcDbEntity
  8
0
  6
Continuous
 62
     1
370
    25
100
AcDbLine
 10
3092.500000000002
 20
5129.364
 30
0.0
 11
4982.500000000001
 21
5129.364
 31
0.0
  0
LINE
  5
E14
330
1E
100
AcDbEntity
  8
0
  6
Continuous
 62
     1
370
    25
100
AcDbLine
 10
3092.500000000002
 20
5429.364
 30
0.0
 11
4982.500000000001
 21
5429.364
 31
0.0
  0
LINE
  5
E15
330
1E
100
AcDbEntity
  8
0
  6
Continuous
 62
     1
370
    25
100
AcDbLine
 10
3092.500000000002
 20
5629.364
 30
0.0
 11
4982.500000000001
 21
5629.364
 31
0.0
  0
CIRCLE
  5
E16
330
1E
100
AcDbEntity
  8
0
  6
Continuous
 62
     7
370
    13
100
AcDbCircle
 10
5148.966000000002
 20
5289.324999999998
 30
0.0
 40
55.0
  0
CIRCLE
  5
E17
330
1E
100
AcDbEntity
  8
0
  6
Continuous
 62
     7
370
    13
100
AcDbCircle
 10
2715.838000000001
 20
5224.727999999998
 30
0.0
 40
55.0
  0
CIRCLE
  5
E18
330
1E
100
AcDbEntity
  8
0
  6
Continuous
 62
     7
370
    13
100
AcDbCircle
 10
2715.207000000001
 20
5760.264999999997
 30
0.0
 40
55.0
  0
TEXT
  5
E19
330
1E
100
AcDbEntity
  8
0
  6
Continuous
 62
     7
370
    13
100
AcDbText
 10
5097.288999999999
 20
5252.195999999997
 30
0.0
 40
72.0
  1
Ｓ
  7
BIGFONT
100
AcDbText
  0
TEXT
  5
E1A
330
1E
100
AcDbEntity
  8
0
  6
Continuous
 62
     7
370
    13
100
AcDbText
 10
2664.161
 20
5187.599
 30
0.0
 40
72.0
  1
Ｓ
  7
BIGFONT
100
AcDbText
  0
TEXT
  5
E1B
330
1E
100
AcDbEntity
  8
0
  6
Continuous
 62
     7
370
    13
100
AcDbText
 10
2661.530000000003
 20
5723.136000000001
 30
0.0
 40
72.0
  1
Ｓ
  7
BIGFONT
100
AcDbText
  0
TEXT
  5
E1C
330
1E
100
AcDbEntity
  8
0
  6
Continuous
 62
     7
370
    13
100
AcDbText
 10
5157.441000000001
 20
5257.951000000002
 30
0.0
 40
40.0
  1
１
  7
BIGFONT
100
AcDbText
  0
TEXT
  5
E1D
330
1E
100
AcDbEntity
  8
0
  6
Continuous
 62
     7
370
    13
100
AcDbText
 10
2724.016
 20
5192.647
 30
0.0
 40
40.0
  1
２
  7
BIGFONT
100
AcDbText
  0
TEXT
  5
E1E
330
1E
100
AcDbEntity
  8
0
  6
Continuous
 62
     7
370
    13
100
AcDbText
 10
2720.233999999999
 20
5728.112
 30
0.0
 40
40.0
  1
３
  7
BIGFONT
100
AcDbText
  0
CIRCLE
  5
E1F
330
1E
100
AcDbEntity
  8
0
  6
Continuous
 62
     7
370
    13
100
AcDbCircle
 10
822.0889999999998
 20
3321.574
 30
0.0
 40
55.0
  0
TEXT
  5
E20
330
1E
100
AcDbEntity
  8
0
  6
Continuous
 62
     7
370
    13
100
AcDbText
 10
768.4120000000002
 20
3284.445
 30
0.0
 40
72.0
  1
Ｓ
  7
BIGFONT
100
AcDbText
  0
TEXT
  5
E21
330
1E
100
AcDbEntity
  8
0
  6
Continuous
 62
     7
370
    13
100
AcDbText
 10
828.228000000001
 20
3289.387000000001
 30
0.0
 40
40.0
  1
４
  7
BIGFONT
100
AcDbText
  0
CIRCLE
  5
E22
330
1E
100
AcDbEntity
  8
0
  6
Continuous
 62
     7
370
    13
100
AcDbCircle
 10
3831.890999999998
 20
4701.176999999996
 30
0.0
 40
55.0
  0
TEXT
  5
E23
330
1E
100
AcDbEntity
  8
0
  6
Continuous
 62
     7
370
    13
100
AcDbText
 10
3778.214
 20
4664.048000000001
 30
0.0
 40
72.0
  1
Ｓ
  7
BIGFONT
100
AcDbText
  0
TEXT
  5
E24
330
1E
100
AcDbEntity
  8
0
  6
Continuous
 62
     7
370
    13
100
AcDbText
 10
3833.629000000001
 20
4668.828999999997
 30
0.0
 40
40.0
  1
８
  7
BIGFONT
100
AcDbText
  0
LINE
  5
E25
330
1E
100
AcDbEntity
  8
0
  6
Continuous
 62
     7
370
    13
100
AcDbLine
 10
2638.614
 20
5705.343000000002
 30
0.0
 11
3092.500000000002
 21
5705.343000000002
 31
0.0
  0
LINE
  5
E26
330
1E
100
AcDbEntity
  8
0
  6
Continuous
 62
     7
370
    13
100
AcDbLine
 10
3068.500000000002
 20
5698.895199999999
 30
0.0
 11
3092.500000000002
 21
5705.326
 31
0.0
  0
LINE
  5
E27
330
1E
100
AcDbEntity
  8
0
  6
Continuous
 62
     7
370
    13
100
AcDbLine
 10
3092.500000000002
 20
5705.326
 30
0.0
 11
3068.500000000002
 21
5711.7566
 31
0.0
  0
TEXT
  5
E28
330
1E
100
AcDbEntity
  8
0
  6
Continuous
 62
     7
370
    13
100
AcDbText
 10
928.0200000000004
 20
3280.407
 30
0.0
 40
64.0
  1
D10
  7
BIGFONT
100
AcDbText
  0
TEXT
  5
E29
330
1E
100
AcDbEntity
  8
0
  6
Continuous
 62
     7
370
    13
100
AcDbText
 10
5253.835000000001
 20
5255.205
 30
0.0
 40
64.0
  1
D10
  7
BIGFONT
100
AcDbText
  0
TEXT
  5
E2A
330
1E
100
AcDbEntity
  8
0
  6
Continuous
 62
     7
370
    13
100
AcDbText
 10
2820.686000000002
 20
5183.617
 30
0.0
 40
64.0
  1
D10
  7
BIGFONT
100
AcDbText
  0
TEXT
  5
E2B
330
1E
100
AcDbEntity
  8
0
  6
Continuous
 62
     7
370
    13
100
AcDbText
 10
2818.953000000002
 20
5724.666
 30
0.0
 40
64.0
  1
D10
  7
BIGFONT
100
AcDbText
  0
CIRCLE
  5
E2C
330
1E
100
AcDbEntity
  8
0
  6
Continuous
 62
     7
370
    13
100
AcDbCircle
 10
1344.398000000001
 20
3321.675000000001
 30
0.0
 40
55.0
  0
CIRCLE
  5
E2D
330
1E
100
AcDbEntity
  8
0
  6
Continuous
 62
     7
370
    13
100
AcDbCircle
 10
827.5110000000022
 20
803.7620000000005
 30
0.0
 40
55.0
  0
CIRCLE
  5
E2E
330
1E
100
AcDbEntity
  8
0
  6
Continuous
 62
     7
370
    13
100
AcDbCircle
 10
1556.194999999999
 20
5414.089
 30
0.0
 40
55.0
  0
TEXT
  5
E2F
330
1E
100
AcDbEntity
  8
0
  6
Continuous
 62
     7
370
    13
100
AcDbText
 10
1290.720999999999
 20
3284.546000000001
 30
0.0
 40
72.0
  1
Ｓ
  7
BIGFONT
100
AcDbText
  0
TEXT
  5
E30
330
1E
100
AcDbEntity
  8
0
  6
Continuous
 62
     7
370
    13
100
AcDbText
 10
773.8339999999989
 20
766.6329999999998
 30
0.0
 40
72.0
  1
Ｓ
  7
BIGFONT
100
AcDbText
  0
TEXT
  5
E31
330
1E
100
AcDbEntity
  8
0
  6
Continuous
 62
     7
370
    13
100
AcDbText
 10
1502.518
 20
5376.959999999999
 30
0.0
 40
72.0
  1
Ｓ
  7
BIGFONT
100
AcDbText
  0
TEXT
  5
E32
330
1E
100
AcDbEntity
  8
0
  6
Continuous
 62
     7
370
    13
100
AcDbText
 10
1351.030999999999
 20
3289.327
 30
0.0
 40
40.0
  1
５
  7
BIGFONT
100
AcDbText
  0
TEXT
  5
E33
330
1E
100
AcDbEntity
  8
0
  6
Continuous
 62
     7
370
    13
100
AcDbText
 10
1556.130999999999
 20
5382.309999999999
 30
0.0
 40
40.0
  1
７
  7
BIGFONT
100
AcDbText
  0
LINE
  5
E34
330
1E
100
AcDbEntity
  8
0
  6
Continuous
 62
     7
370
    13
100
AcDbLine
 10
734.4290000000037
 20
747.7260000000005
 30
0.0
 11
1138.306
 21
747.7260000000005
 31
0.0
  0
TEXT
  5
E35
330
1E
100
AcDbEntity
  8
0
  6
Continuous
 62
     7
370
    13
100
AcDbText
 10
1435.024999999999
 20
3289.511
 30
0.0
 40
64.0
  1
D10
  7
BIGFONT
100
AcDbText
  0
TEXT
  5
E36
330
1E
100
AcDbEntity
  8
0
  6
Continuous
 62
     7
370
    13
100
AcDbText
 10
918.8770000000003
 20
767.6890000000021
 30
0.0
 40
64.0
  1
D10
  7
BIGFONT
100
AcDbText
  0
TEXT
  5
E37
330
1E
100
AcDbEntity
  8
0
  6
Continuous
 62
     7
370
    13
100
AcDbText
 10
1640.181
 20
5382.924000000001
 30
0.0
 40
64.0
  1
D10
  7
BIGFONT
100
AcDbText
  0
LINE
  5
E38
330
1E
100
AcDbEntity
  8
0
  6
Continuous
 62
     7
370
    13
100
AcDbLine
 10
3742.000999999998
 20
4645.364
 30
0.0
 11
4145.878
 21
4645.364
 31
0.0
  0
TEXT
  5
E39
330
1E
100
AcDbEntity
  8
0
  6
Continuous
 62
     7
370
    13
100
AcDbText
 10
3945.774999999997
 20
4664.764
 30
0.0
 40
64.0
  1
D10
  7
BIGFONT
100
AcDbText
  0
LINE
  5
E3A
330
1E
100
AcDbEntity
  8
0
  6
Continuous
 62
     7
370
    13
100
AcDbLine
 10
3587.5
 20
5234.344
 30
0.0
 11
3287.5
 21
5234.344
 31
0.0
  0
LINE
  5
E3B
330
1E
100
AcDbEntity
  8
0
  6
Continuous
 62
     7
370
    13
100
AcDbLine
 10
3311.5
 20
5240.7566
 30
0.0
 11
3287.5
 21
5234.326
 31
0.0
  0
LINE
  5
E3C
330
1E
100
AcDbEntity
  8
0
  6
Continuous
 62
     7
370
    13
100
AcDbLine
 10
3287.5
 20
5234.326
 30
0.0
 11
3311.5
 21
5227.895199999998
 31
0.0
  0
LINE
  5
E3D
330
1E
100
AcDbEntity
  8
0
  6
Continuous
 62
     7
370
    13
100
AcDbLine
 10
3887.5
 20
5234.344
 30
0.0
 11
3585.952999999998
 21
5234.344
 31
0.0
  0
LINE
  5
E3E
330
1E
100
AcDbEntity
  8
0
  6
Continuous
 62
     7
370
    13
100
AcDbLine
 10
3609.96
 20
5240.7566
 30
0.0
 11
3585.96
 21
5234.326
 31
0.0
  0
LINE
  5
E3F
330
1E
100
AcDbEntity
  8
0
  6
Continuous
 62
     7
370
    13
100
AcDbLine
 10
3585.96
 20
5234.326
 30
0.0
 11
3609.96
 21
5227.895199999998
 31
0.0
  0
LINE
  5
E40
330
1E
100
AcDbEntity
  8
0
  6
Continuous
 62
     7
370
    13
100
AcDbLine
 10
4187.499999999999
 20
5234.344
 30
0.0
 11
3887.5
 21
5234.344
 31
0.0
  0
LINE
  5
E41
330
1E
100
AcDbEntity
  8
0
  6
Continuous
 62
     7
370
    13
100
AcDbLine
 10
3911.5
 20
5240.7566
 30
0.0
 11
3887.5
 21
5234.326
 31
0.0
  0
LINE
  5
E42
330
1E
100
AcDbEntity
  8
0
  6
Continuous
 62
     7
370
    13
100
AcDbLine
 10
3887.5
 20
5234.326
 30
0.0
 11
3911.5
 21
5227.895199999998
 31
0.0
  0
LINE
  5
E43
330
1E
100
AcDbEntity
  8
0
  6
Continuous
 62
     7
370
    13
100
AcDbLine
 10
4487.499999999999
 20
5234.344
 30
0.0
 11
4187.499999999999
 21
5234.344
 31
0.0
  0
LINE
  5
E44
330
1E
100
AcDbEntity
  8
0
  6
Continuous
 62
     7
370
    13
100
AcDbLine
 10
4211.5
 20
5240.7566
 30
0.0
 11
4187.499999999999
 21
5234.326
 31
0.0
  0
LINE
  5
E45
330
1E
100
AcDbEntity
  8
0
  6
Continuous
 62
     7
370
    13
100
AcDbLine
 10
4187.499999999999
 20
5234.326
 30
0.0
 11
4211.5
 21
5227.895199999998
 31
0.0
  0
LINE
  5
E46
330
1E
100
AcDbEntity
  8
0
  6
Continuous
 62
     7
370
    13
100
AcDbLine
 10
4787.5
 20
5234.344
 30
0.0
 11
4485.962999999999
 21
5234.344
 31
0.0
  0
LINE
  5
E47
330
1E
100
AcDbEntity
  8
0
  6
Continuous
 62
     7
370
    13
100
AcDbLine
 10
4509.980000000001
 20
5240.7566
 30
0.0
 11
4485.98
 21
5234.326
 31
0.0
  0
LINE
  5
E48
330
1E
100
AcDbEntity
  8
0
  6
Continuous
 62
     7
370
    13
100
AcDbLine
 10
4485.98
 20
5234.326
 30
0.0
 11
4509.980000000001
 21
5227.895199999998
 31
0.0
  0
LINE
  5
E49
330
1E
100
AcDbEntity
  8
0
  6
DASHED
 62
     1
370
    25
100
AcDbLine
 10
3102.5
 20
4889.846999999997
 30
0.0
 11
3102.5
 21
5089.846999999998
 31
0.0
  0
LINE
  5
E4A
330
1E
100
AcDbEntity
  8
0
  6
DASHED
 62
     1
370
    25
100
AcDbLine
 10
3297.500000000002
 20
4889.846999999997
 30
0.0
 11
3297.500000000002
 21
5089.846999999998
 31
0.0
  0
LINE
  5
E4B
330
1E
100
AcDbEntity
  8
0
  6
DASHED
 62
     1
370
    25
100
AcDbLine
 10
3597.5
 20
4889.846999999997
 30
0.0
 11
3597.5
 21
5089.846999999998
 31
0.0
  0
LINE
  5
E4C
330
1E
100
AcDbEntity
  8
0
  6
DASHED
 62
     1
370
    25
100
AcDbLine
 10
3897.5
 20
4889.846999999997
 30
0.0
 11
3897.5
 21
5089.846999999998
 31
0.0
  0
LINE
  5
E4D
330
1E
100
AcDbEntity
  8
0
  6
DASHED
 62
     1
370
    25
100
AcDbLine
 10
4972.500000000002
 20
4889.846999999997
 30
0.0
 11
4972.500000000002
 21
5089.846999999998
 31
0.0
  0
LINE
  5
E4E
330
1E
100
AcDbEntity
  8
0
  6
DASHED
 62
     1
370
    25
100
AcDbLine
 10
4777.499999999999
 20
4889.846999999997
 30
0.0
 11
4777.499999999999
 21
5089.846999999998
 31
0.0
  0
LINE
  5
E4F
330
1E
100
AcDbEntity
  8
0
  6
DASHED
 62
     1
370
    25
100
AcDbLine
 10
4477.5
 20
4889.846999999997
 30
0.0
 11
4477.5
 21
5089.846999999998
 31
0.0
  0
LINE
  5
E50
330
1E
100
AcDbEntity
  8
0
  6
DASHED
 62
     1
370
    25
100
AcDbLine
 10
4177.5
 20
4889.846999999997
 30
0.0
 11
4177.5
 21
5089.846999999998
 31
0.0
  0
LINE
  5
E51
330
1E
100
AcDbEntity
  8
0
  6
Continuous
 62
     7
370
    13
100
AcDbLine
 10
3297.500000000002
 20
5039.663
 30
0.0
 11
3102.5
 21
5039.663
 31
0.0
  0
LINE
  5
E52
330
1E
100
AcDbEntity
  8
0
  6
Continuous
 62
     7
370
    13
100
AcDbLine
 10
3126.499999999998
 20
5046.076600000001
 30
0.0
 11
3102.5
 21
5039.646000000002
 31
0.0
  0
LINE
  5
E53
330
1E
100
AcDbEntity
  8
0
  6
Continuous
 62
     7
370
    13
100
AcDbLine
 10
3102.5
 20
5039.646000000002
 30
0.0
 11
3126.499999999998
 21
5033.215199999999
 31
0.0
  0
LINE
  5
E54
330
1E
100
AcDbEntity
  8
0
  6
Continuous
 62
     7
370
    13
100
AcDbLine
 10
3597.5
 20
5039.663
 30
0.0
 11
3297.444000000002
 21
5039.663
 31
0.0
  0
LINE
  5
E55
330
1E
100
AcDbEntity
  8
0
  6
Continuous
 62
     7
370
    13
100
AcDbLine
 10
3321.459999999999
 20
5046.076600000001
 30
0.0
 11
3297.46
 21
5039.646000000002
 31
0.0
  0
LINE
  5
E56
330
1E
100
AcDbEntity
  8
0
  6
Continuous
 62
     7
370
    13
100
AcDbLine
 10
3297.46
 20
5039.646000000002
 30
0.0
 11
3321.459999999999
 21
5033.215199999999
 31
0.0
  0
LINE
  5
E57
330
1E
100
AcDbEntity
  8
0
  6
Continuous
 62
     7
370
    13
100
AcDbLine
 10
3897.5
 20
5039.663
 30
0.0
 11
3597.5
 21
5039.663
 31
0.0
  0
LINE
  5
E58
330
1E
100
AcDbEntity
  8
0
  6
Continuous
 62
     7
370
    13
100
AcDbLine
 10
3621.500000000001
 20
5046.076600000001
 30
0.0
 11
3597.5
 21
5039.646000000002
 31
0.0
  0
LINE
  5
E59
330
1E
100
AcDbEntity
  8
0
  6
Continuous
 62
     7
370
    13
100
AcDbLine
 10
3597.5
 20
5039.646000000002
 30
0.0
 11
3621.500000000001
 21
5033.215199999999
 31
0.0
  0
LINE
  5
E5A
330
1E
100
AcDbEntity
  8
0
  6
Continuous
 62
     7
370
    13
100
AcDbLine
 10
4177.5
 20
5039.663
 30
0.0
 11
3897.5
 21
5039.663
 31
0.0
  0
LINE
  5
E5B
330
1E
100
AcDbEntity
  8
0
  6
Continuous
 62
     7
370
    13
100
AcDbLine
 10
3921.5
 20
5046.076600000001
 30
0.0
 11
3897.5
 21
5039.646000000002
 31
0.0
  0
LINE
  5
E5C
330
1E
100
AcDbEntity
  8
0
  6
Continuous
 62
     7
370
    13
100
AcDbLine
 10
3897.5
 20
5039.646000000002
 30
0.0
 11
3921.5
 21
5033.215199999999
 31
0.0
  0
LINE
  5
E5D
330
1E
100
AcDbEntity
  8
0
  6
Continuous
 62
     7
370
    13
100
AcDbLine
 10
4477.5
 20
5039.663
 30
0.0
 11
4177.5
 21
5039.663
 31
0.0
  0
LINE
  5
E5E
330
1E
100
AcDbEntity
  8
0
  6
Continuous
 62
     7
370
    13
100
AcDbLine
 10
4201.5
 20
5046.076600000001
 30
0.0
 11
4177.5
 21
5039.646000000002
 31
0.0
  0
LINE
  5
E5F
330
1E
100
AcDbEntity
  8
0
  6
Continuous
 62
     7
370
    13
100
AcDbLine
 10
4177.5
 20
5039.646000000002
 30
0.0
 11
4201.5
 21
5033.215199999999
 31
0.0
  0
LINE
  5
E60
330
1E
100
AcDbEntity
  8
0
  6
Continuous
 62
     7
370
    13
100
AcDbLine
 10
4777.499999999999
 20
5039.663
 30
0.0
 11
4477.257000000001
 21
5039.663
 31
0.0
  0
LINE
  5
E61
330
1E
100
AcDbEntity
  8
0
  6
Continuous
 62
     7
370
    13
100
AcDbLine
 10
4501.260000000002
 20
5046.076600000001
 30
0.0
 11
4477.26
 21
5039.646000000002
 31
0.0
  0
LINE
  5
E62
330
1E
100
AcDbEntity
  8
0
  6
Continuous
 62
     7
370
    13
100
AcDbLine
 10
4477.26
 20
5039.646000000002
 30
0.0
 11
4501.260000000002
 21
5033.215199999999
 31
0.0
  0
LINE
  5
E63
330
1E
100
AcDbEntity
  8
0
  6
Continuous
 62
     7
370
    13
100
AcDbLine
 10
4972.500000000002
 20
5039.663
 30
0.0
 11
4777.499999999999
 21
5039.663
 31
0.0
  0
LINE
  5
E64
330
1E
100
AcDbEntity
  8
0
  6
Continuous
 62
     7
370
    13
100
AcDbLine
 10
4801.5
 20
5046.076600000001
 30
0.0
 11
4777.499999999999
 21
5039.646000000002
 31
0.0
  0
LINE
  5
E65
330
1E
100
AcDbEntity
  8
0
  6
Continuous
 62
     7
370
    13
100
AcDbLine
 10
4777.499999999999
 20
5039.646000000002
 30
0.0
 11
4801.5
 21
5033.215199999999
 31
0.0
  0
LINE
  5
E66
330
1E
100
AcDbEntity
  8
0
  6
Continuous
 62
     7
370
    13
100
AcDbLine
 10
5441.932000000003
 20
5039.663
 30
0.0
 11
4972.500000000002
 21
5039.663
 31
0.0
  0
LINE
  5
E67
330
1E
100
AcDbEntity
  8
0
  6
Continuous
 62
     7
370
    13
100
AcDbLine
 10
4996.500000000001
 20
5046.076600000001
 30
0.0
 11
4972.500000000002
 21
5039.646000000002
 31
0.0
  0
LINE
  5
E68
330
1E
100
AcDbEntity
  8
0
  6
Continuous
 62
     7
370
    13
100
AcDbLine
 10
4972.500000000002
 20
5039.646000000002
 30
0.0
 11
4996.500000000001
 21
5033.215199999999
 31
0.0
  0
CIRCLE
  5
E69
330
1E
100
AcDbEntity
  8
0
  6
Continuous
 62
     7
370
    13
100
AcDbCircle
 10
5153.555000000002
 20
5094.625
 30
0.0
 40
55.0
  0
TEXT
  5
E6A
330
1E
100
AcDbEntity
  8
0
  6
Continuous
 62
     7
370
    13
100
AcDbText
 10
5099.877999999999
 20
5057.496
 30
0.0
 40
72.0
  1
Ｓ
  7
BIGFONT
100
AcDbText
  0
TEXT
  5
E6B
330
1E
100
AcDbEntity
  8
0
  6
Continuous
 62
     7
370
    13
100
AcDbText
 10
5153.491
 20
5062.846000000002
 30
0.0
 40
40.0
  1
７
  7
BIGFONT
100
AcDbText
  0
TEXT
  5
E6C
330
1E
100
AcDbEntity
  8
0
  6
Continuous
 62
     7
370
    13
100
AcDbText
 10
5252.540999999999
 20
5063.46
 30
0.0
 40
64.0
  1
D10
  7
BIGFONT
100
AcDbText
  0
LINE
  5
E6D
330
1E
100
AcDbEntity
  8
0
  6
Continuous
 62
     7
370
    13
100
AcDbLine
 10
3092.500000000002
 20
5705.343000000002
 30
0.0
 11
4982.500000000001
 21
5705.343000000002
 31
0.0
  0
LINE
  5
E6E
330
1E
100
AcDbEntity
  8
0
  6
Continuous
 62
     7
370
    13
100
AcDbLine
 10
4958.500000000002
 20
5698.895199999999
 30
0.0
 11
4982.500000000001
 21
5705.326
 31
0.0
  0
LINE
  5
E6F
330
1E
100
AcDbEntity
  8
0
  6
Continuous
 62
     7
370
    13
100
AcDbLine
 10
4982.500000000001
 20
5705.326
 30
0.0
 11
4958.500000000002
 21
5711.7566
 31
0.0
  0
LINE
  5
E70
330
1E
100
AcDbEntity
  8
0
  6
Continuous
 62
     7
370
    13
100
AcDbLine
 10
2638.614
 20
5169.78
 30
0.0
 11
3092.500000000002
 21
5169.78
 31
0.0
  0
LINE
  5
E71
330
1E
100
AcDbEntity
  8
0
  6
Continuous
 62
     7
370
    13
100
AcDbLine
 10
3068.500000000002
 20
5163.3352
 30
0.0
 11
3092.500000000002
 21
5169.766
 31
0.0
  0
LINE
  5
E72
330
1E
100
AcDbEntity
  8
0
  6
Continuous
 62
     7
370
    13
100
AcDbLine
 10
3092.500000000002
 20
5169.766
 30
0.0
 11
3068.500000000002
 21
5176.196599999999
 31
0.0
  0
LINE
  5
E73
330
1E
100
AcDbEntity
  8
0
  6
Continuous
 62
     7
370
    13
100
AcDbLine
 10
3092.500000000002
 20
5169.78
 30
0.0
 11
4982.500000000001
 21
5169.78
 31
0.0
  0
LINE
  5
E74
330
1E
100
AcDbEntity
  8
0
  6
Continuous
 62
     7
370
    13
100
AcDbLine
 10
4958.500000000002
 20
5163.3352
 30
0.0
 11
4982.500000000001
 21
5169.766
 31
0.0
  0
LINE
  5
E75
330
1E
100
AcDbEntity
  8
0
  6
Continuous
 62
     7
370
    13
100
AcDbLine
 10
4982.500000000001
 20
5169.766
 30
0.0
 11
4958.500000000002
 21
5176.196599999999
 31
0.0
  0
LINE
  5
E76
330
1E
100
AcDbEntity
  8
0
  6
Continuous
 62
     1
370
    25
100
AcDbLine
 10
1062.5
 20
2997.726000000001
 30
0.0
 11
1285.702999999999
 21
2997.726000000001
 31
0.0
  0
LINE
  5
E77
330
1E
100
AcDbEntity
  8
0
  6
Continuous
 62
     1
370
    25
100
AcDbLine
 10
1487.5
 20
2997.726000000001
 30
0.0
 11
1682.5
 21
2997.726000000001
 31
0.0
  0
LINE
  5
E78
330
1E
100
AcDbEntity
  8
0
  6
Continuous
 62
     1
370
    25
100
AcDbLine
 10
1062.5
 20
2802.726000000001
 30
0.0
 11
1682.5
 21
2802.726000000001
 31
0.0
  0
LINE
  5
E79
330
1E
100
AcDbEntity
  8
0
  6
Continuous
 62
     1
370
    25
100
AcDbLine
 10
1062.5
 20
2502.726000000001
 30
0.0
 11
1682.5
 21
2502.726000000001
 31
0.0
  0
LINE
  5
E7A
330
1E
100
AcDbEntity
  8
0
  6
Continuous
 62
     1
370
    25
100
AcDbLine
 10
1062.5
 20
2202.726000000001
 30
0.0
 11
1682.5
 21
2202.726000000001
 31
0.0
  0
LINE
  5
E7B
330
1E
100
AcDbEntity
  8
0
  6
Continuous
 62
     1
370
    25
100
AcDbLine
 10
1062.5
 20
1102.726
 30
0.0
 11
1272.5
 21
1102.726
 31
0.0
  0
LINE
  5
E7C
330
1E
100
AcDbEntity
  8
0
  6
DASHED
 62
     1
370
    25
100
AcDbLine
 10
1062.5
 20
1112.726000000002
 30
0.0
 11
1272.5
 21
1112.726000000002
 31
0.0
  0
LINE
  5
E7D
330
1E
100
AcDbEntity
  8
0
  6
Continuous
 62
     1
370
    25
100
AcDbLine
 10
1062.5
 20
1297.726000000001
 30
0.0
 11
1272.5
 21
1297.726000000001
 31
0.0
  0
LINE
  5
E7E
330
1E
100
AcDbEntity
  8
0
  6
DASHED
 62
     1
370
    25
100
AcDbLine
 10
1062.5
 20
1307.726
 30
0.0
 11
1272.5
 21
1307.726
 31
0.0
  0
LINE
  5
E7F
330
1E
100
AcDbEntity
  8
0
  6
Continuous
 62
     1
370
    25
100
AcDbLine
 10
1062.5
 20
1597.726
 30
0.0
 11
1272.5
 21
1597.726
 31
0.0
  0
LINE
  5
E80
330
1E
100
AcDbEntity
  8
0
  6
DASHED
 62
     1
370
    25
100
AcDbLine
 10
1062.5
 20
1607.726
 30
0.0
 11
1272.5
 21
1607.726
 31
0.0
  0
LINE
  5
E81
330
1E
100
AcDbEntity
  8
0
  6
Continuous
 62
     1
370
    25
100
AcDbLine
 10
1062.5
 20
1897.726
 30
0.0
 11
1272.5
 21
1897.726
 31
0.0
  0
LINE
  5
E82
330
1E
100
AcDbEntity
  8
0
  6
DASHED
 62
     1
370
    25
100
AcDbLine
 10
1062.5
 20
1907.726
 30
0.0
 11
1272.5
 21
1907.726
 31
0.0
  0
LINE
  5
E83
330
1E
100
AcDbEntity
  8
0
  6
Continuous
 62
     7
370
    13
100
AcDbLine
 10
734.4290000000037
 20
3266.695
 30
0.0
 11
1138.306
 21
3266.695
 31
0.0
  0
LINE
  5
E84
330
1E
100
AcDbEntity
  8
0
  6
Continuous
 62
     1
370
    25
100
AcDbLine
 10
1094.5
 20
1102.726
 30
0.0
 11
1094.5
 21
2047.726
 31
0.0
  0
LINE
  5
E85
330
1E
100
AcDbEntity
  8
0
  6
Continuous
 62
     1
370
    25
100
AcDbLine
 10
1062.5
 20
2047.726
 30
0.0
 11
1062.5
 21
2997.726000000001
 31
0.0
  0
CIRCLE
  5
E86
330
1E
100
AcDbEntity
  8
0
  6
Continuous
 62
     7
370
    13
100
AcDbCircle
 10
1326.290000000001
 20
802.7170000000005
 30
0.0
 40
55.0
  0
CIRCLE
  5
E87
330
1E
100
AcDbEntity
  8
0
  6
Continuous
 62
     7
370
    13
100
AcDbCircle
 10
1282.015999999999
 20
602.8739999999998
 30
0.0
 40
55.0
  0
TEXT
  5
E88
330
1E
100
AcDbEntity
  8
0
  6
Continuous
 62
     7
370
    13
100
AcDbText
 10
1274.613000000001
 20
765.5879999999997
 30
0.0
 40
72.0
  1
Ｓ
  7
BIGFONT
100
AcDbText
  0
TEXT
  5
E89
330
1E
100
AcDbEntity
  8
0
  6
Continuous
 62
     7
370
    13
100
AcDbText
 10
1230.339
 20
565.7450000000007
 30
0.0
 40
72.0
  1
Ｓ
  7
BIGFONT
100
AcDbText
  0
TEXT
  5
E8A
330
1E
100
AcDbEntity
  8
0
  6
Continuous
 62
     7
370
    13
100
AcDbText
 10
1334.764999999997
 20
771.3429999999989
 30
0.0
 40
40.0
  1
１
  7
BIGFONT
100
AcDbText
  0
TEXT
  5
E8B
330
1E
100
AcDbEntity
  8
0
  6
Continuous
 62
     7
370
    13
100
AcDbText
 10
1290.194000000001
 20
570.7929999999996
 30
0.0
 40
40.0
  1
２
  7
BIGFONT
100
AcDbText
  0
TEXT
  5
E8C
330
1E
100
AcDbEntity
  8
0
  6
Continuous
 62
     7
370
    13
100
AcDbText
 10
1431.159
 20
768.5969999999997
 30
0.0
 40
64.0
  1
D10
  7
BIGFONT
100
AcDbText
  0
TEXT
  5
E8D
330
1E
100
AcDbEntity
  8
0
  6
Continuous
 62
     7
370
    13
100
AcDbText
 10
1386.863999999999
 20
561.7630000000026
 30
0.0
 40
64.0
  1
Ｄ１０
  7
BIGFONT
100
AcDbText
  0
LINE
  5
E8E
330
1E
100
AcDbEntity
  8
0
  6
Continuous
 62
     7
370
    13
100
AcDbLine
 10
1186.621999999999
 20
547.9639999999999
 30
0.0
 11
1590.499
 21
547.9639999999999
 31
0.0
  0
LINE
  5
E8F
330
1E
100
AcDbEntity
  8
0
  6
Continuous
 62
     7
370
    13
100
AcDbLine
 10
1228.036000000002
 20
747.7260000000005
 30
0.0
 11
1631.913
 21
747.7260000000005
 31
0.0
  0
LINE
  5
E90
330
1E
100
AcDbEntity
  8
0
  6
Continuous
 62
     7
370
    13
100
AcDbLine
 10
1228.036000000002
 20
1597.726
 30
0.0
 11
1228.036000000002
 21
1897.726
 31
0.0
  0
LINE
  5
E91
330
1E
100
AcDbEntity
  8
0
  6
Continuous
 62
     7
370
    13
100
AcDbLine
 10
1234.470799999999
 20
1873.726
 30
0.0
 11
1228.040000000001
 21
1897.726
 31
0.0
  0
LINE
  5
E92
330
1E
100
AcDbEntity
  8
0
  6
Continuous
 62
     7
370
    13
100
AcDbLine
 10
1228.040000000001
 20
1897.726
 30
0.0
 11
1221.609400000001
 21
1873.726
 31
0.0
  0
LINE
  5
E93
330
1E
100
AcDbEntity
  8
0
  6
Continuous
 62
     7
370
    13
100
AcDbLine
 10
1228.036000000002
 20
1297.726000000001
 30
0.0
 11
1228.036000000002
 21
1597.726
 31
0.0
  0
LINE
  5
E94
330
1E
100
AcDbEntity
  8
0
  6
Continuous
 62
     7
370
    13
100
AcDbLine
 10
1234.470799999999
 20
1573.726
 30
0.0
 11
1228.040000000001
 21
1597.726
 31
0.0
  0
LINE
  5
E95
330
1E
100
AcDbEntity
  8
0
  6
Continuous
 62
     7
370
    13
100
AcDbLine
 10
1228.040000000001
 20
1597.726
 30
0.0
 11
1221.609400000001
 21
1573.726
 31
0.0
  0
LINE
  5
E96
330
1E
100
AcDbEntity
  8
0
  6
Continuous
 62
     7
370
    13
100
AcDbLine
 10
1228.036000000002
 20
747.7260000000005
 30
0.0
 11
1228.036000000002
 21
1298.132000000001
 31
0.0
  0
LINE
  5
E97
330
1E
100
AcDbEntity
  8
0
  6
Continuous
 62
     7
370
    13
100
AcDbLine
 10
1234.470799999999
 20
1274.146000000001
 30
0.0
 11
1228.040000000001
 21
1298.146000000001
 31
0.0
  0
LINE
  5
E98
330
1E
100
AcDbEntity
  8
0
  6
Continuous
 62
     7
370
    13
100
AcDbLine
 10
1228.040000000001
 20
1298.146000000001
 30
0.0
 11
1221.609400000001
 21
1274.146000000001
 31
0.0
  0
LINE
  5
E99
330
1E
100
AcDbEntity
  8
0
  6
Continuous
 62
     7
370
    13
100
AcDbLine
 10
1186.621999999999
 20
547.9639999999999
 30
0.0
 11
1186.621999999999
 21
1102.726
 31
0.0
  0
LINE
  5
E9A
330
1E
100
AcDbEntity
  8
0
  6
Continuous
 62
     7
370
    13
100
AcDbLine
 10
1193.070799999999
 20
1078.726000000004
 30
0.0
 11
1186.639999999999
 21
1102.726
 31
0.0
  0
LINE
  5
E9B
330
1E
100
AcDbEntity
  8
0
  6
Continuous
 62
     7
370
    13
100
AcDbLine
 10
1186.639999999999
 20
1102.726
 30
0.0
 11
1180.209400000001
 21
1078.726000000004
 31
0.0
  0
LINE
  5
E9C
330
1E
100
AcDbEntity
  8
0
  6
Continuous
 62
     7
370
    13
100
AcDbLine
 10
1138.306
 20
1607.726
 30
0.0
 11
1138.306
 21
1907.726
 31
0.0
  0
LINE
  5
E9D
330
1E
100
AcDbEntity
  8
0
  6
Continuous
 62
     7
370
    13
100
AcDbLine
 10
1144.750799999999
 20
1883.726000000001
 30
0.0
 11
1138.320000000001
 21
1907.726
 31
0.0
  0
LINE
  5
E9E
330
1E
100
AcDbEntity
  8
0
  6
Continuous
 62
     7
370
    13
100
AcDbLine
 10
1138.320000000001
 20
1907.726
 30
0.0
 11
1131.889400000002
 21
1883.726000000001
 31
0.0
  0
LINE
  5
E9F
330
1E
100
AcDbEntity
  8
0
  6
Continuous
 62
     7
370
    13
100
AcDbLine
 10
1138.306
 20
1307.726
 30
0.0
 11
1138.306
 21
1607.726
 31
0.0
  0
LINE
  5
EA0
330
1E
100
AcDbEntity
  8
0
  6
Continuous
 62
     7
370
    13
100
AcDbLine
 10
1144.750799999999
 20
1583.726
 30
0.0
 11
1138.320000000001
 21
1607.726
 31
0.0
  0
LINE
  5
EA1
330
1E
100
AcDbEntity
  8
0
  6
Continuous
 62
     7
370
    13
100
AcDbLine
 10
1138.320000000001
 20
1607.726
 30
0.0
 11
1131.889400000002
 21
1583.726
 31
0.0
  0
LINE
  5
EA2
330
1E
100
AcDbEntity
  8
0
  6
Continuous
 62
     7
370
    13
100
AcDbLine
 10
1138.306
 20
1112.726000000002
 30
0.0
 11
1138.306
 21
1307.726
 31
0.0
  0
LINE
  5
EA3
330
1E
100
AcDbEntity
  8
0
  6
Continuous
 62
     7
370
    13
100
AcDbLine
 10
1144.750799999999
 20
1283.726
 30
0.0
 11
1138.320000000001
 21
1307.726
 31
0.0
  0
LINE
  5
EA4
330
1E
100
AcDbEntity
  8
0
  6
Continuous
 62
     7
370
    13
100
AcDbLine
 10
1138.320000000001
 20
1307.726
 30
0.0
 11
1131.889400000002
 21
1283.726
 31
0.0
  0
LINE
  5
EA5
330
1E
100
AcDbEntity
  8
0
  6
Continuous
 62
     7
370
    13
100
AcDbLine
 10
1138.306
 20
747.7260000000005
 30
0.0
 11
1138.306
 21
1112.726000000002
 31
0.0
  0
LINE
  5
EA6
330
1E
100
AcDbEntity
  8
0
  6
Continuous
 62
     7
370
    13
100
AcDbLine
 10
1144.750799999999
 20
1088.726000000002
 30
0.0
 11
1138.320000000001
 21
1112.726000000002
 31
0.0
  0
LINE
  5
EA7
330
1E
100
AcDbEntity
  8
0
  6
Continuous
 62
     7
370
    13
100
AcDbLine
 10
1138.320000000001
 20
1112.726000000002
 30
0.0
 11
1131.889400000002
 21
1088.726000000002
 31
0.0
  0
LINE
  5
EA8
330
1E
100
AcDbEntity
  8
0
  6
Continuous
 62
     7
370
    13
100
AcDbLine
 10
1138.306
 20
2502.726000000001
 30
0.0
 11
1138.306
 21
2202.726000000001
 31
0.0
  0
LINE
  5
EA9
330
1E
100
AcDbEntity
  8
0
  6
Continuous
 62
     7
370
    13
100
AcDbLine
 10
1131.889400000002
 20
2226.725999999999
 30
0.0
 11
1138.320000000001
 21
2202.726000000001
 31
0.0
  0
LINE
  5
EAA
330
1E
100
AcDbEntity
  8
0
  6
Continuous
 62
     7
370
    13
100
AcDbLine
 10
1138.320000000001
 20
2202.726000000001
 30
0.0
 11
1144.750799999999
 21
2226.725999999999
 31
0.0
  0
LINE
  5
EAB
330
1E
100
AcDbEntity
  8
0
  6
Continuous
 62
     7
370
    13
100
AcDbLine
 10
1138.306
 20
2802.726000000001
 30
0.0
 11
1138.306
 21
2502.726000000001
 31
0.0
  0
LINE
  5
EAC
330
1E
100
AcDbEntity
  8
0
  6
Continuous
 62
     7
370
    13
100
AcDbLine
 10
1131.889400000002
 20
2526.726000000001
 30
0.0
 11
1138.320000000001
 21
2502.726000000001
 31
0.0
  0
LINE
  5
EAD
330
1E
100
AcDbEntity
  8
0
  6
Continuous
 62
     7
370
    13
100
AcDbLine
 10
1138.320000000001
 20
2502.726000000001
 30
0.0
 11
1144.750799999999
 21
2526.726000000001
 31
0.0
  0
LINE
  5
EAE
330
1E
100
AcDbEntity
  8
0
  6
Continuous
 62
     7
370
    13
100
AcDbLine
 10
2387.705000000003
 20
1055.817000000002
 30
0.0
 11
2387.705000000003
 21
1105.557000000001
 31
0.0
  0
LINE
  5
EAF
330
1E
100
AcDbEntity
  8
0
  6
Continuous
 62
     7
370
    13
100
AcDbLine
 10
1757.705000000002
 20
1105.557000000001
 30
0.0
 11
2407.705000000002
 21
1105.557000000001
 31
0.0
  0
LINE
  5
EB0
330
1E
100
AcDbEntity
  8
0
  6
Continuous
 62
     7
370
    13
100
AcDbLine
 10
1757.705000000002
 20
1055.817000000002
 30
0.0
 11
2407.705000000002
 21
1055.817000000002
 31
0.0
  0
LINE
  5
EB1
330
1E
100
AcDbEntity
  8
0
  6
Continuous
 62
     7
370
    13
100
AcDbLine
 10
2387.705000000003
 20
1153.557000000001
 30
0.0
 11
2387.705000000003
 21
1105.557000000001
 31
0.0
  0
LINE
  5
EB2
330
1E
100
AcDbEntity
  8
0
  6
Continuous
 62
     7
370
    13
100
AcDbLine
 10
2381.2894
 20
1129.566000000004
 30
0.0
 11
2387.719999999999
 21
1105.566
 31
0.0
  0
LINE
  5
EB3
330
1E
100
AcDbEntity
  8
0
  6
Continuous
 62
     7
370
    13
100
AcDbLine
 10
2387.719999999999
 20
1105.566
 30
0.0
 11
2394.1508
 21
1129.566000000004
 31
0.0
  0
LINE
  5
EB4
330
1E
100
AcDbEntity
  8
0
  6
Continuous
 62
     7
370
    13
100
AcDbLine
 10
2387.705000000003
 20
1055.817000000002
 30
0.0
 11
2387.705000000003
 21
1007.817000000001
 31
0.0
  0
LINE
  5
EB5
330
1E
100
AcDbEntity
  8
0
  6
Continuous
 62
     7
370
    13
100
AcDbLine
 10
2394.1508
 20
1031.826000000003
 30
0.0
 11
2387.719999999999
 21
1055.825999999999
 31
0.0
  0
LINE
  5
EB6
330
1E
100
AcDbEntity
  8
0
  6
Continuous
 62
     7
370
    13
100
AcDbLine
 10
2387.719999999999
 20
1055.825999999999
 30
0.0
 11
2381.2894
 21
1031.826000000003
 31
0.0
  0
LINE
  5
EB7
330
1E
100
AcDbEntity
  8
0
  6
Continuous
 62
     7
370
    13
100
AcDbLine
 10
2387.705000000003
 20
1007.817000000001
 30
0.0
 11
2387.705000000003
 21
803.8170000000027
 31
0.0
  0
TEXT
  5
EB8
330
1E
100
AcDbEntity
  8
0
  6
Continuous
 62
     7
370
    13
100
AcDbText
 10
2375.704999999998
 20
851.0368008068089
 30
0.0
 40
64.0
  1
52.5
 50
90.0
 41
0.875
  7
BIGFONT
100
AcDbText
  0
LINE
  5
EB9
330
1E
100
AcDbEntity
  8
0
  6
Continuous
 62
     7
370
    13
100
AcDbLine
 10
2387.705000000003
 20
1105.557000000001
 30
0.0
 11
2387.705000000003
 21
2995.317000000001
 31
0.0
  0
LINE
  5
EBA
330
1E
100
AcDbEntity
  8
0
  6
Continuous
 62
     7
370
    13
100
AcDbLine
 10
1757.705000000002
 20
2995.317000000001
 30
0.0
 11
2407.705000000002
 21
2995.317000000001
 31
0.0
  0
LINE
  5
EBB
330
1E
100
AcDbEntity
  8
0
  6
Continuous
 62
     7
370
    13
100
AcDbLine
 10
2394.1508
 20
2971.325999999999
 30
0.0
 11
2387.719999999999
 21
2995.326
 31
0.0
  0
LINE
  5
EBC
330
1E
100
AcDbEntity
  8
0
  6
Continuous
 62
     7
370
    13
100
AcDbLine
 10
2387.719999999999
 20
2995.326
 30
0.0
 11
2381.2894
 21
2971.325999999999
 31
0.0
  0
LINE
  5
EBD
330
1E
100
AcDbEntity
  8
0
  6
Continuous
 62
     7
370
    13
100
AcDbLine
 10
2381.2894
 20
1129.566000000004
 30
0.0
 11
2387.719999999999
 21
1105.566
 31
0.0
  0
LINE
  5
EBE
330
1E
100
AcDbEntity
  8
0
  6
Continuous
 62
     7
370
    13
100
AcDbLine
 10
2387.719999999999
 20
1105.566
 30
0.0
 11
2394.1508
 21
1129.566000000004
 31
0.0
  0
TEXT
  5
EBF
330
1E
100
AcDbEntity
  8
0
  6
Continuous
 62
     7
370
    13
100
AcDbText
 10
2375.704999999998
 20
1871.236999999999
 30
0.0
 40
64.0
  1
1890
 50
90.0
 41
0.875
  7
BIGFONT
100
AcDbText
  0
LINE
  5
EC0
330
1E
100
AcDbEntity
  8
0
  6
Continuous
 62
     7
370
    13
100
AcDbLine
 10
2387.705000000003
 20
2995.317000000001
 30
0.0
 11
2387.705000000003
 21
3044.817000000001
 31
0.0
  0
LINE
  5
EC1
330
1E
100
AcDbEntity
  8
0
  6
Continuous
 62
     7
370
    13
100
AcDbLine
 10
1757.705000000002
 20
3044.817000000001
 30
0.0
 11
2407.705000000002
 21
3044.817000000001
 31
0.0
  0
LINE
  5
EC2
330
1E
100
AcDbEntity
  8
0
  6
Continuous
 62
     7
370
    13
100
AcDbLine
 10
2387.705000000003
 20
3092.817000000001
 30
0.0
 11
2387.705000000003
 21
3044.817000000001
 31
0.0
  0
LINE
  5
EC3
330
1E
100
AcDbEntity
  8
0
  6
Continuous
 62
     7
370
    13
100
AcDbLine
 10
2381.2894
 20
3068.826
 30
0.0
 11
2387.719999999999
 21
3044.825999999999
 31
0.0
  0
LINE
  5
EC4
330
1E
100
AcDbEntity
  8
0
  6
Continuous
 62
     7
370
    13
100
AcDbLine
 10
2387.719999999999
 20
3044.825999999999
 30
0.0
 11
2394.1508
 21
3068.826
 31
0.0
  0
LINE
  5
EC5
330
1E
100
AcDbEntity
  8
0
  6
Continuous
 62
     7
370
    13
100
AcDbLine
 10
2387.705000000003
 20
2995.317000000001
 30
0.0
 11
2387.705000000003
 21
2947.317000000001
 31
0.0
  0
LINE
  5
EC6
330
1E
100
AcDbEntity
  8
0
  6
Continuous
 62
     7
370
    13
100
AcDbLine
 10
2394.1508
 20
2971.325999999999
 30
0.0
 11
2387.719999999999
 21
2995.326
 31
0.0
  0
LINE
  5
EC7
330
1E
100
AcDbEntity
  8
0
  6
Continuous
 62
     7
370
    13
100
AcDbLine
 10
2387.719999999999
 20
2995.326
 30
0.0
 11
2381.2894
 21
2971.325999999999
 31
0.0
  0
LINE
  5
EC8
330
1E
100
AcDbEntity
  8
0
  6
Continuous
 62
     7
370
    13
100
AcDbLine
 10
2387.705000000003
 20
3092.817000000001
 30
0.0
 11
2387.705000000003
 21
3324.817
 31
0.0
  0
TEXT
  5
EC9
330
1E
100
AcDbEntity
  8
0
  6
Continuous
 62
     7
370
    13
100
AcDbText
 10
2375.704999999998
 20
3100.817
 30
0.0
 40
64.0
  1
52.5
 50
90.0
 41
0.875
  7
BIGFONT
100
AcDbText
  0
LINE
  5
ECA
330
1E
100
AcDbEntity
  8
0
  6
Continuous
 62
     7
370
    13
100
AcDbLine
 10
2237.5
 20
2050.054
 30
0.0
 11
2237.5
 21
2803.168
 31
0.0
  0
LINE
  5
ECB
330
1E
100
AcDbEntity
  8
0
  6
Continuous
 62
     7
370
    13
100
AcDbLine
 10
2243.930800000002
 20
2779.186
 30
0.0
 11
2237.5
 21
2803.186
 31
0.0
  0
LINE
  5
ECC
330
1E
100
AcDbEntity
  8
0
  6
Continuous
 62
     7
370
    13
100
AcDbLine
 10
2237.5
 20
2803.186
 30
0.0
 11
2231.0694
 21
2779.186
 31
0.0
  0
LINE
  5
ECD
330
1E
100
AcDbEntity
  8
0
  6
Continuous
 62
     7
370
    13
100
AcDbLine
 10
2087.5
 20
2046.600999999999
 30
0.0
 11
2087.5
 21
1298.219999999999
 31
0.0
  0
LINE
  5
ECE
330
1E
100
AcDbEntity
  8
0
  6
Continuous
 62
     7
370
    13
100
AcDbLine
 10
2081.0694
 20
1322.226
 30
0.0
 11
2087.5
 21
1298.225999999997
 31
0.0
  0
LINE
  5
ECF
330
1E
100
AcDbEntity
  8
0
  6
Continuous
 62
     7
370
    13
100
AcDbLine
 10
2087.5
 20
1298.225999999997
 30
0.0
 11
2093.9308
 21
1322.226
 31
0.0
  0
TEXT
  5
ED0
330
1E
100
AcDbEntity
  8
0
  6
Continuous
 62
     7
370
    13
100
AcDbText
 10
2074.966999999999
 20
1452.85
 30
0.0
 40
64.0
  1
5×300=1500
 50
90.0
  7
BIGFONT
100
AcDbText
  0
TEXT
  5
ED1
330
1E
100
AcDbEntity
  8
0
  6
Continuous
 62
     7
370
    13
100
AcDbText
 10
2225.364000000002
 20
2065.865
 30
0.0
 40
64.0
  1
5×300=1500
 50
90.0
  7
BIGFONT
100
AcDbText
  0
CIRCLE
  5
ED2
330
1E
100
AcDbEntity
  8
0
  6
Continuous
 62
     7
370
    13
100
AcDbCircle
 10
1664.243999999998
 20
5250.296
 30
0.0
 40
55.0
  0
TEXT
  5
ED3
330
1E
100
AcDbEntity
  8
0
  6
Continuous
 62
     7
370
    13
100
AcDbText
 10
1610.566999999999
 20
5213.166999999998
 30
0.0
 40
72.0
  1
Ｓ
  7
BIGFONT
100
AcDbText
  0
TEXT
  5
ED4
330
1E
100
AcDbEntity
  8
0
  6
Continuous
 62
     7
370
    13
100
AcDbText
 10
1670.383
 20
5218.108999999998
 30
0.0
 40
40.0
  1
４
  7
BIGFONT
100
AcDbText
  0
TEXT
  5
ED5
330
1E
100
AcDbEntity
  8
0
  6
Continuous
 62
     7
370
    13
100
AcDbText
 10
1753.742999999998
 20
5214.283
 30
0.0
 40
64.0
  1
D10
  7
BIGFONT
100
AcDbText
  0
CIRCLE
  5
ED6
330
1E
100
AcDbEntity
  8
0
  6
Continuous
 62
     7
370
    13
100
AcDbCircle
 10
1274.056
 20
5758.095000000001
 30
0.0
 40
55.0
  0
TEXT
  5
ED7
330
1E
100
AcDbEntity
  8
0
  6
Continuous
 62
     7
370
    13
100
AcDbText
 10
1222.379000000001
 20
5720.966
 30
0.0
 40
72.0
  1
Ｓ
  7
BIGFONT
100
AcDbText
  0
TEXT
  5
ED8
330
1E
100
AcDbEntity
  8
0
  6
Continuous
 62
     7
370
    13
100
AcDbText
 10
1282.531000000001
 20
5726.720999999997
 30
0.0
 40
40.0
  1
１
  7
BIGFONT
100
AcDbText
  0
CIRCLE
  5
ED9
330
1E
100
AcDbEntity
  8
0
  6
Continuous
 62
     7
370
    13
100
AcDbCircle
 10
429.4809999999997
 20
4531.175
 30
0.0
 40
55.0
  0
TEXT
  5
EDA
330
1E
100
AcDbEntity
  8
0
  6
Continuous
 62
     7
370
    13
100
AcDbText
 10
375.8040000000019
 20
4494.045999999999
 30
0.0
 40
72.0
  1
Ｓ
  7
BIGFONT
100
AcDbText
  0
TEXT
  5
EDB
330
1E
100
AcDbEntity
  8
0
  6
Continuous
 62
     7
370
    13
100
AcDbText
 10
431.2189999999991
 20
4498.827
 30
0.0
 40
40.0
  1
８
  7
BIGFONT
100
AcDbText
  0
TEXT
  5
EDC
330
1E
100
AcDbEntity
  8
0
  6
Continuous
 62
     7
370
    13
100
AcDbText
 10
533.6069999999999
 20
4486.786
 30
0.0
 40
64.0
  1
D10
  7
BIGFONT
100
AcDbText
  0
TEXT
  5
EDD
330
1E
100
AcDbEntity
  8
0
  6
Continuous
 62
     7
370
    13
100
AcDbText
 10
1375.069999999998
 20
5722.788999999998
 30
0.0
 40
64.0
  1
D10
  7
BIGFONT
100
AcDbText
  0
LINE
  5
EDE
330
1E
100
AcDbEntity
  8
0
  6
Continuous
 62
     7
370
    13
100
AcDbLine
 10
1469.871999999999
 20
5359.025
 30
0.0
 11
1115.810999999999
 21
4954.292
 31
0.0
  0
LINE
  5
EDF
330
1E
100
AcDbEntity
  8
0
  6
Continuous
 62
     7
370
    13
100
AcDbLine
 10
1126.782000000001
 20
4976.583599999997
 30
0.0
 11
1115.820000000001
 21
4954.285999999999
 31
0.0
  0
LINE
  5
EE0
330
1E
100
AcDbEntity
  8
0
  6
Continuous
 62
     7
370
    13
100
AcDbLine
 10
1115.820000000001
 20
4954.285999999999
 30
0.0
 11
1136.4624
 21
4968.115399999998
 31
0.0
  0
LINE
  5
EE1
330
1E
100
AcDbEntity
  8
0
  6
Continuous
 62
     7
370
    13
100
AcDbLine
 10
1589.015999999998
 20
5195.333000000001
 30
0.0
 11
1588.987000000001
 21
4908.560999999998
 31
0.0
  0
LINE
  5
EE2
330
1E
100
AcDbEntity
  8
0
  6
Continuous
 62
     7
370
    13
100
AcDbLine
 10
1582.571800000001
 20
4932.546599999998
 30
0.0
 11
1588.999999999998
 21
4908.546000000001
 31
0.0
  0
LINE
  5
EE3
330
1E
100
AcDbEntity
  8
0
  6
Continuous
 62
     7
370
    13
100
AcDbLine
 10
1588.999999999998
 20
4908.546000000001
 30
0.0
 11
1595.433399999998
 21
4932.545199999998
 31
0.0
  0
POINT
  5
EE4
330
1E
100
AcDbEntity
  8
0
  6
Continuous
 62
     1
370
    25
100
AcDbPoint
 10
1094.5
 20
4898.042
 30
0.0
  0
POINT
  5
EE5
330
1E
100
AcDbEntity
  8
0
  6
Continuous
 62
     1
370
    25
100
AcDbPoint
 10
1067.546
 20
4942.574
 30
0.0
  0
LINE
  5
EE6
330
1E
100
AcDbEntity
  8
0
  6
Continuous
 62
     7
370
    13
100
AcDbLine
 10
489.9950000000008
 20
4845.364
 30
0.0
 11
489.9950000000008
 21
4892.672000000001
 31
0.0
  0
LINE
  5
EE7
330
1E
100
AcDbEntity
  8
0
  6
Continuous
 62
     7
370
    13
100
AcDbLine
 10
967.5
 20
4892.672000000001
 30
0.0
 11
469.9950000000008
 21
4892.672000000001
 31
0.0
  0
LINE
  5
EE8
330
1E
100
AcDbEntity
  8
0
  6
Continuous
 62
     7
370
    13
100
AcDbLine
 10
967.5
 20
4845.364
 30
0.0
 11
469.9950000000008
 21
4845.364
 31
0.0
  0
LINE
  5
EE9
330
1E
100
AcDbEntity
  8
0
  6
Continuous
 62
     7
370
    13
100
AcDbLine
 10
489.9950000000008
 20
4940.672000000001
 30
0.0
 11
489.9950000000008
 21
4892.672000000001
 31
0.0
  0
LINE
  5
EEA
330
1E
100
AcDbEntity
  8
0
  6
Continuous
 62
     7
370
    13
100
AcDbLine
 10
483.5694000000021
 20
4916.666
 30
0.0
 11
490.0000000000018
 21
4892.666000000001
 31
0.0
  0
LINE
  5
EEB
330
1E
100
AcDbEntity
  8
0
  6
Continuous
 62
     7
370
    13
100
AcDbLine
 10
490.0000000000018
 20
4892.666000000001
 30
0.0
 11
496.4308
 21
4916.666
 31
0.0
  0
LINE
  5
EEC
330
1E
100
AcDbEntity
  8
0
  6
Continuous
 62
     7
370
    13
100
AcDbLine
 10
489.9950000000008
 20
4845.364
 30
0.0
 11
489.9950000000008
 21
4797.364
 31
0.0
  0
LINE
  5
EED
330
1E
100
AcDbEntity
  8
0
  6
Continuous
 62
     7
370
    13
100
AcDbLine
 10
496.4308
 20
4821.346000000002
 30
0.0
 11
490.0000000000018
 21
4845.346000000001
 31
0.0
  0
LINE
  5
EEE
330
1E
100
AcDbEntity
  8
0
  6
Continuous
 62
     7
370
    13
100
AcDbLine
 10
490.0000000000018
 20
4845.346000000001
 30
0.0
 11
483.5694000000021
 21
4821.346000000002
 31
0.0
  0
LINE
  5
EEF
330
1E
100
AcDbEntity
  8
0
  6
Continuous
 62
     7
370
    13
100
AcDbLine
 10
489.9950000000008
 20
4797.364
 30
0.0
 11
489.9950000000008
 21
4677.363999999998
 31
0.0
  0
TEXT
  5
EF0
330
1E
100
AcDbEntity
  8
0
  6
Continuous
 62
     7
370
    13
100
AcDbText
 10
477.9950000000008
 20
4677.363999999998
 30
0.0
 40
64.0
  1
45
 50
90.0
 41
0.875
  7
BIGFONT
100
AcDbText
  0
LINE
  5
EF1
330
1E
100
AcDbEntity
  8
0
  6
Continuous
 62
     7
370
    13
100
AcDbLine
 10
489.9950000000008
 20
4892.672000000001
 30
0.0
 11
489.9950000000008
 21
5789.364
 31
0.0
  0
LINE
  5
EF2
330
1E
100
AcDbEntity
  8
0
  6
Continuous
 62
     7
370
    13
100
AcDbLine
 10
967.5
 20
5789.364
 30
0.0
 11
469.9950000000008
 21
5789.364
 31
0.0
  0
LINE
  5
EF3
330
1E
100
AcDbEntity
  8
0
  6
Continuous
 62
     7
370
    13
100
AcDbLine
 10
496.4308
 20
5765.346000000001
 30
0.0
 11
490.0000000000018
 21
5789.346000000001
 31
0.0
  0
LINE
  5
EF4
330
1E
100
AcDbEntity
  8
0
  6
Continuous
 62
     7
370
    13
100
AcDbLine
 10
490.0000000000018
 20
5789.346000000001
 30
0.0
 11
483.5694000000021
 21
5765.346000000001
 31
0.0
  0
LINE
  5
EF5
330
1E
100
AcDbEntity
  8
0
  6
Continuous
 62
     7
370
    13
100
AcDbLine
 10
483.5694000000021
 20
4916.666
 30
0.0
 11
490.0000000000018
 21
4892.666000000001
 31
0.0
  0
LINE
  5
EF6
330
1E
100
AcDbEntity
  8
0
  6
Continuous
 62
     7
370
    13
100
AcDbLine
 10
490.0000000000018
 20
4892.666000000001
 30
0.0
 11
496.4308
 21
4916.666
 31
0.0
  0
TEXT
  5
EF7
330
1E
100
AcDbEntity
  8
0
  6
Continuous
 62
     7
370
    13
100
AcDbText
 10
477.9950000000008
 20
5189.817999999999
 30
0.0
 40
64.0
  1
899
 50
90.0
 41
0.875
  7
BIGFONT
100
AcDbText
  0
LINE
  5
EF8
330
1E
100
AcDbEntity
  8
0
  6
Continuous
 62
     7
370
    13
100
AcDbLine
 10
489.9950000000008
 20
5789.364
 30
0.0
 11
489.9950000000008
 21
5845.364
 31
0.0
  0
LINE
  5
EF9
330
1E
100
AcDbEntity
  8
0
  6
Continuous
 62
     7
370
    13
100
AcDbLine
 10
967.5
 20
5845.364
 30
0.0
 11
469.9950000000008
 21
5845.364
 31
0.0
  0
LINE
  5
EFA
330
1E
100
AcDbEntity
  8
0
  6
Continuous
 62
     7
370
    13
100
AcDbLine
 10
489.9950000000008
 20
5893.363999999998
 30
0.0
 11
489.9950000000008
 21
5845.364
 31
0.0
  0
LINE
  5
EFB
330
1E
100
AcDbEntity
  8
0
  6
Continuous
 62
     7
370
    13
100
AcDbLine
 10
483.5694000000021
 20
5869.345999999998
 30
0.0
 11
490.0000000000018
 21
5845.346000000001
 31
0.0
  0
LINE
  5
EFC
330
1E
100
AcDbEntity
  8
0
  6
Continuous
 62
     7
370
    13
100
AcDbLine
 10
490.0000000000018
 20
5845.346000000001
 30
0.0
 11
496.4308
 21
5869.345999999998
 31
0.0
  0
LINE
  5
EFD
330
1E
100
AcDbEntity
  8
0
  6
Continuous
 62
     7
370
    13
100
AcDbLine
 10
489.9950000000008
 20
5789.364
 30
0.0
 11
489.9950000000008
 21
5741.364
 31
0.0
  0
LINE
  5
EFE
330
1E
100
AcDbEntity
  8
0
  6
Continuous
 62
     7
370
    13
100
AcDbLine
 10
496.4308
 20
5765.346000000001
 30
0.0
 11
490.0000000000018
 21
5789.346000000001
 31
0.0
  0
LINE
  5
EFF
330
1E
100
AcDbEntity
  8
0
  6
Continuous
 62
     7
370
    13
100
AcDbLine
 10
490.0000000000018
 20
5789.346000000001
 30
0.0
 11
483.5694000000021
 21
5765.346000000001
 31
0.0
  0
LINE
  5
F00
330
1E
100
AcDbEntity
  8
0
  6
Continuous
 62
     7
370
    13
100
AcDbLine
 10
489.9950000000008
 20
5893.363999999998
 30
0.0
 11
489.9950000000008
 21
6013.363999999998
 31
0.0
  0
TEXT
  5
F01
330
1E
100
AcDbEntity
  8
0
  6
Continuous
 62
     7
370
    13
100
AcDbText
 10
477.9950000000008
 20
5901.363999999998
 30
0.0
 40
64.0
  1
56
 50
90.0
 41
0.875
  7
BIGFONT
100
AcDbText
  0
LINE
  5
F02
330
1E
100
AcDbEntity
  8
0
  6
Continuous
 62
     7
370
    13
100
AcDbLine
 10
719.9390000000002
 20
4476.207
 30
0.0
 11
1092.500000000002
 21
4893.364000000001
 31
0.0
  0
LINE
  5
F03
330
1E
100
AcDbEntity
  8
0
  6
Continuous
 62
     7
370
    13
100
AcDbLine
 10
1081.309799999999
 20
4871.161799999999
 30
0.0
 11
1092.500000000002
 21
4893.346000000001
 31
0.0
  0
LINE
  5
F04
330
1E
100
AcDbEntity
  8
0
  6
Continuous
 62
     7
370
    13
100
AcDbLine
 10
1092.500000000002
 20
4893.346000000001
 30
0.0
 11
1071.717
 21
4879.729199999999
 31
0.0
  0
LINE
  5
F05
330
1E
100
AcDbEntity
  8
0
  6
Continuous
 62
     1
370
    25
100
AcDbLine
 10
1216.448
 20
4893.364000000001
 30
0.0
 11
1271.447999999998
 21
4893.364000000001
 31
0.0
  0
LINE
  5
F06
330
1E
100
AcDbEntity
  8
0
  6
Continuous
 62
     7
370
    13
100
AcDbLine
 10
1062.5
 20
4645.364
 30
0.0
 11
1267.5
 21
4645.364
 31
0.0
  0
LINE
  5
F07
330
1E
100
AcDbEntity
  8
0
  6
Continuous
 62
     7
370
    13
100
AcDbLine
 10
1267.5
 20
4825.364
 30
0.0
 11
1267.5
 21
4625.364000000001
 31
0.0
  0
LINE
  5
F08
330
1E
100
AcDbEntity
  8
0
  6
Continuous
 62
     7
370
    13
100
AcDbLine
 10
1062.5
 20
4709.674999999999
 30
0.0
 11
1062.5
 21
4625.364000000001
 31
0.0
  0
LINE
  5
F09
330
1E
100
AcDbEntity
  8
0
  6
Continuous
 62
     7
370
    13
100
AcDbLine
 10
1243.5
 20
4638.9152
 30
0.0
 11
1267.5
 21
4645.346
 31
0.0
  0
LINE
  5
F0A
330
1E
100
AcDbEntity
  8
0
  6
Continuous
 62
     7
370
    13
100
AcDbLine
 10
1267.5
 20
4645.346
 30
0.0
 11
1243.5
 21
4651.7766
 31
0.0
  0
LINE
  5
F0B
330
1E
100
AcDbEntity
  8
0
  6
Continuous
 62
     7
370
    13
100
AcDbLine
 10
1086.5
 20
4651.7766
 30
0.0
 11
1062.5
 21
4645.346
 31
0.0
  0
LINE
  5
F0C
330
1E
100
AcDbEntity
  8
0
  6
Continuous
 62
     7
370
    13
100
AcDbLine
 10
1062.5
 20
4645.346
 30
0.0
 11
1086.5
 21
4638.9152
 31
0.0
  0
TEXT
  5
F0D
330
1E
100
AcDbEntity
  8
0
  6
Continuous
 62
     7
370
    13
100
AcDbText
 10
1104.668149344838
 20
4657.363999999999
 30
0.0
 40
64.0
  1
210
 41
0.875
  7
BIGFONT
100
AcDbText
  0
LINE
  5
F0E
330
1E
100
AcDbEntity
  8
0
  6
Continuous
 62
     1
370
    25
100
AcDbLine
 10
1212.500000000002
 20
2047.726
 30
0.0
 11
1212.500000000002
 21
2997.726000000001
 31
0.0
  0
LINE
  5
F0F
330
1E
100
AcDbEntity
  8
0
  6
Continuous
 62
     1
370
    25
100
AcDbLine
 10
1512.5
 20
2047.726
 30
0.0
 11
1512.5
 21
2997.726000000001
 31
0.0
  0
CIRCLE
  5
F10
330
1E
100
AcDbEntity
  8
0
  6
Continuous
 62
     7
370
    13
100
AcDbCircle
 10
1875.733
 20
2468.454
 30
0.0
 40
55.0
  0
TEXT
  5
F11
330
1E
100
AcDbEntity
  8
0
  6
Continuous
 62
     7
370
    13
100
AcDbText
 10
1912.862000000001
 20
2414.777
 30
0.0
 40
72.0
  1
Ｓ
 50
90.0
  7
BIGFONT
100
AcDbText
  0
TEXT
  5
F12
330
1E
100
AcDbEntity
  8
0
  6
Continuous
 62
     7
370
    13
100
AcDbText
 10
1908.081
 20
2470.192000000001
 30
0.0
 40
40.0
  1
８
 50
90.0
  7
BIGFONT
100
AcDbText
  0
LINE
  5
F13
330
1E
100
AcDbEntity
  8
0
  6
Continuous
 62
     7
370
    13
100
AcDbLine
 10
1930.607999999998
 20
2351.675000000001
 30
0.0
 11
1930.607999999998
 21
2755.552
 31
0.0
  0
TEXT
  5
F14
330
1E
100
AcDbEntity
  8
0
  6
Continuous
 62
     7
370
    13
100
AcDbText
 10
1912.146
 20
2582.338
 30
0.0
 40
64.0
  1
D10
 50
90.0
  7
BIGFONT
100
AcDbText
  0
CIRCLE
  5
F15
330
1E
100
AcDbEntity
  8
0
  6
Continuous
 62
     7
370
    13
100
AcDbCircle
 10
1875.733
 20
1570.443999999999
 30
0.0
 40
55.0
  0
TEXT
  5
F16
330
1E
100
AcDbEntity
  8
0
  6
Continuous
 62
     7
370
    13
100
AcDbText
 10
1912.862000000001
 20
1516.767
 30
0.0
 40
72.0
  1
Ｓ
 50
90.0
  7
BIGFONT
100
AcDbText
  0
TEXT
  5
F17
330
1E
100
AcDbEntity
  8
0
  6
Continuous
 62
     7
370
    13
100
AcDbText
 10
1908.081
 20
1572.181999999999
 30
0.0
 40
40.0
  1
８
 50
90.0
  7
BIGFONT
100
AcDbText
  0
LINE
  5
F18
330
1E
100
AcDbEntity
  8
0
  6
Continuous
 62
     7
370
    13
100
AcDbLine
 10
1930.607999999998
 20
1453.665000000001
 30
0.0
 11
1930.607999999998
 21
1857.541999999997
 31
0.0
  0
TEXT
  5
F19
330
1E
100
AcDbEntity
  8
0
  6
Continuous
 62
     7
370
    13
100
AcDbText
 10
1912.146
 20
1684.328000000003
 30
0.0
 40
64.0
  1
D10
 50
90.0
  7
BIGFONT
100
AcDbText
  0
LINE
  5
F1A
330
1E
100
AcDbEntity
  8
0
  6
Continuous
 62
     7
370
    13
100
AcDbLine
 10
1212.500000000002
 20
2351.929
 30
0.0
 11
1062.5
 21
2351.929
 31
0.0
  0
LINE
  5
F1B
330
1E
100
AcDbEntity
  8
0
  6
Continuous
 62
     7
370
    13
100
AcDbLine
 10
1086.5
 20
2358.3768
 30
0.0
 11
1062.5
 21
2351.945999999998
 31
0.0
  0
LINE
  5
F1C
330
1E
100
AcDbEntity
  8
0
  6
Continuous
 62
     7
370
    13
100
AcDbLine
 10
1062.5
 20
2351.945999999998
 30
0.0
 11
1086.5
 21
2345.515399999999
 31
0.0
  0
LINE
  5
F1D
330
1E
100
AcDbEntity
  8
0
  6
Continuous
 62
     7
370
    13
100
AcDbLine
 10
1512.5
 20
2351.929
 30
0.0
 11
1212.405999999999
 21
2351.929
 31
0.0
  0
LINE
  5
F1E
330
1E
100
AcDbEntity
  8
0
  6
Continuous
 62
     7
370
    13
100
AcDbLine
 10
1236.42
 20
2358.3768
 30
0.0
 11
1212.420000000002
 21
2351.945999999998
 31
0.0
  0
LINE
  5
F1F
330
1E
100
AcDbEntity
  8
0
  6
Continuous
 62
     7
370
    13
100
AcDbLine
 10
1212.420000000002
 20
2351.945999999998
 30
0.0
 11
1236.42
 21
2345.515399999999
 31
0.0
  0
LINE
  5
F20
330
1E
100
AcDbEntity
  8
0
  6
Continuous
 62
     7
370
    13
100
AcDbLine
 10
1930.607999999998
 20
2351.675000000001
 30
0.0
 11
1512.5
 21
2351.929
 31
0.0
  0
LINE
  5
F21
330
1E
100
AcDbEntity
  8
0
  6
Continuous
 62
     7
370
    13
100
AcDbLine
 10
1536.503999999999
 20
2358.362199999998
 30
0.0
 11
1512.5
 21
2351.945999999998
 31
0.0
  0
LINE
  5
F22
330
1E
100
AcDbEntity
  8
0
  6
Continuous
 62
     7
370
    13
100
AcDbLine
 10
1512.5
 20
2351.945999999998
 30
0.0
 11
1536.4962
 21
2345.5008
 31
0.0
  0
LINE
  5
F23
330
1E
100
AcDbEntity
  8
0
  6
Continuous
 62
     7
370
    13
100
AcDbLine
 10
719.9390000000002
 20
4476.207
 30
0.0
 11
1213.476
 21
4921.924
 31
0.0
  0
LINE
  5
F24
330
1E
100
AcDbEntity
  8
0
  6
Continuous
 62
     7
370
    13
100
AcDbLine
 10
1199.978800000001
 20
4901.047600000001
 30
0.0
 11
1213.480000000001
 21
4921.905999999999
 31
0.0
  0
LINE
  5
F25
330
1E
100
AcDbEntity
  8
0
  6
Continuous
 62
     7
370
    13
100
AcDbLine
 10
1213.480000000001
 20
4921.905999999999
 30
0.0
 11
1191.358400000001
 21
4910.592799999998
 31
0.0
  0
LINE
  5
F26
330
1E
100
AcDbEntity
  8
0
  6
Continuous
 62
     7
370
    13
100
AcDbLine
 10
4787.832
 20
4495.368999999999
 30
0.0
 11
3287.135
 21
4495.368999999999
 31
0.0
  0
LINE
  5
F27
330
1E
100
AcDbEntity
  8
0
  6
Continuous
 62
     7
370
    13
100
AcDbLine
 10
4763.84
 20
4488.9352
 30
0.0
 11
4787.84
 21
4495.365999999999
 31
0.0
  0
LINE
  5
F28
330
1E
100
AcDbEntity
  8
0
  6
Continuous
 62
     7
370
    13
100
AcDbLine
 10
4787.84
 20
4495.365999999999
 30
0.0
 11
4763.84
 21
4501.796599999997
 31
0.0
  0
LINE
  5
F29
330
1E
100
AcDbEntity
  8
0
  6
Continuous
 62
     7
370
    13
100
AcDbLine
 10
3311.14
 20
4501.796599999997
 30
0.0
 11
3287.140000000002
 21
4495.365999999999
 31
0.0
  0
LINE
  5
F2A
330
1E
100
AcDbEntity
  8
0
  6
Continuous
 62
     7
370
    13
100
AcDbLine
 10
3287.140000000002
 20
4495.365999999999
 30
0.0
 11
3311.14
 21
4488.9352
 31
0.0
  0
TEXT
  5
F2B
330
1E
100
AcDbEntity
  8
0
  6
Continuous
 62
     7
370
    13
100
AcDbText
 10
3757.442999999999
 20
4507.545
 30
0.0
 40
64.0
  1
5×300=1500
  7
BIGFONT
100
AcDbText
  0
LINE
  5
F2C
330
1E
100
AcDbEntity
  8
0
  6
Continuous
 62
     7
370
    13
100
AcDbLine
 10
5441.538000000003
 20
5234.344
 30
0.0
 11
4787.5
 21
5234.344
 31
0.0
  0
LINE
  5
F2D
330
1E
100
AcDbEntity
  8
0
  6
Continuous
 62
     7
370
    13
100
AcDbLine
 10
4811.5
 20
5240.7566
 30
0.0
 11
4787.5
 21
5234.326
 31
0.0
  0
LINE
  5
F2E
330
1E
100
AcDbEntity
  8
0
  6
Continuous
 62
     7
370
    13
100
AcDbLine
 10
4787.5
 20
5234.326
 30
0.0
 11
4811.5
 21
5227.895199999998
 31
0.0
  0
LINE
  5
F2F
330
1E
100
AcDbEntity
  8
0
  6
Continuous
 62
     7
370
    13
100
AcDbLine
 10
1930.607999999998
 20
1453.665000000001
 30
0.0
 11
1094.5
 21
1453.665000000001
 31
0.0
  0
LINE
  5
F30
330
1E
100
AcDbEntity
  8
0
  6
Continuous
 62
     7
370
    13
100
AcDbLine
 10
1118.5
 20
1460.096799999999
 30
0.0
 11
1094.5
 21
1453.666000000003
 31
0.0
  0
LINE
  5
F31
330
1E
100
AcDbEntity
  8
0
  6
Continuous
 62
     7
370
    13
100
AcDbLine
 10
1094.5
 20
1453.666000000003
 30
0.0
 11
1118.5
 21
1447.235400000001
 31
0.0
  0
LINE
  5
F32
330
1E
100
AcDbEntity
  8
0
  6
Continuous
 62
     7
370
    13
100
AcDbLine
 10
987.5
 20
4345.368999999998
 30
0.0
 11
1062.5
 21
4345.368999999998
 31
0.0
  0
LINE
  5
F33
330
1E
100
AcDbEntity
  8
0
  6
Continuous
 62
     7
370
    13
100
AcDbLine
 10
1062.5
 20
4825.364
 30
0.0
 11
1062.5
 21
4325.368999999997
 31
0.0
  0
LINE
  5
F34
330
1E
100
AcDbEntity
  8
0
  6
Continuous
 62
     7
370
    13
100
AcDbLine
 10
987.5
 20
4825.364
 30
0.0
 11
987.5
 21
4325.368999999997
 31
0.0
  0
LINE
  5
F35
330
1E
100
AcDbEntity
  8
0
  6
Continuous
 62
     7
370
    13
100
AcDbLine
 10
1038.5
 20
4338.935199999998
 30
0.0
 11
1062.5
 21
4345.366
 31
0.0
  0
LINE
  5
F36
330
1E
100
AcDbEntity
  8
0
  6
Continuous
 62
     7
370
    13
100
AcDbLine
 10
1062.5
 20
4345.366
 30
0.0
 11
1038.5
 21
4351.796599999999
 31
0.0
  0
LINE
  5
F37
330
1E
100
AcDbEntity
  8
0
  6
Continuous
 62
     7
370
    13
100
AcDbLine
 10
1011.5
 20
4351.796599999999
 30
0.0
 11
987.5
 21
4345.366
 31
0.0
  0
LINE
  5
F38
330
1E
100
AcDbEntity
  8
0
  6
Continuous
 62
     7
370
    13
100
AcDbLine
 10
987.5
 20
4345.366
 30
0.0
 11
1011.5
 21
4338.935199999998
 31
0.0
  0
TEXT
  5
F39
330
1E
100
AcDbEntity
  8
0
  6
Continuous
 62
     7
370
    13
100
AcDbText
 10
979.5191898897083
 20
4357.368999999997
 30
0.0
 40
64.0
  1
75
 41
0.875
  7
BIGFONT
100
AcDbText
  0
LINE
  5
F3A
330
1E
100
AcDbEntity
  8
0
  6
Continuous
 62
     7
370
    13
100
AcDbLine
 10
1062.5
 20
4345.368999999998
 30
0.0
 11
1682.5
 21
4345.368999999998
 31
0.0
  0
LINE
  5
F3B
330
1E
100
AcDbEntity
  8
0
  6
Continuous
 62
     7
370
    13
100
AcDbLine
 10
1682.5
 20
4825.364
 30
0.0
 11
1682.5
 21
4325.368999999997
 31
0.0
  0
LINE
  5
F3C
330
1E
100
AcDbEntity
  8
0
  6
Continuous
 62
     7
370
    13
100
AcDbLine
 10
1658.5
 20
4338.935199999998
 30
0.0
 11
1682.5
 21
4345.366
 31
0.0
  0
LINE
  5
F3D
330
1E
100
AcDbEntity
  8
0
  6
Continuous
 62
     7
370
    13
100
AcDbLine
 10
1682.5
 20
4345.366
 30
0.0
 11
1658.5
 21
4351.796599999999
 31
0.0
  0
LINE
  5
F3E
330
1E
100
AcDbEntity
  8
0
  6
Continuous
 62
     7
370
    13
100
AcDbLine
 10
1086.5
 20
4351.796599999999
 30
0.0
 11
1062.5
 21
4345.366
 31
0.0
  0
LINE
  5
F3F
330
1E
100
AcDbEntity
  8
0
  6
Continuous
 62
     7
370
    13
100
AcDbLine
 10
1062.5
 20
4345.366
 30
0.0
 11
1086.5
 21
4338.935199999998
 31
0.0
  0
TEXT
  5
F40
330
1E
100
AcDbEntity
  8
0
  6
Continuous
 62
     7
370
    13
100
AcDbText
 10
1288.5
 20
4357.368999999997
 30
0.0
 40
64.0
  1
620
 41
0.875
  7
BIGFONT
100
AcDbText
  0
LINE
  5
F41
330
1E
100
AcDbEntity
  8
0
  6
Continuous
 62
     7
370
    13
100
AcDbLine
 10
1682.5
 20
4345.368999999998
 30
0.0
 11
1737.5
 21
4345.368999999998
 31
0.0
  0
LINE
  5
F42
330
1E
100
AcDbEntity
  8
0
  6
Continuous
 62
     7
370
    13
100
AcDbLine
 10
1737.5
 20
4825.364
 30
0.0
 11
1737.5
 21
4325.368999999997
 31
0.0
  0
LINE
  5
F43
330
1E
100
AcDbEntity
  8
0
  6
Continuous
 62
     7
370
    13
100
AcDbLine
 10
1713.5
 20
4338.935199999998
 30
0.0
 11
1737.5
 21
4345.366
 31
0.0
  0
LINE
  5
F44
330
1E
100
AcDbEntity
  8
0
  6
Continuous
 62
     7
370
    13
100
AcDbLine
 10
1737.5
 20
4345.366
 30
0.0
 11
1713.5
 21
4351.796599999999
 31
0.0
  0
LINE
  5
F45
330
1E
100
AcDbEntity
  8
0
  6
Continuous
 62
     7
370
    13
100
AcDbLine
 10
1706.5
 20
4351.796599999999
 30
0.0
 11
1682.5
 21
4345.366
 31
0.0
  0
LINE
  5
F46
330
1E
100
AcDbEntity
  8
0
  6
Continuous
 62
     7
370
    13
100
AcDbLine
 10
1682.5
 20
4345.366
 30
0.0
 11
1706.5
 21
4338.935199999998
 31
0.0
  0
TEXT
  5
F47
330
1E
100
AcDbEntity
  8
0
  6
Continuous
 62
     7
370
    13
100
AcDbText
 10
1654.0
 20
4357.368999999997
 30
0.0
 40
64.0
  1
55
 41
0.875
  7
BIGFONT
100
AcDbText
  0
LINE
  5
F48
330
1E
100
AcDbEntity
  8
0
  6
Continuous
 62
     7
370
    13
100
AcDbLine
 10
1062.5
 20
4495.364000000001
 30
0.0
 11
1213.473000000002
 21
4495.364000000001
 31
0.0
  0
LINE
  5
F49
330
1E
100
AcDbEntity
  8
0
  6
Continuous
 62
     7
370
    13
100
AcDbLine
 10
1213.473000000002
 20
4625.364000000001
 30
0.0
 11
1213.473000000002
 21
4475.364
 31
0.0
  0
LINE
  5
F4A
330
1E
100
AcDbEntity
  8
0
  6
Continuous
 62
     7
370
    13
100
AcDbLine
 10
1062.5
 20
4497.418999999999
 30
0.0
 11
1062.5
 21
4475.364
 31
0.0
  0
LINE
  5
F4B
330
1E
100
AcDbEntity
  8
0
  6
Continuous
 62
     7
370
    13
100
AcDbLine
 10
1189.480000000001
 20
4488.915200000001
 30
0.0
 11
1213.480000000001
 21
4495.346
 31
0.0
  0
LINE
  5
F4C
330
1E
100
AcDbEntity
  8
0
  6
Continuous
 62
     7
370
    13
100
AcDbLine
 10
1213.480000000001
 20
4495.346
 30
0.0
 11
1189.480000000001
 21
4501.776599999999
 31
0.0
  0
LINE
  5
F4D
330
1E
100
AcDbEntity
  8
0
  6
Continuous
 62
     7
370
    13
100
AcDbLine
 10
1086.5
 20
4501.776599999999
 30
0.0
 11
1062.5
 21
4495.346
 31
0.0
  0
LINE
  5
F4E
330
1E
100
AcDbEntity
  8
0
  6
Continuous
 62
     7
370
    13
100
AcDbLine
 10
1062.5
 20
4495.346
 30
0.0
 11
1086.5
 21
4488.915200000001
 31
0.0
  0
TEXT
  5
F4F
330
1E
100
AcDbEntity
  8
0
  6
Continuous
 62
     7
370
    13
100
AcDbText
 10
1080.284556119591
 20
4507.363999999999
 30
0.0
 40
64.0
  1
150
 41
0.875
  7
BIGFONT
100
AcDbText
  0
LINE
  5
F50
330
1E
100
AcDbEntity
  8
0
  6
Continuous
 62
     7
370
    13
100
AcDbLine
 10
1213.473000000002
 20
4495.364000000001
 30
0.0
 11
1507.963
 21
4495.364000000001
 31
0.0
  0
LINE
  5
F51
330
1E
100
AcDbEntity
  8
0
  6
Continuous
 62
     7
370
    13
100
AcDbLine
 10
1507.963
 20
4825.364
 30
0.0
 11
1507.963
 21
4475.364
 31
0.0
  0
LINE
  5
F52
330
1E
100
AcDbEntity
  8
0
  6
Continuous
 62
     7
370
    13
100
AcDbLine
 10
1483.980000000001
 20
4488.915200000001
 30
0.0
 11
1507.980000000001
 21
4495.346
 31
0.0
  0
LINE
  5
F53
330
1E
100
AcDbEntity
  8
0
  6
Continuous
 62
     7
370
    13
100
AcDbLine
 10
1507.980000000001
 20
4495.346
 30
0.0
 11
1483.980000000001
 21
4501.776599999999
 31
0.0
  0
LINE
  5
F54
330
1E
100
AcDbEntity
  8
0
  6
Continuous
 62
     7
370
    13
100
AcDbLine
 10
1237.480000000001
 20
4501.776599999999
 30
0.0
 11
1213.480000000001
 21
4495.346
 31
0.0
  0
LINE
  5
F55
330
1E
100
AcDbEntity
  8
0
  6
Continuous
 62
     7
370
    13
100
AcDbLine
 10
1213.480000000001
 20
4495.346
 30
0.0
 11
1237.480000000001
 21
4488.915200000001
 31
0.0
  0
TEXT
  5
F56
330
1E
100
AcDbEntity
  8
0
  6
Continuous
 62
     7
370
    13
100
AcDbText
 10
1295.126573004652
 20
4507.363999999999
 30
0.0
 40
64.0
  1
300
 41
0.875
  7
BIGFONT
100
AcDbText
  0
LINE
  5
F57
330
1E
100
AcDbEntity
  8
0
  6
Continuous
 62
     7
370
    13
100
AcDbLine
 10
1507.963
 20
4495.364000000001
 30
0.0
 11
1682.5
 21
4495.364000000001
 31
0.0
  0
LINE
  5
F58
330
1E
100
AcDbEntity
  8
0
  6
Continuous
 62
     7
370
    13
100
AcDbLine
 10
1682.5
 20
4533.815
 30
0.0
 11
1682.5
 21
4475.364
 31
0.0
  0
LINE
  5
F59
330
1E
100
AcDbEntity
  8
0
  6
Continuous
 62
     7
370
    13
100
AcDbLine
 10
1658.5
 20
4488.915200000001
 30
0.0
 11
1682.5
 21
4495.346
 31
0.0
  0
LINE
  5
F5A
330
1E
100
AcDbEntity
  8
0
  6
Continuous
 62
     7
370
    13
100
AcDbLine
 10
1682.5
 20
4495.346
 30
0.0
 11
1658.5
 21
4501.776599999999
 31
0.0
  0
LINE
  5
F5B
330
1E
100
AcDbEntity
  8
0
  6
Continuous
 62
     7
370
    13
100
AcDbLine
 10
1531.980000000001
 20
4501.776599999999
 30
0.0
 11
1507.980000000001
 21
4495.346
 31
0.0
  0
LINE
  5
F5C
330
1E
100
AcDbEntity
  8
0
  6
Continuous
 62
     7
370
    13
100
AcDbLine
 10
1507.980000000001
 20
4495.346
 30
0.0
 11
1531.980000000001
 21
4488.915200000001
 31
0.0
  0
TEXT
  5
F5D
330
1E
100
AcDbEntity
  8
0
  6
Continuous
 62
     7
370
    13
100
AcDbText
 10
1537.5295561196
 20
4507.363999999999
 30
0.0
 40
64.0
  1
170
 41
0.875
  7
BIGFONT
100
AcDbText
  0
LINE
  5
F5E
330
1E
100
AcDbEntity
  8
0
  6
Continuous
 62
     7
370
    13
100
AcDbLine
 10
3742.000999999998
 20
4645.364
 30
0.0
 11
3742.000999999998
 21
4929.363999999999
 31
0.0
  0
LINE
  5
F5F
330
1E
100
AcDbEntity
  8
0
  6
Continuous
 62
     7
370
    13
100
AcDbLine
 10
3748.4508
 20
4905.346000000001
 30
0.0
 11
3742.019999999999
 21
4929.346
 31
0.0
  0
LINE
  5
F60
330
1E
100
AcDbEntity
  8
0
  6
Continuous
 62
     7
370
    13
100
AcDbLine
 10
3742.019999999999
 20
4929.346
 30
0.0
 11
3735.589400000001
 21
4905.346000000001
 31
0.0
  0
LINE
  5
F61
330
1E
100
AcDbEntity
  8
0
  6
Continuous
 62
     7
370
    13
100
AcDbLine
 10
3040.0
 20
4345.368999999998
 30
0.0
 11
3092.815000000001
 21
4345.368999999998
 31
0.0
  0
LINE
  5
F62
330
1E
100
AcDbEntity
  8
0
  6
Continuous
 62
     7
370
    13
100
AcDbLine
 10
3092.815000000001
 20
4825.364
 30
0.0
 11
3092.815000000001
 21
4325.368999999997
 31
0.0
  0
LINE
  5
F63
330
1E
100
AcDbEntity
  8
0
  6
Continuous
 62
     7
370
    13
100
AcDbLine
 10
3040.0
 20
4825.274
 30
0.0
 11
3040.0
 21
4325.368999999997
 31
0.0
  0
LINE
  5
F64
330
1E
100
AcDbEntity
  8
0
  6
Continuous
 62
     7
370
    13
100
AcDbLine
 10
3140.815000000003
 20
4345.368999999998
 30
0.0
 11
3092.815000000001
 21
4345.368999999998
 31
0.0
  0
LINE
  5
F65
330
1E
100
AcDbEntity
  8
0
  6
Continuous
 62
     7
370
    13
100
AcDbLine
 10
3116.82
 20
4351.796599999999
 30
0.0
 11
3092.82
 21
4345.366
 31
0.0
  0
LINE
  5
F66
330
1E
100
AcDbEntity
  8
0
  6
Continuous
 62
     7
370
    13
100
AcDbLine
 10
3092.82
 20
4345.366
 30
0.0
 11
3116.82
 21
4338.935199999998
 31
0.0
  0
LINE
  5
F67
330
1E
100
AcDbEntity
  8
0
  6
Continuous
 62
     7
370
    13
100
AcDbLine
 10
3040.0
 20
4345.368999999998
 30
0.0
 11
2992.0
 21
4345.368999999998
 31
0.0
  0
LINE
  5
F68
330
1E
100
AcDbEntity
  8
0
  6
Continuous
 62
     7
370
    13
100
AcDbLine
 10
3016.0
 20
4338.935199999998
 30
0.0
 11
3040.0
 21
4345.366
 31
0.0
  0
LINE
  5
F69
330
1E
100
AcDbEntity
  8
0
  6
Continuous
 62
     7
370
    13
100
AcDbLine
 10
3040.0
 20
4345.366
 30
0.0
 11
3016.0
 21
4351.796599999999
 31
0.0
  0
LINE
  5
F6A
330
1E
100
AcDbEntity
  8
0
  6
Continuous
 62
     7
370
    13
100
AcDbLine
 10
2992.0
 20
4345.368999999998
 30
0.0
 11
2788.0
 21
4345.368999999998
 31
0.0
  0
TEXT
  5
F6B
330
1E
100
AcDbEntity
  8
0
  6
Continuous
 62
     7
370
    13
100
AcDbText
 10
2788.0
 20
4357.368999999997
 30
0.0
 40
64.0
  1
52.5
 41
0.875
  7
BIGFONT
100
AcDbText
  0
LINE
  5
F6C
330
1E
100
AcDbEntity
  8
0
  6
Continuous
 62
     7
370
    13
100
AcDbLine
 10
3092.815000000001
 20
4345.368999999998
 30
0.0
 11
4983.638000000001
 21
4345.368999999998
 31
0.0
  0
LINE
  5
F6D
330
1E
100
AcDbEntity
  8
0
  6
Continuous
 62
     7
370
    13
100
AcDbLine
 10
4983.638000000001
 20
4825.364
 30
0.0
 11
4983.638000000001
 21
4325.368999999997
 31
0.0
  0
LINE
  5
F6E
330
1E
100
AcDbEntity
  8
0
  6
Continuous
 62
     7
370
    13
100
AcDbLine
 10
4959.640000000002
 20
4338.935199999998
 30
0.0
 11
4983.640000000001
 21
4345.366
 31
0.0
  0
LINE
  5
F6F
330
1E
100
AcDbEntity
  8
0
  6
Continuous
 62
     7
370
    13
100
AcDbLine
 10
4983.640000000001
 20
4345.366
 30
0.0
 11
4959.640000000002
 21
4351.796599999999
 31
0.0
  0
LINE
  5
F70
330
1E
100
AcDbEntity
  8
0
  6
Continuous
 62
     7
370
    13
100
AcDbLine
 10
3116.82
 20
4351.796599999999
 30
0.0
 11
3092.82
 21
4345.366
 31
0.0
  0
LINE
  5
F71
330
1E
100
AcDbEntity
  8
0
  6
Continuous
 62
     7
370
    13
100
AcDbLine
 10
3092.82
 20
4345.366
 30
0.0
 11
3116.82
 21
4338.935199999998
 31
0.0
  0
TEXT
  5
F72
330
1E
100
AcDbEntity
  8
0
  6
Continuous
 62
     7
370
    13
100
AcDbText
 10
3922.049125309957
 20
4357.368999999997
 30
0.0
 40
64.0
  1
1890
 41
0.875
  7
BIGFONT
100
AcDbText
  0
LINE
  5
F73
330
1E
100
AcDbEntity
  8
0
  6
Continuous
 62
     7
370
    13
100
AcDbLine
 10
4983.638000000001
 20
4345.368999999998
 30
0.0
 11
5035.000000000002
 21
4345.368999999998
 31
0.0
  0
LINE
  5
F74
330
1E
100
AcDbEntity
  8
0
  6
Continuous
 62
     7
370
    13
100
AcDbLine
 10
5035.000000000002
 20
4825.498999999997
 30
0.0
 11
5035.000000000002
 21
4325.368999999997
 31
0.0
  0
LINE
  5
F75
330
1E
100
AcDbEntity
  8
0
  6
Continuous
 62
     7
370
    13
100
AcDbLine
 10
5083.000000000001
 20
4345.368999999998
 30
0.0
 11
5035.000000000002
 21
4345.368999999998
 31
0.0
  0
LINE
  5
F76
330
1E
100
AcDbEntity
  8
0
  6
Continuous
 62
     7
370
    13
100
AcDbLine
 10
5059.000000000001
 20
4351.796599999999
 30
0.0
 11
5035.000000000002
 21
4345.366
 31
0.0
  0
LINE
  5
F77
330
1E
100
AcDbEntity
  8
0
  6
Continuous
 62
     7
370
    13
100
AcDbLine
 10
5035.000000000002
 20
4345.366
 30
0.0
 11
5059.000000000001
 21
4338.935199999998
 31
0.0
  0
LINE
  5
F78
330
1E
100
AcDbEntity
  8
0
  6
Continuous
 62
     7
370
    13
100
AcDbLine
 10
4983.638000000001
 20
4345.368999999998
 30
0.0
 11
4935.638
 21
4345.368999999998
 31
0.0
  0
LINE
  5
F79
330
1E
100
AcDbEntity
  8
0
  6
Continuous
 62
     7
370
    13
100
AcDbLine
 10
4959.640000000002
 20
4338.935199999998
 30
0.0
 11
4983.640000000001
 21
4345.366
 31
0.0
  0
LINE
  5
F7A
330
1E
100
AcDbEntity
  8
0
  6
Continuous
 62
     7
370
    13
100
AcDbLine
 10
4983.640000000001
 20
4345.366
 30
0.0
 11
4959.640000000002
 21
4351.796599999999
 31
0.0
  0
LINE
  5
F7B
330
1E
100
AcDbEntity
  8
0
  6
Continuous
 62
     7
370
    13
100
AcDbLine
 10
5083.000000000001
 20
4345.368999999998
 30
0.0
 11
5315.000000000002
 21
4345.368999999998
 31
0.0
  0
TEXT
  5
F7C
330
1E
100
AcDbEntity
  8
0
  6
Continuous
 62
     7
370
    13
100
AcDbText
 10
5091.000000000001
 20
4357.368999999997
 30
0.0
 40
64.0
  1
52.5
 41
0.875
  7
BIGFONT
100
AcDbText
  0
CIRCLE
  5
F7D
330
1E
100
AcDbEntity
  8
0
  6
Continuous
 62
     7
370
    13
100
AcDbCircle
 10
1730.59
 20
3321.675000000001
 30
0.0
 40
55.0
  0
TEXT
  5
F7E
330
1E
100
AcDbEntity
  8
0
  6
Continuous
 62
     7
370
    13
100
AcDbText
 10
1676.913
 20
3284.546000000001
 30
0.0
 40
72.0
  1
Ｓ
  7
BIGFONT
100
AcDbText
  0
TEXT
  5
F7F
330
1E
100
AcDbEntity
  8
0
  6
Continuous
 62
     7
370
    13
100
AcDbText
 10
1821.216999999998
 20
3289.511
 30
0.0
 40
64.0
  1
D10
  7
BIGFONT
100
AcDbText
  0
LINE
  5
F80
330
1E
100
AcDbEntity
  8
0
  6
Continuous
 62
     7
370
    13
100
AcDbLine
 10
1251.935999999999
 20
3266.695
 30
0.0
 11
1613.232999999998
 21
3266.695
 31
0.0
  0
LINE
  5
F81
330
1E
100
AcDbEntity
  8
0
  6
Continuous
 62
     7
370
    13
100
AcDbLine
 10
1646.369000000001
 20
3266.695
 30
0.0
 11
2004.937999999998
 21
3266.695
 31
0.0
  0
LINE
  5
F82
330
1E
100
AcDbEntity
  8
0
  6
Continuous
 62
     7
370
    13
100
AcDbLine
 10
1213.473000000002
 20
4719.02
 30
0.0
 11
1213.473000000002
 21
4827.574000000001
 31
0.0
  0
LINE
  5
F83
330
1E
100
AcDbEntity
  8
0
  6
CENTER
 62
     7
370
    13
100
AcDbLine
 10
1062.5
 20
2047.726
 30
0.0
 11
1737.5
 21
2047.726
 31
0.0
  0
LINE
  5
F84
330
1E
100
AcDbEntity
  8
0
  6
Continuous
 62
     1
370
    25
100
AcDbLine
 10
887.5
 20
2047.726
 30
0.0
 11
1062.5
 21
2047.726
 31
0.0
  0
LINE
  5
F85
330
1E
100
AcDbEntity
  8
0
  6
Continuous
 62
     1
370
    25
100
AcDbLine
 10
1737.5
 20
2047.726
 30
0.0
 11
1837.5
 21
2047.726
 31
0.0
  0
TEXT
  5
F86
330
1E
100
AcDbEntity
  8
0
  6
Continuous
 62
     7
370
    13
100
AcDbText
 10
1732.952000000001
 20
3289.34
 30
0.0
 40
40.0
  1
６
  7
BIGFONT
100
AcDbText
  0
TEXT
  5
F87
330
1E
100
AcDbEntity
  8
0
  6
Continuous
 62
     7
370
    13
100
AcDbText
 10
831.0930000000007
 20
771.7490000000016
 30
0.0
 40
40.0
  1
７
  7
BIGFONT
100
AcDbText
  0
LINE
  5
F88
330
1E
100
AcDbEntity
  8
3
  6
Continuous
 62
     7
370
    13
100
AcDbLine
 10
8732.799999999997
 20
41.98600000000078
 30
0.0
 11
8732.799999999997
 21
1041.986000000001
 31
0.0
  0
LINE
  5
F89
330
1E
100
AcDbEntity
  8
3
  6
Continuous
 62
     7
370
    13
100
AcDbLine
 10
8732.799999999997
 20
41.98600000000078
 30
0.0
 11
8732.799999999997
 21
1041.986000000001
 31
0.0
  0
LINE
  5
F8A
330
1E
100
AcDbEntity
  8
3
  6
Continuous
 62
     7
370
    13
100
AcDbLine
 10
8732.799999999997
 20
41.98600000000078
 30
0.0
 11
8732.799999999997
 21
1041.986000000001
 31
0.0
  0
LINE
  5
F8B
330
1E
100
AcDbEntity
  8
3
  6
Continuous
 62
     7
370
    13
100
AcDbLine
 10
8732.799999999997
 20
1041.986000000001
 30
0.0
 11
10732.79999999999
 21
1041.986000000001
 31
0.0
  0
LINE
  5
F8C
330
1E
100
AcDbEntity
  8
3
  6
Continuous
 62
     7
370
    13
100
AcDbLine
 10
10732.79999999999
 20
41.98600000000078
 30
0.0
 11
10732.79999999999
 21
1041.986000000001
 31
0.0
  0
LINE
  5
F8D
330
1E
100
AcDbEntity
  8
3
  6
Continuous
 62
     7
370
    13
100
AcDbLine
 10
8732.799999999997
 20
41.98600000000078
 30
0.0
 11
10732.79999999999
 21
41.98600000000078
 31
0.0
  0
LINE
  5
F8E
330
1E
100
AcDbEntity
  8
3
  6
Continuous
 62
     7
370
    13
100
AcDbLine
 10
8732.799999999997
 20
41.98600000000078
 30
0.0
 11
8732.799999999997
 21
1041.986000000001
 31
0.0
  0
LINE
  5
F8F
330
1E
100
AcDbEntity
  8
3
  6
Continuous
 62
     7
370
    13
100
AcDbLine
 10
8732.799999999997
 20
1041.986000000001
 30
0.0
 11
10732.79999999999
 21
1041.986000000001
 31
0.0
  0
LINE
  5
F90
330
1E
100
AcDbEntity
  8
3
  6
Continuous
 62
     7
370
    13
100
AcDbLine
 10
10732.79999999999
 20
41.98600000000078
 30
0.0
 11
10732.79999999999
 21
1041.986000000001
 31
0.0
  0
LINE
  5
F91
330
1E
100
AcDbEntity
  8
3
  6
Continuous
 62
     7
370
    13
100
AcDbLine
 10
8732.799999999997
 20
41.98600000000078
 30
0.0
 11
10732.79999999999
 21
41.98600000000078
 31
0.0
  0
LINE
  5
F92
330
1E
100
AcDbEntity
  8
3
  6
Continuous
 62
     7
370
    13
100
AcDbLine
 10
8732.799999999997
 20
41.98600000000078
 30
0.0
 11
8732.799999999997
 21
1041.986000000001
 31
0.0
  0
LINE
  5
F93
330
1E
100
AcDbEntity
  8
3
  6
Continuous
 62
     7
370
    13
100
AcDbLine
 10
8732.799999999997
 20
841.9860000000008
 30
0.0
 11
10732.79999999999
 21
841.9860000000008
 31
0.0
  0
LINE
  5
F94
330
1E
100
AcDbEntity
  8
3
  6
Continuous
 62
     7
370
    13
100
AcDbLine
 10
8732.799999999997
 20
681.9860000000044
 30
0.0
 11
10732.79999999999
 21
681.9860000000044
 31
0.0
  0
LINE
  5
F95
330
1E
100
AcDbEntity
  8
3
  6
Continuous
 62
     7
370
    13
100
AcDbLine
 10
8732.799999999997
 20
521.9860000000007
 30
0.0
 11
10732.79999999999
 21
521.9860000000007
 31
0.0
  0
LINE
  5
F96
330
1E
100
AcDbEntity
  8
3
  6
Continuous
 62
     7
370
    13
100
AcDbLine
 10
8732.799999999997
 20
261.9860000000008
 30
0.0
 11
10732.79999999999
 21
261.9860000000008
 31
0.0
  0
LINE
  5
F97
330
1E
100
AcDbEntity
  8
3
  6
Continuous
 62
     7
370
    13
100
AcDbLine
 10
9272.799999999998
 20
261.9860000000008
 30
0.0
 11
9272.799999999998
 21
1041.986000000001
 31
0.0
  0
LINE
  5
F98
330
1E
100
AcDbEntity
  8
3
  6
Continuous
 62
     7
370
    13
100
AcDbLine
 10
9132.799999999997
 20
261.9860000000008
 30
0.0
 11
9132.799999999997
 21
521.9860000000007
 31
0.0
  0
LINE
  5
F99
330
1E
100
AcDbEntity
  8
3
  6
Continuous
 62
     7
370
    13
100
AcDbLine
 10
8872.799999999998
 20
261.9860000000008
 30
0.0
 11
8872.799999999998
 21
521.9860000000007
 31
0.0
  0
LINE
  5
F9A
330
1E
100
AcDbEntity
  8
3
  6
Continuous
 62
     7
370
    13
100
AcDbLine
 10
9532.799999999998
 20
261.9860000000008
 30
0.0
 11
9532.799999999998
 21
521.9860000000007
 31
0.0
  0
LINE
  5
F9B
330
1E
100
AcDbEntity
  8
3
  6
Continuous
 62
     7
370
    13
100
AcDbLine
 10
9672.799999999998
 20
261.9860000000008
 30
0.0
 11
9672.799999999998
 21
521.9860000000007
 31
0.0
  0
LINE
  5
F9C
330
1E
100
AcDbEntity
  8
3
  6
Continuous
 62
     7
370
    13
100
AcDbLine
 10
9932.799999999998
 20
261.9860000000008
 30
0.0
 11
9932.799999999998
 21
521.9860000000007
 31
0.0
  0
LINE
  5
F9D
330
1E
100
AcDbEntity
  8
3
  6
Continuous
 62
     7
370
    13
100
AcDbLine
 10
10072.79999999999
 20
261.9860000000008
 30
0.0
 11
10072.79999999999
 21
521.9860000000007
 31
0.0
  0
LINE
  5
F9E
330
1E
100
AcDbEntity
  8
3
  6
Continuous
 62
     7
370
    13
100
AcDbLine
 10
10332.79999999999
 20
261.9860000000008
 30
0.0
 11
10332.79999999999
 21
521.9860000000007
 31
0.0
  0
LINE
  5
F9F
330
1E
100
AcDbEntity
  8
3
  6
Continuous
 62
     7
370
    13
100
AcDbLine
 10
10472.79999999999
 20
261.9860000000008
 30
0.0
 11
10472.79999999999
 21
521.9860000000007
 31
0.0
  0
LINE
  5
FA0
330
1E
100
AcDbEntity
  8
3
  6
Continuous
 62
     7
370
    13
100
AcDbLine
 10
9772.799999999998
 20
681.9860000000044
 30
0.0
 11
9772.799999999998
 21
841.9860000000008
 31
0.0
  0
LINE
  5
FA1
330
1E
100
AcDbEntity
  8
3
  6
Continuous
 62
     7
370
    13
100
AcDbLine
 10
10232.79999999999
 20
681.9860000000044
 30
0.0
 11
10232.79999999999
 21
841.9860000000008
 31
0.0
  0
TEXT
  5
FA2
330
1E
100
AcDbEntity
  8
3
  6
Continuous
 62
     7
370
    13
100
AcDbText
 10
8799.100000000001
 20
884.706
 30
0.0
 40
100.0
  1
図面名
  7
BIGFONT
100
AcDbText
  0
TEXT
  5
FA3
330
1E
100
AcDbEntity
  8
3
  6
Continuous
 62
     7
370
    13
100
AcDbText
 10
8808.699999999999
 20
717.4660000000003
 30
0.0
 40
80.0
  1
縮尺
  7
BIGFONT
100
AcDbText
  0
TEXT
  5
FA4
330
1E
100
AcDbEntity
  8
3
  6
Continuous
 62
     7
370
    13
100
AcDbText
 10
9817.42
 20
719.3860000000004
 30
0.0
 40
80.0
  1
図面番号
  7
BIGFONT
100
AcDbText
  0
TEXT
  5
FA5
330
1E
100
AcDbEntity
  8
3
  6
Continuous
 62
     7
370
    13
100
AcDbText
 10
8804.860000000003
 20
557.9060000000026
 30
0.0
 40
80.0
  1
設計年月日
  7
BIGFONT
100
AcDbText
  0
TEXT
  5
FA6
330
1E
100
AcDbEntity
  8
3
  6
Continuous
 62
     7
370
    13
100
AcDbText
 10
9446.599999999996
 20
557.9060000000026
 30
0.0
 40
80.0
  1
平成　　年　　月　　日
  7
BIGFONT
100
AcDbText
  0
TEXT
  5
FA7
330
1E
100
AcDbEntity
  8
3
  6
Continuous
 62
     7
370
    13
100
AcDbText
 10
9171.560033936906
 20
83.30600000000231
 30
0.0
 40
120.0
  1
千葉窯業株式会社
  7
BIGFONT
100
AcDbText
  0
TEXT
  5
FA8
330
1E
100
AcDbEntity
  8
3
  6
Continuous
 62
     7
370
    13
100
AcDbText
 10
8766.440000000001
 20
486.7659999999996
 30
0.0
 40
80.0
  1
部長
 50
270.0
  7
BIGFONT
100
AcDbText
  0
TEXT
  5
FA9
330
1E
100
AcDbEntity
  8
3
  6
Continuous
 62
     7
370
    13
100
AcDbText
 10
9166.079999999999
 20
486.7659999999996
 30
0.0
 40
80.0
  1
課長
 50
270.0
  7
BIGFONT
100
AcDbText
  0
TEXT
  5
FAA
330
1E
100
AcDbEntity
  8
3
  6
Continuous
 62
     7
370
    13
100
AcDbText
 10
9565.719999999998
 20
486.7659999999996
 30
0.0
 40
80.0
  1
検図
 50
270.0
  7
BIGFONT
100
AcDbText
  0
TEXT
  5
FAB
330
1E
100
AcDbEntity
  8
3
  6
Continuous
 62
     7
370
    13
100
AcDbText
 10
9969.219999999996
 20
486.7659999999996
 30
0.0
 40
80.0
  1
設計
 50
270.0
  7
BIGFONT
100
AcDbText
  0
TEXT
  5
FAC
330
1E
100
AcDbEntity
  8
3
  6
Continuous
 62
     7
370
    13
100
AcDbText
 10
10366.93999999999
 20
488.6859999999996
 30
0.0
 40
80.0
  1
製図
 50
270.0
  7
BIGFONT
100
AcDbText
  0
LINE
  5
FAD
330
1E
100
AcDbEntity
  8
3
  6
Continuous
 62
     7
370
    13
100
AcDbLine
 10
8732.799999999997
 20
1041.986000000001
 30
0.0
 11
10732.79999999999
 21
1041.986000000001
 31
0.0
  0
LINE
  5
FAE
330
1E
100
AcDbEntity
  8
3
  6
Continuous
 62
     7
370
    13
100
AcDbLine
 10
10732.79999999999
 20
41.98600000000078
 30
0.0
 11
10732.79999999999
 21
1041.986000000001
 31
0.0
  0
LINE
  5
FAF
330
1E
100
AcDbEntity
  8
3
  6
Continuous
 62
     7
370
    13
100
AcDbLine
 10
8732.799999999997
 20
41.98600000000078
 30
0.0
 11
10732.79999999999
 21
41.98600000000078
 31
0.0
  0
LINE
  5
FB0
330
1E
100
AcDbEntity
  8
3
  6
Continuous
 62
     7
370
    13
100
AcDbLine
 10
8732.799999999997
 20
41.98600000000078
 30
0.0
 11
8732.799999999997
 21
1041.986000000001
 31
0.0
  0
TEXT
  5
FB1
330
1E
100
AcDbEntity
  8
3
  6
Continuous
 62
     7
370
    13
100
AcDbText
 10
9733.640000000001
 20
557.8060000000022
 30
0.0
 40
75.99999999999996
  1
３
  7
BIGFONT
100
AcDbText
  0
TEXT
  5
FB2
330
1E
100
AcDbEntity
  8
3
  6
Continuous
 62
     7
370
    13
100
AcDbText
 10
10041.46
 20
557.3459999999995
 30
0.0
 40
75.99999999999996
  1
６
  7
BIGFONT
100
AcDbText
  0
TEXT
  5
FB3
330
1E
100
AcDbEntity
  8
3
  6
Continuous
 62
     7
370
    13
100
AcDbText
 10
10348.09999999999
 20
557.0460000000003
 30
0.0
 40
75.99999999999996
  1
１
  7
BIGFONT
100
AcDbText
  0
TEXT
  5
FB4
330
1E
100
AcDbEntity
  8
3
  6
Continuous
 62
     7
370
    13
100
AcDbText
 10
9364.680000000003
 20
718.3460000000049
 30
0.0
 40
80.0
  1
１：２０
  7
BIGFONT
100
AcDbText
  0
TEXT
  5
FB5
330
1E
100
AcDbEntity
  8
3
  6
Continuous
 62
     7
370
    13
100
AcDbText
 10
10270.02374028042
 20
718.4060000000008
 30
0.0
 40
80.0
  1
KL-302
  7
BIGFONT
100
AcDbText
  0
TEXT
  5
FB6
330
1E
100
AcDbEntity
  8
3
  6
Continuous
 62
     7
370
    13
100
AcDbText
 10
9334.259999999996
 20
854.9860000000025
 30
0.0
 40
80.0
  1
一般部構造図
  7
BIGFONT
100
AcDbText
  0
TEXT
  5
FB7
330
1E
100
AcDbEntity
  8
3
  6
Continuous
 62
     7
370
    13
100
AcDbText
 10
9338.040000000003
 20
952.1260000000021
 30
0.0
 40
80.0
  1
ＫＬウォール３型
  7
BIGFONT
100
AcDbText
  0
TEXT
  5
FB8
330
1E
100
AcDbEntity
  8
3
  6
Continuous
 62
     7
370
    13
100
AcDbText
 10
9972.843268510258
 20
847.9660000000004
 30
0.0
 40
80.0
  1
(H = 1000)
  7
BIGFONT
100
AcDbText
  0
LINE
  5
FB9
330
1E
100
AcDbEntity
  8
0
  6
Continuous
 62
     1
370
    25
100
AcDbLine
 10
0.0
 20
7695.451000000002
 30
0.0
 11
10775.0
 21
7695.451000000002
 31
0.0
  0
LINE
  5
FBA
330
1E
100
AcDbEntity
  8
0
  6
Continuous
 62
     1
370
    25
100
AcDbLine
 10
10775.0
 20
0.0
 30
0.0
 11
10775.0
 21
7695.451000000002
 31
0.0
  0
LINE
  5
FBB
330
1E
100
AcDbEntity
  8
0
  6
Continuous
 62
     1
370
    25
100
AcDbLine
 10
0.0
 20
0.0
 30
0.0
 11
0.0
 21
7695.451000000002
 31
0.0
  0
LINE
  5
FBC
330
1E
100
AcDbEntity
  8
0
  6
Continuous
 62
     1
370
    25
100
AcDbLine
 10
0.0
 20
0.0
 30
0.0
 11
10775.0
 21
0.0
 31
0.0
  0
TEXT
  5
FBD
330
1E
100
AcDbEntity
  8
2
  6
Continuous
 62
     7
370
    13
100
AcDbText
 10
3192.506
 20
2765.394000000001
 30
0.0
 40
80.0
  1
径
  7
BIGFONT
100
AcDbText
  0
TEXT
  5
FBE
330
1E
100
AcDbEntity
  8
2
  6
Continuous
 62
     7
370
    13
100
AcDbText
 10
3433.754000000001
 20
2815.394
 30
0.0
 40
80.0
  1
長さ
  7
BIGFONT
100
AcDbText
  0
TEXT
  5
FBF
330
1E
100
AcDbEntity
  8
2
  6
Continuous
 62
     7
370
    13
100
AcDbText
 10
3749.771999999997
 20
2765.394000000001
 30
0.0
 40
80.0
  1
本数
  7
BIGFONT
100
AcDbText
  0
TEXT
  5
FC0
330
1E
100
AcDbEntity
  8
2
  6
Continuous
 62
     7
370
    13
100
AcDbText
 10
3434.312
 20
2738.728000000001
 30
0.0
 40
60.0
  1
（ｍｍ）
  7
BIGFONT
100
AcDbText
  0
TEXT
  5
FC1
330
1E
100
AcDbEntity
  8
2
  6
Continuous
 62
     7
370
    13
100
AcDbText
 10
4498.827999999997
 20
2732.546000000001
 30
0.0
 40
60.0
  1
（ｋｇ）
  7
BIGFONT
100
AcDbText
  0
LINE
  5
FC2
330
1E
100
AcDbEntity
  8
2
  6
Continuous
 62
     7
370
    13
100
AcDbLine
 10
2899.096
 20
2595.394000000001
 30
0.0
 11
5119.095999999999
 21
2595.394000000001
 31
0.0
  0
LINE
  5
FC3
330
1E
100
AcDbEntity
  8
2
  6
Continuous
 62
     7
370
    13
100
AcDbLine
 10
2899.096
 20
2475.394
 30
0.0
 11
5119.095999999999
 21
2475.394
 31
0.0
  0
LINE
  5
FC4
330
1E
100
AcDbEntity
  8
2
  6
Continuous
 62
     7
370
    13
100
AcDbLine
 10
2899.096
 20
2355.393999999998
 30
0.0
 11
5119.095999999999
 21
2355.393999999998
 31
0.0
  0
LINE
  5
FC5
330
1E
100
AcDbEntity
  8
2
  6
Continuous
 62
     7
370
    13
100
AcDbLine
 10
2899.096
 20
2235.393999999998
 30
0.0
 11
5119.095999999999
 21
2235.393999999998
 31
0.0
  0
LINE
  5
FC6
330
1E
100
AcDbEntity
  8
2
  6
Continuous
 62
     7
370
    13
100
AcDbLine
 10
2899.096
 20
2115.393999999998
 30
0.0
 11
5119.095999999999
 21
2115.393999999998
 31
0.0
  0
LINE
  5
FC7
330
1E
100
AcDbEntity
  8
2
  6
Continuous
 62
     7
370
    13
100
AcDbLine
 10
2899.096
 20
1995.394
 30
0.0
 11
5119.095999999999
 21
1995.394
 31
0.0
  0
LINE
  5
FC8
330
1E
100
AcDbEntity
  8
2
  6
Continuous
 62
     7
370
    13
100
AcDbLine
 10
2899.096
 20
1875.394
 30
0.0
 11
5119.095999999999
 21
1875.394
 31
0.0
  0
LINE
  5
FC9
330
1E
100
AcDbEntity
  8
2
  6
Continuous
 62
     7
370
    13
100
AcDbLine
 10
2899.096
 20
2715.394
 30
0.0
 11
2899.096
 21
3115.394
 31
0.0
  0
LINE
  5
FCA
330
1E
100
AcDbEntity
  8
2
  6
Continuous
 62
     7
370
    13
100
AcDbLine
 10
2899.096
 20
2715.394
 30
0.0
 11
5119.095999999999
 21
2715.394
 31
0.0
  0
TEXT
  5
FCB
330
1E
100
AcDbEntity
  8
2
  6
Continuous
 62
     7
370
    13
100
AcDbText
 10
2941.774000000001
 20
930.5260000000034
 30
0.0
 40
80.0
  1
コンクリート
 41
0.9
  7
BIGFONT
100
AcDbText
  0
TEXT
  5
FCC
330
1E
100
AcDbEntity
  8
2
  6
Continuous
 62
     7
370
    13
100
AcDbText
 10
2941.613999999999
 20
644.6300000000064
 30
0.0
 40
80.0
  1
継手フランジ
 41
0.9
  7
BIGFONT
100
AcDbText
  0
TEXT
  5
FCD
330
1E
100
AcDbEntity
  8
2
  6
Continuous
 62
     7
370
    13
100
AcDbText
 10
2973.522000000003
 20
782.9600000000027
 30
0.0
 40
80.0
  1
ボ　ル　ト
  7
BIGFONT
100
AcDbText
  0
TEXT
  5
FCE
330
1E
100
AcDbEntity
  8
2
  6
Continuous
 62
     7
370
    13
100
AcDbText
 10
2920.184000000001
 20
2765.65
 30
0.0
 40
80.0
  1
種別
  7
BIGFONT
100
AcDbText
  0
LINE
  5
FCF
330
1E
100
AcDbEntity
  8
2
  6
Continuous
 62
     7
370
    13
100
AcDbLine
 10
2899.096
 20
3115.394
 30
0.0
 11
5119.095999999999
 21
3115.394
 31
0.0
  0
TEXT
  5
FD0
330
1E
100
AcDbEntity
  8
2
  6
Continuous
 62
     7
370
    13
100
AcDbText
 10
3964.717999999999
 20
2822.748
 30
0.0
 40
80.0
  1
単位重量
  7
BIGFONT
100
AcDbText
  0
TEXT
  5
FD1
330
1E
100
AcDbEntity
  8
2
  6
Continuous
 62
     7
370
    13
100
AcDbText
 10
4868.964000000001
 20
2765.688
 30
0.0
 40
80.0
  1
摘要
  7
BIGFONT
100
AcDbText
  0
LINE
  5
FD2
330
1E
100
AcDbEntity
  8
2
  6
Continuous
 62
     7
370
    13
100
AcDbLine
 10
2899.096
 20
2915.394
 30
0.0
 11
5119.095999999999
 21
2915.394
 31
0.0
  0
TEXT
  5
FD3
330
1E
100
AcDbEntity
  8
2
  6
Continuous
 62
     7
370
    13
100
AcDbText
 10
4004.263999999999
 20
2736.710000000001
 30
0.0
 40
58.0
  1
（ｋｇ／ｍ）
 41
0.9655171999999998
  7
BIGFONT
100
AcDbText
  0
TEXT
  5
FD4
330
1E
100
AcDbEntity
  8
2
  6
Continuous
 62
     7
370
    13
100
AcDbText
 10
4485.456
 20
2822.366
 30
0.0
 40
80.0
  1
重量
  7
BIGFONT
100
AcDbText
  0
LINE
  5
FD5
330
1E
100
AcDbEntity
  8
2
  6
Continuous
 62
     7
370
    13
100
AcDbLine
 10
2899.096
 20
1636.026000000002
 30
0.0
 11
5119.095999999999
 21
1636.026000000002
 31
0.0
  0
LINE
  5
FD6
330
1E
100
AcDbEntity
  8
2
  6
Continuous
 62
     7
370
    13
100
AcDbLine
 10
2899.096
 20
1317.290000000002
 30
0.0
 11
5119.095999999999
 21
1317.290000000002
 31
0.0
  0
LINE
  5
FD7
330
1E
100
AcDbEntity
  8
2
  6
Continuous
 62
     7
370
    13
100
AcDbLine
 10
2899.096
 20
1177.290000000004
 30
0.0
 11
5119.095999999999
 21
1177.290000000004
 31
0.0
  0
LINE
  5
FD8
330
1E
100
AcDbEntity
  8
2
  6
Continuous
 62
     7
370
    13
100
AcDbLine
 10
2899.096
 20
1037.290000000003
 30
0.0
 11
5119.095999999999
 21
1037.290000000003
 31
0.0
  0
LINE
  5
FD9
330
1E
100
AcDbEntity
  8
2
  6
Continuous
 62
     7
370
    13
100
AcDbLine
 10
2899.096
 20
897.290000000008
 30
0.0
 11
5119.095999999999
 21
897.290000000008
 31
0.0
  0
LINE
  5
FDA
330
1E
100
AcDbEntity
  8
2
  6
Continuous
 62
     7
370
    13
100
AcDbLine
 10
2899.096
 20
757.2900000000027
 30
0.0
 11
5119.095999999999
 21
757.2900000000027
 31
0.0
  0
LINE
  5
FDB
330
1E
100
AcDbEntity
  8
2
  6
Continuous
 62
     7
370
    13
100
AcDbLine
 10
2899.096
 20
617.2900000000026
 30
0.0
 11
5119.095999999999
 21
617.2900000000026
 31
0.0
  0
LINE
  5
FDC
330
1E
100
AcDbEntity
  8
2
  6
Continuous
 62
     7
370
    13
100
AcDbLine
 10
4669.095999999997
 20
617.2900000000026
 30
0.0
 11
4669.095999999997
 21
1317.290000000002
 31
0.0
  0
LINE
  5
FDD
330
1E
100
AcDbEntity
  8
2
  6
Continuous
 62
     7
370
    13
100
AcDbLine
 10
3999.096
 20
617.2900000000026
 30
0.0
 11
3999.096
 21
1317.290000000002
 31
0.0
  0
LINE
  5
FDE
330
1E
100
AcDbEntity
  8
2
  6
Continuous
 62
     7
370
    13
100
AcDbLine
 10
4219.095999999997
 20
617.2900000000026
 30
0.0
 11
4219.095999999997
 21
1317.290000000002
 31
0.0
  0
LINE
  5
FDF
330
1E
100
AcDbEntity
  8
2
  6
Continuous
 62
     7
370
    13
100
AcDbLine
 10
4219.095999999997
 20
617.2900000000026
 30
0.0
 11
4219.095999999997
 21
1317.290000000002
 31
0.0
  0
LINE
  5
FE0
330
1E
100
AcDbEntity
  8
2
  6
Continuous
 62
     7
370
    13
100
AcDbLine
 10
4219.095999999997
 20
617.2900000000026
 30
0.0
 11
4219.095999999997
 21
1317.290000000002
 31
0.0
  0
LINE
  5
FE1
330
1E
100
AcDbEntity
  8
2
  6
Continuous
 62
     7
370
    13
100
AcDbLine
 10
3449.095999999998
 20
617.2900000000026
 30
0.0
 11
3449.095999999998
 21
1317.290000000002
 31
0.0
  0
LINE
  5
FE2
330
1E
100
AcDbEntity
  8
2
  6
Continuous
 62
     7
370
    13
100
AcDbLine
 10
3119.096000000002
 20
2715.394
 30
0.0
 11
3119.096000000002
 21
2915.394
 31
0.0
  0
TEXT
  5
FE3
330
1E
100
AcDbEntity
  8
2
  6
Continuous
 62
     7
370
    13
100
AcDbText
 10
3034.751999999999
 20
2965.394
 30
0.0
 40
90.0
  1
鉄筋重量表
  7
BIGFONT
100
AcDbText
  0
TEXT
  5
FE4
330
1E
100
AcDbEntity
  8
2
  6
Continuous
 62
     7
370
    13
100
AcDbText
 10
3043.068000000003
 20
1367.290000000004
 30
0.0
 40
90.0
  1
材料表
  7
BIGFONT
100
AcDbText
  0
TEXT
  5
FE5
330
1E
100
AcDbEntity
  8
2
  6
Continuous
 62
     7
370
    13
100
AcDbText
 10
2954.584000000001
 20
2256.56
 30
0.0
 40
80.0
  1
Ｓ
  7
BIGFONT
100
AcDbText
  0
TEXT
  5
FE6
330
1E
100
AcDbEntity
  8
2
  6
Continuous
 62
     7
370
    13
100
AcDbText
 10
2954.584000000001
 20
2376.56
 30
0.0
 40
80.0
  1
Ｓ
  7
BIGFONT
100
AcDbText
  0
TEXT
  5
FE7
330
1E
100
AcDbEntity
  8
2
  6
Continuous
 62
     7
370
    13
100
AcDbText
 10
2954.584000000001
 20
2496.56
 30
0.0
 40
80.0
  1
Ｓ
  7
BIGFONT
100
AcDbText
  0
TEXT
  5
FE8
330
1E
100
AcDbEntity
  8
2
  6
Continuous
 62
     7
370
    13
100
AcDbText
 10
2954.584000000001
 20
2616.56
 30
0.0
 40
80.0
  1
Ｓ
  7
BIGFONT
100
AcDbText
  0
TEXT
  5
FE9
330
1E
100
AcDbEntity
  8
2
  6
Continuous
 62
     7
370
    13
100
AcDbText
 10
2954.584000000001
 20
2136.56
 30
0.0
 40
80.0
  1
Ｓ
  7
BIGFONT
100
AcDbText
  0
TEXT
  5
FEA
330
1E
100
AcDbEntity
  8
2
  6
Continuous
 62
     7
370
    13
100
AcDbText
 10
2954.584000000001
 20
2016.56
 30
0.0
 40
80.0
  1
Ｓ
  7
BIGFONT
100
AcDbText
  0
TEXT
  5
FEB
330
1E
100
AcDbEntity
  8
2
  6
Continuous
 62
     7
370
    13
100
AcDbText
 10
2954.584000000001
 20
1896.559999999999
 30
0.0
 40
80.0
  1
Ｓ
  7
BIGFONT
100
AcDbText
  0
TEXT
  5
FEC
330
1E
100
AcDbEntity
  8
2
  6
Continuous
 62
     7
370
    13
100
AcDbText
 10
2954.584000000001
 20
1776.559999999999
 30
0.0
 40
80.0
  1
Ｓ
  7
BIGFONT
100
AcDbText
  0
TEXT
  5
FED
330
1E
100
AcDbEntity
  8
2
  6
Continuous
 62
     7
370
    13
100
AcDbText
 10
3023.917999999998
 20
2623.733999999999
 30
0.0
 40
40.0
  1
１
  7
BIGFONT
100
AcDbText
  0
TEXT
  5
FEE
330
1E
100
AcDbEntity
  8
2
  6
Continuous
 62
     7
370
    13
100
AcDbText
 10
3019.538000000002
 20
2503.564000000001
 30
0.0
 40
40.0
  1
２
  7
BIGFONT
100
AcDbText
  0
TEXT
  5
FEF
330
1E
100
AcDbEntity
  8
2
  6
Continuous
 62
     7
370
    13
100
AcDbText
 10
3017.924000000001
 20
2383.552
 30
0.0
 40
40.0
  1
３
  7
BIGFONT
100
AcDbText
  0
TEXT
  5
FF0
330
1E
100
AcDbEntity
  8
2
  6
Continuous
 62
     7
370
    13
100
AcDbText
 10
3016.892
 20
2263.228000000001
 30
0.0
 40
40.0
  1
４
  7
BIGFONT
100
AcDbText
  0
TEXT
  5
FF1
330
1E
100
AcDbEntity
  8
2
  6
Continuous
 62
     7
370
    13
100
AcDbText
 10
3016.786000000002
 20
2143.118000000001
 30
0.0
 40
40.0
  1
５
  7
BIGFONT
100
AcDbText
  0
TEXT
  5
FF2
330
1E
100
AcDbEntity
  8
2
  6
Continuous
 62
     7
370
    13
100
AcDbText
 10
3016.824000000003
 20
2023.6
 30
0.0
 40
40.0
  1
６
  7
BIGFONT
100
AcDbText
  0
TEXT
  5
FF3
330
1E
100
AcDbEntity
  8
2
  6
Continuous
 62
     7
370
    13
100
AcDbText
 10
3016.028
 20
1902.796
 30
0.0
 40
40.0
  1
７
  7
BIGFONT
100
AcDbText
  0
TEXT
  5
FF4
330
1E
100
AcDbEntity
  8
2
  6
Continuous
 62
     7
370
    13
100
AcDbText
 10
3016.056000000002
 20
1783.588
 30
0.0
 40
40.0
  1
８
  7
BIGFONT
100
AcDbText
  0
TEXT
  5
FF5
330
1E
100
AcDbEntity
  8
2
  6
Continuous
 62
     7
370
    13
100
AcDbText
 10
4327.399999999998
 20
1210.022000000006
 30
0.0
 40
80.0
  1
数　量
  7
BIGFONT
100
AcDbText
  0
TEXT
  5
FF6
330
1E
100
AcDbEntity
  8
2
  6
Continuous
 62
     7
370
    13
100
AcDbText
 10
4777.935999999998
 20
1209.742000000004
 30
0.0
 40
80.0
  1
摘　要
  7
BIGFONT
100
AcDbText
  0
TEXT
  5
FF7
330
1E
100
AcDbEntity
  8
2
  6
Continuous
 62
     7
370
    13
100
AcDbText
 10
3065.808000000001
 20
1210.168000000003
 30
0.0
 40
80.0
  1
種　別
  7
BIGFONT
100
AcDbText
  0
TEXT
  5
FF8
330
1E
100
AcDbEntity
  8
2
  6
Continuous
 62
     7
370
    13
100
AcDbText
 10
3596.866
 20
1207.174000000004
 30
0.0
 40
80.0
  1
規　格
  7
BIGFONT
100
AcDbText
  0
TEXT
  5
FF9
330
1E
100
AcDbEntity
  8
2
  6
Continuous
 62
     7
370
    13
100
AcDbText
 10
4029.146
 20
1209.486000000004
 30
0.0
 40
80.0
  1
単位
  7
BIGFONT
100
AcDbText
  0
TEXT
  5
FFA
330
1E
100
AcDbEntity
  8
2
  6
Continuous
 62
     7
370
    13
100
AcDbText
 10
2948.524000000001
 20
1064.710000000003
 30
0.0
 40
80.0
  1
鉄　筋
  7
BIGFONT
100
AcDbText
  0
TEXT
  5
FFB
330
1E
100
AcDbEntity
  8
2
  6
Continuous
 62
     7
370
    13
100
AcDbText
 10
4050.907999999999
 20
1076.314000000004
 30
0.0
 40
60.0
  1
ｋｇ
  7
BIGFONT
100
AcDbText
  0
TEXT
  5
FFC
330
1E
100
AcDbEntity
  8
2
  6
Continuous
 62
     7
370
    13
100
AcDbText
 10
4074.719999999999
 20
935.8200000000033
 30
0.0
 40
60.0
  1
ｍ
  7
BIGFONT
100
AcDbText
  0
TEXT
  5
FFD
330
1E
100
AcDbEntity
  8
2
  6
Continuous
 62
     7
370
    13
100
AcDbText
 10
4079.9
 20
654.6200000000026
 30
0.0
 40
60.0
  1
コ
  7
BIGFONT
100
AcDbText
  0
TEXT
  5
FFE
330
1E
100
AcDbEntity
  8
2
  6
Continuous
 62
     7
370
    13
100
AcDbText
 10
4077.504000000001
 20
795.8200000000052
 30
0.0
 40
60.0
  1
組
  7
BIGFONT
100
AcDbText
  0
TEXT
  5
FFF
330
1E
100
AcDbEntity
  8
2
  6
Continuous
 62
     7
370
    13
100
AcDbText
 10
4118.465999999998
 20
968.1520000000036
 30
0.0
 40
40.0
  1
３
  7
BIGFONT
100
AcDbText
  0
TEXT
  5
1000
330
1E
100
AcDbEntity
  8
2
  6
Continuous
 62
     7
370
    13
100
AcDbText
 10
4408.002
 20
1345.228000000003
 30
0.0
 40
60.0
  1
（製品．１　当たり）
  7
BIGFONT
100
AcDbText
  0
TEXT
  5
1001
330
1E
100
AcDbEntity
  8
2
  6
Continuous
 62
     7
370
    13
100
AcDbText
 10
4747.147509262271
 20
1348.164000000004
 30
0.0
 40
40.0
  1
コ
  7
BIGFONT
100
AcDbText
  0
TEXT
  5
1002
330
1E
100
AcDbEntity
  8
2
  6
Continuous
 62
     7
370
    13
100
AcDbText
 10
4408.002
 20
2945.084000000001
 30
0.0
 40
60.0
  1
（製品．１　当たり）
  7
BIGFONT
100
AcDbText
  0
TEXT
  5
1003
330
1E
100
AcDbEntity
  8
2
  6
Continuous
 62
     7
370
    13
100
AcDbText
 10
4677.61
 20
2948.020000000001
 30
0.0
 40
40.0
  1
コ
  7
BIGFONT
100
AcDbText
  0
CIRCLE
  5
1004
330
1E
100
AcDbEntity
  8
2
  6
Continuous
 62
     7
370
    13
100
AcDbCircle
 10
3009.096000000001
 20
2655.394000000001
 30
0.0
 40
52.0
  0
CIRCLE
  5
1005
330
1E
100
AcDbEntity
  8
2
  6
Continuous
 62
     7
370
    13
100
AcDbCircle
 10
3009.096000000001
 20
2535.394
 30
0.0
 40
52.0
  0
CIRCLE
  5
1006
330
1E
100
AcDbEntity
  8
2
  6
Continuous
 62
     7
370
    13
100
AcDbCircle
 10
3009.096000000001
 20
2415.393999999999
 30
0.0
 40
52.0
  0
CIRCLE
  5
1007
330
1E
100
AcDbEntity
  8
2
  6
Continuous
 62
     7
370
    13
100
AcDbCircle
 10
3009.096000000001
 20
2295.394
 30
0.0
 40
52.0
  0
CIRCLE
  5
1008
330
1E
100
AcDbEntity
  8
2
  6
Continuous
 62
     7
370
    13
100
AcDbCircle
 10
3009.096000000001
 20
2175.394
 30
0.0
 40
52.0
  0
CIRCLE
  5
1009
330
1E
100
AcDbEntity
  8
2
  6
Continuous
 62
     7
370
    13
100
AcDbCircle
 10
3009.096000000001
 20
2055.393999999998
 30
0.0
 40
52.0
  0
CIRCLE
  5
100A
330
1E
100
AcDbEntity
  8
2
  6
Continuous
 62
     7
370
    13
100
AcDbCircle
 10
3009.096000000001
 20
1935.394
 30
0.0
 40
52.0
  0
CIRCLE
  5
100B
330
1E
100
AcDbEntity
  8
2
  6
Continuous
 62
     7
370
    13
100
AcDbCircle
 10
3009.096000000001
 20
1815.394
 30
0.0
 40
52.0
  0
TEXT
  5
100C
330
1E
100
AcDbEntity
  8
2
  6
Continuous
 62
     7
370
    13
100
AcDbText
 10
3160.280000000003
 20
2259.433999999999
 30
0.0
 40
64.0
  1
D10
  7
BIGFONT
100
AcDbText
  0
TEXT
  5
100D
330
1E
100
AcDbEntity
  8
2
  6
Continuous
 62
     7
370
    13
100
AcDbText
 10
3799.301999999999
 20
2499.24
 30
0.0
 40
64.0
  1
2
  7
BIGFONT
100
AcDbText
  0
TEXT
  5
100E
330
1E
100
AcDbEntity
  8
2
  6
Continuous
 62
     7
370
    13
100
AcDbText
 10
3799.9
 20
2139.591999999999
 30
0.0
 40
64.0
  1
2
  7
BIGFONT
100
AcDbText
  0
TEXT
  5
100F
330
1E
100
AcDbEntity
  8
2
  6
Continuous
 62
     7
370
    13
100
AcDbText
 10
3799.549999999999
 20
2019.564
 30
0.0
 40
64.0
  1
2
  7
BIGFONT
100
AcDbText
  0
TEXT
  5
1010
330
1E
100
AcDbEntity
  8
2
  6
Continuous
 62
     7
370
    13
100
AcDbText
 10
3799.301999999999
 20
2379.24
 30
0.0
 40
64.0
  1
2
  7
BIGFONT
100
AcDbText
  0
LINE
  5
1011
330
1E
100
AcDbEntity
  8
2
  6
Continuous
 62
     7
370
    13
100
AcDbLine
 10
4819.095999999998
 20
2596.928
 30
0.0
 11
4819.095999999998
 21
2715.126000000001
 31
0.0
  0
LINE
  5
1012
330
1E
100
AcDbEntity
  8
2
  6
Continuous
 62
     7
370
    13
100
AcDbLine
 10
4819.095999999998
 20
2715.126000000001
 30
0.0
 11
4819.095999999998
 21
2915.394
 31
0.0
  0
LINE
  5
1013
330
1E
100
AcDbEntity
  8
2
  6
Continuous
 62
     7
370
    13
100
AcDbLine
 10
4960.464000000001
 20
2394.108000000001
 30
0.0
 11
4960.464000000001
 21
2424.108
 31
0.0
  0
LINE
  5
1014
330
1E
100
AcDbEntity
  8
2
  6
Continuous
 62
     7
370
    13
100
AcDbLine
 10
4933.996000000001
 20
2175.34
 30
0.0
 11
4933.996000000001
 21
2188.825999999999
 31
0.0
  0
LINE
  5
1015
330
1E
100
AcDbEntity
  8
2
  6
Continuous
 62
     7
370
    13
100
AcDbLine
 10
4933.996000000001
 20
2175.34
 30
0.0
 11
4995.250000000002
 21
2171.056
 31
0.0
  0
LINE
  5
1016
330
1E
100
AcDbEntity
  8
2
  6
Continuous
 62
     7
370
    13
100
AcDbLine
 10
4935.242
 20
1952.610000000001
 30
0.0
 11
4935.242
 21
1966.095999999999
 31
0.0
  0
LINE
  5
1017
330
1E
100
AcDbEntity
  8
2
  6
Continuous
 62
     7
370
    13
100
AcDbLine
 10
4935.242
 20
1952.610000000001
 30
0.0
 11
4979.956
 21
1907.896
 31
0.0
  0
LINE
  5
1018
330
1E
100
AcDbEntity
  8
2
  6
Continuous
 62
     7
370
    13
100
AcDbLine
 10
4979.956
 20
1907.896
 30
0.0
 11
4994.918
 21
1907.896
 31
0.0
  0
TEXT
  5
1019
330
1E
100
AcDbEntity
  8
2
  6
Continuous
 62
     7
370
    13
100
AcDbText
 10
3524.634000000001
 20
1073.734000000004
 30
0.0
 40
64.0
  1
SD295A
  7
BIGFONT
100
AcDbText
  0
TEXT
  5
101A
330
1E
100
AcDbEntity
  8
2
  6
Continuous
 62
     7
370
    13
100
AcDbText
 10
3523.467999999999
 20
937.3180000000047
 30
0.0
 40
64.0
  1
Ｆc300
  7
BIGFONT
100
AcDbText
  0
TEXT
  5
101B
330
1E
100
AcDbEntity
  8
2
  6
Continuous
 62
     7
370
    13
100
AcDbText
 10
3534.537999999999
 20
790.0180000000037
 30
0.0
 40
64.0
  1
W1/2×38
  7
BIGFONT
100
AcDbText
  0
TEXT
  5
101C
330
1E
100
AcDbEntity
  8
2
  6
Continuous
 62
     7
370
    13
100
AcDbText
 10
3524.799999999999
 20
649.6660000000047
 30
0.0
 40
64.0
  1
SS400
  7
BIGFONT
100
AcDbText
  0
TEXT
  5
101D
330
1E
100
AcDbEntity
  8
2
  6
Continuous
 62
     7
370
    13
100
AcDbText
 10
4896.747999999995
 20
936.8400000000056
 30
0.0
 40
60.0
  1
kg/コ
 41
0.7
  7
BIGFONT
100
AcDbText
  0
LINE
  5
101E
330
1E
100
AcDbEntity
  8
2
  6
Continuous
 62
     7
370
    13
100
AcDbLine
 10
9753.858000000002
 20
1285.394
 30
0.0
 11
9753.858000000002
 21
2765.394000000001
 31
0.0
  0
LINE
  5
101F
330
1E
100
AcDbEntity
  8
2
  6
Continuous
 62
     7
370
    13
100
AcDbLine
 10
9973.858000000003
 20
1285.394
 30
0.0
 11
9973.858000000003
 21
2765.394000000001
 31
0.0
  0
LINE
  5
1020
330
1E
100
AcDbEntity
  8
2
  6
Continuous
 62
     7
370
    13
100
AcDbLine
 10
10693.85799999999
 20
1285.394
 30
0.0
 11
10693.85799999999
 21
2765.394000000001
 31
0.0
  0
LINE
  5
1021
330
1E
100
AcDbEntity
  8
2
  6
Continuous
 62
     7
370
    13
100
AcDbLine
 10
8573.858000000003
 20
2845.394000000001
 30
0.0
 11
10693.85799999999
 21
2845.394000000001
 31
0.0
  0
LINE
  5
1022
330
1E
100
AcDbEntity
  8
2
  6
Continuous
 62
     7
370
    13
100
AcDbLine
 10
8573.858000000003
 20
2965.394
 30
0.0
 11
10693.85799999999
 21
2965.394
 31
0.0
  0
LINE
  5
1023
330
1E
100
AcDbEntity
  8
2
  6
Continuous
 62
     7
370
    13
100
AcDbLine
 10
8573.858000000003
 20
3115.394
 30
0.0
 11
10693.85799999999
 21
3115.394
 31
0.0
  0
LINE
  5
1024
330
1E
100
AcDbEntity
  8
2
  6
Continuous
 62
     7
370
    13
100
AcDbLine
 10
8573.858000000003
 20
2605.394
 30
0.0
 11
10693.85799999999
 21
2605.394
 31
0.0
  0
LINE
  5
1025
330
1E
100
AcDbEntity
  8
2
  6
Continuous
 62
     7
370
    13
100
AcDbLine
 10
8573.858000000003
 20
2485.393999999998
 30
0.0
 11
10693.85799999999
 21
2485.393999999998
 31
0.0
  0
LINE
  5
1026
330
1E
100
AcDbEntity
  8
2
  6
Continuous
 62
     7
370
    13
100
AcDbLine
 10
8573.858000000003
 20
2365.393999999998
 30
0.0
 11
10693.85799999999
 21
2365.393999999998
 31
0.0
  0
LINE
  5
1027
330
1E
100
AcDbEntity
  8
2
  6
Continuous
 62
     7
370
    13
100
AcDbLine
 10
8573.858000000003
 20
2245.394000000001
 30
0.0
 11
10693.85799999999
 21
2245.394000000001
 31
0.0
  0
LINE
  5
1028
330
1E
100
AcDbEntity
  8
2
  6
Continuous
 62
     7
370
    13
100
AcDbLine
 10
8573.858000000003
 20
2125.394
 30
0.0
 11
10693.85799999999
 21
2125.394
 31
0.0
  0
LINE
  5
1029
330
1E
100
AcDbEntity
  8
2
  6
Continuous
 62
     7
370
    13
100
AcDbLine
 10
8573.858000000003
 20
2005.393999999999
 30
0.0
 11
10693.85799999999
 21
2005.393999999999
 31
0.0
  0
LINE
  5
102A
330
1E
100
AcDbEntity
  8
2
  6
Continuous
 62
     7
370
    13
100
AcDbLine
 10
8573.858000000003
 20
1765.394
 30
0.0
 11
10693.85799999999
 21
1765.394
 31
0.0
  0
LINE
  5
102B
330
1E
100
AcDbEntity
  8
2
  6
Continuous
 62
     7
370
    13
100
AcDbLine
 10
8573.858000000003
 20
1645.394
 30
0.0
 11
10693.85799999999
 21
1645.394
 31
0.0
  0
LINE
  5
102C
330
1E
100
AcDbEntity
  8
2
  6
Continuous
 62
     7
370
    13
100
AcDbLine
 10
8573.858000000003
 20
1285.394
 30
0.0
 11
10693.85799999999
 21
1285.394
 31
0.0
  0
LINE
  5
102D
330
1E
100
AcDbEntity
  8
2
  6
Continuous
 62
     7
370
    13
100
AcDbLine
 10
8573.858000000003
 20
2725.394
 30
0.0
 11
10693.85799999999
 21
2725.394
 31
0.0
  0
TEXT
  5
102E
330
1E
100
AcDbEntity
  8
2
  6
Continuous
 62
     7
370
    13
100
AcDbText
 10
8639.63
 20
3179.83
 30
0.0
 40
90.0
  1
設計条件
  7
BIGFONT
100
AcDbText
  0
LINE
  5
102F
330
1E
100
AcDbEntity
  8
2
  6
Continuous
 62
     7
370
    13
100
AcDbLine
 10
8579.841999999999
 20
3159.742
 30
0.0
 11
9223.774
 21
3159.742
 31
0.0
  0
TEXT
  5
1030
330
1E
100
AcDbEntity
  8
2
  6
Continuous
 62
     7
370
    13
100
AcDbText
 10
8614.716000000003
 20
2864.451999999999
 30
0.0
 40
75.99999999999996
  1
擁壁高
  7
BIGFONT
100
AcDbText
  0
TEXT
  5
1031
330
1E
100
AcDbEntity
  8
2
  6
Continuous
 62
     7
370
    13
100
AcDbText
 10
8616.127999999999
 20
2745.216
 30
0.0
 40
75.99999999999996
  1
盛土高
  7
BIGFONT
100
AcDbText
  0
TEXT
  5
1032
330
1E
100
AcDbEntity
  8
2
  6
Continuous
 62
     7
370
    13
100
AcDbText
 10
8617.210000000001
 20
2625.228000000001
 30
0.0
 40
75.99999999999996
  1
盛土こう配
  7
BIGFONT
100
AcDbText
  0
TEXT
  5
1033
330
1E
100
AcDbEntity
  8
2
  6
Continuous
 62
     7
370
    13
100
AcDbText
 10
8616.061999999999
 20
2265.321999999998
 30
0.0
 40
75.99999999999996
  1
載荷重
  7
BIGFONT
100
AcDbText
  0
TEXT
  5
1034
330
1E
100
AcDbEntity
  8
2
  6
Continuous
 62
     7
370
    13
100
AcDbText
 10
8613.859999999995
 20
2142.861999999999
 30
0.0
 40
75.99999999999996
  1
土圧
  7
BIGFONT
100
AcDbText
  0
TEXT
  5
1035
330
1E
100
AcDbEntity
  8
2
  6
Continuous
 62
     7
370
    13
100
AcDbText
 10
8616.690000000001
 20
2024.143999999998
 30
0.0
 40
75.99999999999996
  1
設計震度
  7
BIGFONT
100
AcDbText
  0
LINE
  5
1036
330
1E
100
AcDbEntity
  8
2
  6
Continuous
 62
     7
370
    13
100
AcDbLine
 10
9084.562
 20
1765.394
 30
0.0
 11
9084.562
 21
2005.393999999999
 31
0.0
  0
TEXT
  5
1037
330
1E
100
AcDbEntity
  8
2
  6
Continuous
 62
     7
370
    13
100
AcDbText
 10
8582.540000000003
 20
1849.367999999999
 30
0.0
 40
75.99999999999996
  1
単位体積重量
 41
0.9473684
  7
BIGFONT
100
AcDbText
  0
TEXT
  5
1038
330
1E
100
AcDbEntity
  8
2
  6
Continuous
 62
     7
370
    13
100
AcDbText
 10
9114.994000000001
 20
1783.876000000002
 30
0.0
 40
75.99999999999996
  1
鉄筋コンクリート
 41
0.9
  7
BIGFONT
100
AcDbText
  0
LINE
  5
1039
330
1E
100
AcDbEntity
  8
2
  6
Continuous
 62
     7
370
    13
100
AcDbLine
 10
8573.858000000003
 20
1285.394
 30
0.0
 11
8573.858000000003
 21
1870.268
 31
0.0
  0
LINE
  5
103A
330
1E
100
AcDbEntity
  8
2
  6
Continuous
 62
     7
370
    13
100
AcDbLine
 10
8573.858000000003
 20
1870.268
 30
0.0
 11
8573.858000000003
 21
1904.370000000001
 31
0.0
  0
LINE
  5
103B
330
1E
100
AcDbEntity
  8
2
  6
Continuous
 62
     7
370
    13
100
AcDbLine
 10
8573.858000000003
 20
1904.370000000001
 30
0.0
 11
8573.858000000003
 21
2765.394000000001
 31
0.0
  0
LINE
  5
103C
330
1E
100
AcDbEntity
  8
2
  6
Continuous
 62
     7
370
    13
100
AcDbLine
 10
9084.646000000002
 20
1885.394
 30
0.0
 11
10693.85799999999
 21
1885.394
 31
0.0
  0
TEXT
  5
103D
330
1E
100
AcDbEntity
  8
2
  6
Continuous
 62
     7
370
    13
100
AcDbText
 10
9111.893999999997
 20
1902.675999999999
 30
0.0
 40
75.99999999999996
  1
土砂
  7
BIGFONT
100
AcDbText
  0
TEXT
  5
103E
330
1E
100
AcDbEntity
  8
2
  6
Continuous
 62
     7
370
    13
100
AcDbText
 10
8608.623999999997
 20
1668.175999999999
 30
0.0
 40
75.99999999999996
  1
コンクリート設計基準強度
  7
BIGFONT
100
AcDbText
  0
TEXT
  5
103F
330
1E
100
AcDbEntity
  8
2
  6
Continuous
 62
     7
370
    13
100
AcDbText
 10
8615.719999999999
 20
1637.961999999999
 30
0.0
 40
72.0
  1
許容応力度
 50
270.0
 41
0.8
  7
BIGFONT
100
AcDbText
  0
LINE
  5
1040
330
1E
100
AcDbEntity
  8
2
  6
Continuous
 62
     7
370
    13
100
AcDbLine
 10
8724.574000000002
 20
1525.394
 30
0.0
 11
10693.85799999999
 21
1525.394
 31
0.0
  0
LINE
  5
1041
330
1E
100
AcDbEntity
  8
2
  6
Continuous
 62
     7
370
    13
100
AcDbLine
 10
8724.574000000002
 20
1405.394000000002
 30
0.0
 11
10693.85799999999
 21
1405.394000000002
 31
0.0
  0
LINE
  5
1042
330
1E
100
AcDbEntity
  8
2
  6
Continuous
 62
     7
370
    13
100
AcDbLine
 10
8724.574000000002
 20
1285.394
 30
0.0
 11
8724.574000000002
 21
1645.394
 31
0.0
  0
TEXT
  5
1043
330
1E
100
AcDbEntity
  8
2
  6
Continuous
 62
     7
370
    13
100
AcDbText
 10
8771.663999999999
 20
1548.791999999997
 30
0.0
 40
75.99999999999996
  1
コンクリート圧縮応力度
 41
0.85
  7
BIGFONT
100
AcDbText
  0
TEXT
  5
1044
330
1E
100
AcDbEntity
  8
2
  6
Continuous
 62
     7
370
    13
100
AcDbText
 10
8772.896000000002
 20
1419.894000000002
 30
0.0
 40
75.99999999999996
  1
コンクリートせん断応力度
 41
0.85
  7
BIGFONT
100
AcDbText
  0
TEXT
  5
1045
330
1E
100
AcDbEntity
  8
2
  6
Continuous
 62
     7
370
    13
100
AcDbText
 10
8780.766000000001
 20
1304.044000000002
 30
0.0
 40
75.99999999999996
  1
鉄筋引張応力度
 41
0.9473684
  7
BIGFONT
100
AcDbText
  0
LINE
  5
1046
330
1E
100
AcDbEntity
  8
2
  6
Continuous
 62
     7
370
    13
100
AcDbLine
 10
9753.858000000002
 20
2765.394000000001
 30
0.0
 11
9753.858000000002
 21
3115.394
 31
0.0
  0
LINE
  5
1047
330
1E
100
AcDbEntity
  8
2
  6
Continuous
 62
     7
370
    13
100
AcDbLine
 10
9973.858000000003
 20
2765.394000000001
 30
0.0
 11
9973.858000000003
 21
3115.394
 31
0.0
  0
LINE
  5
1048
330
1E
100
AcDbEntity
  8
2
  6
Continuous
 62
     7
370
    13
100
AcDbLine
 10
10693.85799999999
 20
2765.394000000001
 30
0.0
 11
10693.85799999999
 21
3115.394
 31
0.0
  0
LINE
  5
1049
330
1E
100
AcDbEntity
  8
2
  6
Continuous
 62
     7
370
    13
100
AcDbLine
 10
8573.858000000003
 20
2765.394000000001
 30
0.0
 11
8573.858000000003
 21
3115.394
 31
0.0
  0
TEXT
  5
104A
330
1E
100
AcDbEntity
  8
2
  6
Continuous
 62
     7
370
    13
100
AcDbText
 10
8957.579999999996
 20
2998.261999999999
 30
0.0
 40
80.0
  1
項目
  7
BIGFONT
100
AcDbText
  0
TEXT
  5
104B
330
1E
100
AcDbEntity
  8
2
  6
Continuous
 62
     7
370
    13
100
AcDbText
 10
9768.120000000001
 20
2996.315999999999
 30
0.0
 40
80.0
  1
単位
  7
BIGFONT
100
AcDbText
  0
TEXT
  5
104C
330
1E
100
AcDbEntity
  8
2
  6
Continuous
 62
     7
370
    13
100
AcDbText
 10
10396.70599999999
 20
2992.413999999999
 30
0.0
 40
80.0
  1
短期
  7
BIGFONT
100
AcDbText
  0
TEXT
  5
104D
330
1E
100
AcDbEntity
  8
2
  6
Continuous
 62
     7
370
    13
100
AcDbText
 10
10033.46799999999
 20
2992.469999999999
 30
0.0
 40
80.0
  1
長期
  7
BIGFONT
100
AcDbText
  0
TEXT
  5
104E
330
1E
100
AcDbEntity
  8
2
  6
Continuous
 62
     7
370
    13
100
AcDbText
 10
9836.522000000007
 20
2879.796000000001
 30
0.0
 40
60.0
  1
ｍ
  7
BIGFONT
100
AcDbText
  0
TEXT
  5
104F
330
1E
100
AcDbEntity
  8
2
  6
Continuous
 62
     7
370
    13
100
AcDbText
 10
9836.522000000007
 20
2759.796000000001
 30
0.0
 40
60.0
  1
ｍ
  7
BIGFONT
100
AcDbText
  0
TEXT
  5
1050
330
1E
100
AcDbEntity
  8
2
  6
Continuous
 62
     7
370
    13
100
AcDbText
 10
9792.65564496811
 20
1669.276
 30
0.0
 40
50.0
  1
N/mm
 41
0.7
  7
BIGFONT
100
AcDbText
  0
TEXT
  5
1051
330
1E
100
AcDbEntity
  8
2
  6
Continuous
 62
     7
370
    13
100
AcDbText
 10
9924.398073276421
 20
1705.111999999999
 30
0.0
 40
26.0
  1
２
  7
BIGFONT
100
AcDbText
  0
TEXT
  5
1052
330
1E
100
AcDbEntity
  8
2
  6
Continuous
 62
     7
370
    13
100
AcDbText
 10
9923.370769180134
 20
1818.749999999996
 30
0.0
 40
26.0
  1
３
  7
BIGFONT
100
AcDbText
  0
TEXT
  5
1053
330
1E
100
AcDbEntity
  8
2
  6
Continuous
 62
     7
370
    13
100
AcDbText
 10
9923.370769180134
 20
1938.749999999998
 30
0.0
 40
26.0
  1
３
  7
BIGFONT
100
AcDbText
  0
TEXT
  5
1054
330
1E
100
AcDbEntity
  8
2
  6
Continuous
 62
     7
370
    13
100
AcDbText
 10
9789.465274411998
 20
2269.83
 30
0.0
 40
50.0
  1
kN/m
 41
0.7
  7
BIGFONT
100
AcDbText
  0
LINE
  5
1055
330
1E
100
AcDbEntity
  8
2
  6
Continuous
 62
     7
370
    13
100
AcDbLine
 10
10333.85799999999
 20
2965.394
 30
0.0
 11
10333.85799999999
 21
3115.394
 31
0.0
  0
LINE
  5
1056
330
1E
100
AcDbEntity
  8
2
  6
Continuous
 62
     7
370
    13
100
AcDbLine
 10
10333.85799999999
 20
1285.394
 30
0.0
 11
10333.85799999999
 21
1645.394
 31
0.0
  0
LINE
  5
1057
330
1E
100
AcDbEntity
  8
2
  6
Continuous
 62
     7
370
    13
100
AcDbLine
 10
10248.436
 20
2785.394
 30
0.0
 11
10416.87199999999
 21
2785.394
 31
0.0
  0
TEXT
  5
1058
330
1E
100
AcDbEntity
  8
2
  6
Continuous
 62
     7
370
    13
100
AcDbText
 10
10238.54
 20
2624.539999999999
 30
0.0
 40
75.99999999999996
  1
水平
  7
BIGFONT
100
AcDbText
  0
TEXT
  5
1059
330
1E
100
AcDbEntity
  8
2
  6
Continuous
 62
     7
370
    13
100
AcDbText
 10
10055.946
 20
2497.102000000001
 30
0.0
 40
75.99999999999996
  1
シルト，粘性土
  7
BIGFONT
100
AcDbText
  0
TEXT
  5
105A
330
1E
100
AcDbEntity
  8
2
  6
Continuous
 62
     7
370
    13
100
AcDbText
 10
10167.934
 20
2394.65
 30
0.0
 40
64.0
  1
φ≧
  7
BIGFONT
100
AcDbText
  0
TEXT
  5
105B
330
1E
100
AcDbEntity
  8
2
  6
Continuous
 62
     7
370
    13
100
AcDbText
 10
10242.006
 20
2263.405999999999
 30
0.0
 40
64.0
  1
＝
  7
BIGFONT
100
AcDbText
  0
TEXT
  5
105C
330
1E
100
AcDbEntity
  8
2
  6
Continuous
 62
     7
370
    13
100
AcDbText
 10
10170.01599999999
 20
2276.956
 30
0.0
 40
64.0
  1
ｑ
  7
BIGFONT
100
AcDbText
  0
TEXT
  5
105D
330
1E
100
AcDbEntity
  8
2
  6
Continuous
 62
     7
370
    13
100
AcDbText
 10
10311.042
 20
2395.336000000001
 30
0.0
 40
64.0
  1
25
  7
BIGFONT
100
AcDbText
  0
TEXT
  5
105E
330
1E
100
AcDbEntity
  8
2
  6
Continuous
 62
     7
370
    13
100
AcDbText
 10
10365.2
 20
2269.939999999997
 30
0.0
 40
64.0
  1
10
  7
BIGFONT
100
AcDbText
  0
TEXT
  5
105F
330
1E
100
AcDbEntity
  8
2
  6
Continuous
 62
     7
370
    13
100
AcDbText
 10
10364.702
 20
2026.036
 30
0.0
 40
64.0
  1
0.20
  7
BIGFONT
100
AcDbText
  0
TEXT
  5
1060
330
1E
100
AcDbEntity
  8
2
  6
Continuous
 62
     7
370
    13
100
AcDbText
 10
10241.834
 20
2027.853999999999
 30
0.0
 40
64.0
  1
＝
  7
BIGFONT
100
AcDbText
  0
TEXT
  5
1061
330
1E
100
AcDbEntity
  8
2
  6
Continuous
 62
     7
370
    13
100
AcDbText
 10
10130.914
 20
2027.172000000001
 30
0.0
 40
64.0
  1
Ｋ
  7
BIGFONT
100
AcDbText
  0
TEXT
  5
1062
330
1E
100
AcDbEntity
  8
2
  6
Continuous
 62
     7
370
    13
100
AcDbText
 10
10184.32
 20
2029.485999999999
 30
0.0
 40
40.0
  1
Ｈ
  7
BIGFONT
100
AcDbText
  0
TEXT
  5
1063
330
1E
100
AcDbEntity
  8
2
  6
Continuous
 62
     7
370
    13
100
AcDbText
 10
10048.274
 20
2144.356
 30
0.0
 40
72.0
  1
クーロン土圧式
  7
BIGFONT
100
AcDbText
  0
TEXT
  5
1064
330
1E
100
AcDbEntity
  8
2
  6
Continuous
 62
     7
370
    13
100
AcDbText
 10
10255.08399999999
 20
1899.732
 30
0.0
 40
64.0
  1
18
  7
BIGFONT
100
AcDbText
  0
TEXT
  5
1065
330
1E
100
AcDbEntity
  8
2
  6
Continuous
 62
     7
370
    13
100
AcDbText
 10
10254.892
 20
1789.246000000003
 30
0.0
 40
64.0
  1
24
  7
BIGFONT
100
AcDbText
  0
TEXT
  5
1066
330
1E
100
AcDbEntity
  8
2
  6
Continuous
 62
     7
370
    13
100
AcDbText
 10
10455.55399999999
 20
1545.515999999999
 30
0.0
 40
64.0
  1
20.0
  7
BIGFONT
100
AcDbText
  0
TEXT
  5
1067
330
1E
100
AcDbEntity
  8
2
  6
Continuous
 62
     7
370
    13
100
AcDbText
 10
10089.054
 20
1545.450000000002
 30
0.0
 40
64.0
  1
10.0
  7
BIGFONT
100
AcDbText
  0
TEXT
  5
1068
330
1E
100
AcDbEntity
  8
2
  6
Continuous
 62
     7
370
    13
100
AcDbText
 10
10132.18441888257
 20
1425.646
 30
0.0
 40
64.0
  1
0.8
  7
BIGFONT
100
AcDbText
  0
TEXT
  5
1069
330
1E
100
AcDbEntity
  8
2
  6
Continuous
 62
     7
370
    13
100
AcDbText
 10
10067.70672454175
 20
1305.7
 30
0.0
 40
64.0
  1
200
  7
BIGFONT
100
AcDbText
  0
TEXT
  5
106A
330
1E
100
AcDbEntity
  8
2
  6
Continuous
 62
     7
370
    13
100
AcDbText
 10
10455.88980980227
 20
1305.34
 30
0.0
 40
64.0
  1
295
  7
BIGFONT
100
AcDbText
  0
TEXT
  5
106B
330
1E
100
AcDbEntity
  8
2
  6
Continuous
 62
     7
370
    13
100
AcDbText
 10
10530.6429532266
 20
1425.566
 30
0.0
 40
64.0
  1
1.2
  7
BIGFONT
100
AcDbText
  0
TEXT
  5
106C
330
1E
100
AcDbEntity
  8
2
  6
Continuous
 62
     7
370
    13
100
AcDbText
 10
10239.074
 20
1665.946000000001
 30
0.0
 40
64.0
  1
30.0
  7
BIGFONT
100
AcDbText
  0
TEXT
  5
106D
330
1E
100
AcDbEntity
  8
2
  6
Continuous
 62
     7
370
    13
100
AcDbText
 10
9918.343867553364
 20
2300.135999999999
 30
0.0
 40
26.0
  1
２
  7
BIGFONT
100
AcDbText
  0
TEXT
  5
106E
330
1E
100
AcDbEntity
  8
2
  6
Continuous
 62
     7
370
    13
100
AcDbText
 10
8617.206000000001
 20
2500.414000000001
 30
0.0
 40
75.99999999999996
  1
裏込め土の種類
  7
BIGFONT
100
AcDbText
  0
TEXT
  5
106F
330
1E
100
AcDbEntity
  8
2
  6
Continuous
 62
     7
370
    13
100
AcDbText
 10
8617.443999999997
 20
2379.528
 30
0.0
 40
75.99999999999996
  1
裏込め土の内部摩擦角
  7
BIGFONT
100
AcDbText
  0
LINE
  5
1070
330
1E
100
AcDbEntity
  8
2
  6
Continuous
 62
     7
370
    13
100
AcDbLine
 10
5119.095999999999
 20
617.2900000000026
 30
0.0
 11
5119.095999999999
 21
1516.658000000003
 31
0.0
  0
LINE
  5
1071
330
1E
100
AcDbEntity
  8
2
  6
Continuous
 62
     7
370
    13
100
AcDbLine
 10
2899.096
 20
617.2900000000026
 30
0.0
 11
2899.096
 21
1516.658000000003
 31
0.0
  0
TEXT
  5
1072
330
1E
100
AcDbEntity
  8
2
  6
Continuous
 62
     7
370
    13
100
AcDbText
 10
3509.884032578641
 20
2379.546
 30
0.0
 40
64.0
  1
190
  7
BIGFONT
100
AcDbText
  0
TEXT
  5
1073
330
1E
100
AcDbEntity
  8
2
  6
Continuous
 62
     7
370
    13
100
AcDbText
 10
3798.57
 20
1899.550000000001
 30
0.0
 40
64.0
  1
8
  7
BIGFONT
100
AcDbText
  0
TEXT
  5
1074
330
1E
100
AcDbEntity
  8
2
  6
Continuous
 62
     7
370
    13
100
AcDbText
 10
3455.006880075269
 20
1779.646
 30
0.0
 40
64.0
  1
1900
  7
BIGFONT
100
AcDbText
  0
LINE
  5
1075
330
1E
100
AcDbEntity
  8
2
  6
Continuous
 62
     7
370
    13
100
AcDbLine
 10
4948.409999999999
 20
2054.237999999998
 30
0.0
 11
4982.409999999998
 21
2054.237999999998
 31
0.0
  0
LINE
  5
1076
330
1E
100
AcDbEntity
  8
2
  6
Continuous
 62
     7
370
    13
100
AcDbLine
 10
4896.316000000001
 20
1815.394
 30
0.0
 11
5051.191999999997
 21
1815.394
 31
0.0
  0
TEXT
  5
1077
330
1E
100
AcDbEntity
  8
2
  6
Continuous
 62
     7
370
    13
100
AcDbText
 10
3160.280000000003
 20
2379.433999999999
 30
0.0
 40
64.0
  1
D10
  7
BIGFONT
100
AcDbText
  0
TEXT
  5
1078
330
1E
100
AcDbEntity
  8
2
  6
Continuous
 62
     7
370
    13
100
AcDbText
 10
3160.280000000003
 20
2499.433999999999
 30
0.0
 40
64.0
  1
D10
  7
BIGFONT
100
AcDbText
  0
TEXT
  5
1079
330
1E
100
AcDbEntity
  8
2
  6
Continuous
 62
     7
370
    13
100
AcDbText
 10
3160.280000000003
 20
2619.434
 30
0.0
 40
64.0
  1
D10
  7
BIGFONT
100
AcDbText
  0
TEXT
  5
107A
330
1E
100
AcDbEntity
  8
2
  6
Continuous
 62
     7
370
    13
100
AcDbText
 10
3160.280000000003
 20
2139.433999999999
 30
0.0
 40
64.0
  1
D10
  7
BIGFONT
100
AcDbText
  0
TEXT
  5
107B
330
1E
100
AcDbEntity
  8
2
  6
Continuous
 62
     7
370
    13
100
AcDbText
 10
3160.280000000003
 20
2019.433999999999
 30
0.0
 40
64.0
  1
D10
  7
BIGFONT
100
AcDbText
  0
TEXT
  5
107C
330
1E
100
AcDbEntity
  8
2
  6
Continuous
 62
     7
370
    13
100
AcDbText
 10
3160.280000000003
 20
1899.433999999999
 30
0.0
 40
64.0
  1
D10
  7
BIGFONT
100
AcDbText
  0
TEXT
  5
107D
330
1E
100
AcDbEntity
  8
2
  6
Continuous
 62
     7
370
    13
100
AcDbText
 10
3160.280000000003
 20
1779.433999999999
 30
0.0
 40
64.0
  1
D10
  7
BIGFONT
100
AcDbText
  0
TEXT
  5
107E
330
1E
100
AcDbEntity
  8
2
  6
Continuous
 62
     7
370
    13
100
AcDbText
 10
4030.941999999998
 20
1779.693999999999
 30
0.0
 40
64.0
  1
0.560
  7
BIGFONT
100
AcDbText
  0
TEXT
  5
107F
330
1E
100
AcDbEntity
  8
2
  6
Continuous
 62
     7
370
    13
100
AcDbText
 10
4030.941999999998
 20
1899.693999999999
 30
0.0
 40
64.0
  1
0.560
  7
BIGFONT
100
AcDbText
  0
TEXT
  5
1080
330
1E
100
AcDbEntity
  8
2
  6
Continuous
 62
     7
370
    13
100
AcDbText
 10
4030.941999999998
 20
2019.693999999999
 30
0.0
 40
64.0
  1
0.560
  7
BIGFONT
100
AcDbText
  0
TEXT
  5
1081
330
1E
100
AcDbEntity
  8
2
  6
Continuous
 62
     7
370
    13
100
AcDbText
 10
4030.941999999998
 20
2259.694
 30
0.0
 40
64.0
  1
0.560
  7
BIGFONT
100
AcDbText
  0
TEXT
  5
1082
330
1E
100
AcDbEntity
  8
2
  6
Continuous
 62
     7
370
    13
100
AcDbText
 10
4030.941999999998
 20
2379.694
 30
0.0
 40
64.0
  1
0.560
  7
BIGFONT
100
AcDbText
  0
TEXT
  5
1083
330
1E
100
AcDbEntity
  8
2
  6
Continuous
 62
     7
370
    13
100
AcDbText
 10
4030.941999999998
 20
2499.694
 30
0.0
 40
64.0
  1
0.560
  7
BIGFONT
100
AcDbText
  0
TEXT
  5
1084
330
1E
100
AcDbEntity
  8
2
  6
Continuous
 62
     7
370
    13
100
AcDbText
 10
4030.941999999998
 20
2619.693999999999
 30
0.0
 40
64.0
  1
0.560
  7
BIGFONT
100
AcDbText
  0
LINE
  5
1085
330
1E
100
AcDbEntity
  8
2
  6
Continuous
 62
     7
370
    13
100
AcDbLine
 10
4959.095999999999
 20
2627.894
 30
0.0
 11
4986.894000000003
 21
2627.894
 31
0.0
  0
LINE
  5
1086
330
1E
100
AcDbEntity
  8
2
  6
Continuous
 62
     7
370
    13
100
AcDbLine
 10
4959.095999999999
 20
2627.894
 30
0.0
 11
4959.095999999999
 21
2683.894
 31
0.0
  0
LINE
  5
1087
330
1E
100
AcDbEntity
  8
2
  6
Continuous
 62
     7
370
    13
100
AcDbLine
 10
4959.095999999999
 20
2507.894
 30
0.0
 11
4986.894000000003
 21
2507.894
 31
0.0
  0
LINE
  5
1088
330
1E
100
AcDbEntity
  8
2
  6
Continuous
 62
     7
370
    13
100
AcDbLine
 10
4959.095999999999
 20
2507.894
 30
0.0
 11
4959.095999999999
 21
2549.890000000001
 31
0.0
  0
TEXT
  5
1089
330
1E
100
AcDbEntity
  8
2
  6
Continuous
 62
     7
370
    13
100
AcDbText
 10
4030.941999999998
 20
2139.694
 30
0.0
 40
64.0
  1
0.560
  7
BIGFONT
100
AcDbText
  0
LINE
  5
108A
330
1E
100
AcDbEntity
  8
2
  6
Continuous
 62
     7
370
    13
100
AcDbLine
 10
5119.095999999999
 20
1516.658000000003
 30
0.0
 11
5119.095999999999
 21
3115.394
 31
0.0
  0
LINE
  5
108B
330
1E
100
AcDbEntity
  8
2
  6
Continuous
 62
     7
370
    13
100
AcDbLine
 10
4819.095999999998
 20
1516.658000000003
 30
0.0
 11
4819.095999999998
 21
2596.928
 31
0.0
  0
LINE
  5
108C
330
1E
100
AcDbEntity
  8
2
  6
Continuous
 62
     7
370
    13
100
AcDbLine
 10
4379.095999999997
 20
1516.658000000003
 30
0.0
 11
4379.095999999997
 21
2915.394
 31
0.0
  0
LINE
  5
108D
330
1E
100
AcDbEntity
  8
2
  6
Continuous
 62
     7
370
    13
100
AcDbLine
 10
3939.096
 20
1516.658000000003
 30
0.0
 11
3939.096
 21
2915.394
 31
0.0
  0
LINE
  5
108E
330
1E
100
AcDbEntity
  8
2
  6
Continuous
 62
     7
370
    13
100
AcDbLine
 10
3719.095999999998
 20
1516.658000000003
 30
0.0
 11
3719.095999999998
 21
2915.394
 31
0.0
  0
LINE
  5
108F
330
1E
100
AcDbEntity
  8
2
  6
Continuous
 62
     7
370
    13
100
AcDbLine
 10
3359.095999999996
 20
1516.658000000003
 30
0.0
 11
3359.095999999998
 21
2915.394
 31
0.0
  0
LINE
  5
1090
330
1E
100
AcDbEntity
  8
2
  6
Continuous
 62
     7
370
    13
100
AcDbLine
 10
3119.096000000002
 20
1516.658000000003
 30
0.0
 11
3119.096000000002
 21
2715.394
 31
0.0
  0
LINE
  5
1091
330
1E
100
AcDbEntity
  8
2
  6
Continuous
 62
     7
370
    13
100
AcDbLine
 10
2899.096
 20
1516.658000000003
 30
0.0
 11
2899.096
 21
2715.394
 31
0.0
  0
TEXT
  5
1092
330
1E
100
AcDbEntity
  8
2
  6
Continuous
 62
     7
370
    13
100
AcDbText
 10
3466.435562023156
 20
2618.986000000001
 30
0.0
 40
64.0
  1
1120
  7
BIGFONT
100
AcDbText
  0
TEXT
  5
1093
330
1E
100
AcDbEntity
  8
2
  6
Continuous
 62
     7
370
    13
100
AcDbText
 10
3487.998
 20
2499.918
 30
0.0
 40
64.0
  1
760
  7
BIGFONT
100
AcDbText
  0
TEXT
  5
1094
330
1E
100
AcDbEntity
  8
2
  6
Continuous
 62
     7
370
    13
100
AcDbText
 10
3487.624
 20
2259.843999999999
 30
0.0
 40
64.0
  1
730
  7
BIGFONT
100
AcDbText
  0
TEXT
  5
1095
330
1E
100
AcDbEntity
  8
2
  6
Continuous
 62
     7
370
    13
100
AcDbText
 10
3487.725999999998
 20
2139.925999999999
 30
0.0
 40
64.0
  1
320
  7
BIGFONT
100
AcDbText
  0
TEXT
  5
1096
330
1E
100
AcDbEntity
  8
2
  6
Continuous
 62
     7
370
    13
100
AcDbText
 10
3497.728027479833
 20
2019.736000000001
 30
0.0
 40
64.0
  1
200
  7
BIGFONT
100
AcDbText
  0
TEXT
  5
1097
330
1E
100
AcDbEntity
  8
2
  6
Continuous
 62
     7
370
    13
100
AcDbText
 10
3488.046000000001
 20
1899.773999999999
 30
0.0
 40
64.0
  1
320
  7
BIGFONT
100
AcDbText
  0
TEXT
  5
1098
330
1E
100
AcDbEntity
  8
2
  6
Continuous
 62
     7
370
    13
100
AcDbText
 10
3799.963999999999
 20
1779.812
 30
0.0
 40
64.0
  1
9
  7
BIGFONT
100
AcDbText
  0
TEXT
  5
1099
330
1E
100
AcDbEntity
  8
2
  6
Continuous
 62
     7
370
    13
100
AcDbText
 10
3799.725999999999
 20
2259.626
 30
0.0
 40
64.0
  1
8
  7
BIGFONT
100
AcDbText
  0
TEXT
  5
109A
330
1E
100
AcDbEntity
  8
2
  6
Continuous
 62
     7
370
    13
100
AcDbText
 10
3799.725999999999
 20
2619.626
 30
0.0
 40
64.0
  1
8
  7
BIGFONT
100
AcDbText
  0
TEXT
  5
109B
330
1E
100
AcDbEntity
  8
2
  6
Continuous
 62
     7
370
    13
100
AcDbText
 10
4506.68
 20
2619.614
 30
0.0
 40
64.0
  1
5.02
  7
BIGFONT
100
AcDbText
  0
TEXT
  5
109C
330
1E
100
AcDbEntity
  8
2
  6
Continuous
 62
     7
370
    13
100
AcDbText
 10
4506.979999999999
 20
2499.617999999999
 30
0.0
 40
64.0
  1
0.85
  7
BIGFONT
100
AcDbText
  0
TEXT
  5
109D
330
1E
100
AcDbEntity
  8
2
  6
Continuous
 62
     7
370
    13
100
AcDbText
 10
4506.953999999998
 20
2379.598
 30
0.0
 40
64.0
  1
0.21
  7
BIGFONT
100
AcDbText
  0
TEXT
  5
109E
330
1E
100
AcDbEntity
  8
2
  6
Continuous
 62
     7
370
    13
100
AcDbText
 10
4506.724000000001
 20
2259.408000000001
 30
0.0
 40
64.0
  1
3.27
  7
BIGFONT
100
AcDbText
  0
TEXT
  5
109F
330
1E
100
AcDbEntity
  8
2
  6
Continuous
 62
     7
370
    13
100
AcDbText
 10
4506.776
 20
2139.876
 30
0.0
 40
64.0
  1
0.36
  7
BIGFONT
100
AcDbText
  0
TEXT
  5
10A0
330
1E
100
AcDbEntity
  8
2
  6
Continuous
 62
     7
370
    13
100
AcDbText
 10
4507.655999999999
 20
2019.802
 30
0.0
 40
64.0
  1
0.22
  7
BIGFONT
100
AcDbText
  0
TEXT
  5
10A1
330
1E
100
AcDbEntity
  8
2
  6
Continuous
 62
     7
370
    13
100
AcDbText
 10
4506.598
 20
1900.376
 30
0.0
 40
64.0
  1
1.43
  7
BIGFONT
100
AcDbText
  0
TEXT
  5
10A2
330
1E
100
AcDbEntity
  8
2
  6
Continuous
 62
     7
370
    13
100
AcDbText
 10
4506.511999999998
 20
1779.784000000001
 30
0.0
 40
64.0
  1
9.58
  7
BIGFONT
100
AcDbText
  0
TEXT
  5
10A3
330
1E
100
AcDbEntity
  8
2
  6
Continuous
 62
     7
370
    13
100
AcDbText
 10
4317.119999999999
 20
1073.514000000002
 30
0.0
 40
64.0
  1
22.10
  7
BIGFONT
100
AcDbText
  0
TEXT
  5
10A4
330
1E
100
AcDbEntity
  8
2
  6
Continuous
 62
     7
370
    13
100
AcDbText
 10
4317.079999999998
 20
935.2840000000032
 30
0.0
 40
64.0
  1
0.377
  7
BIGFONT
100
AcDbText
  0
TEXT
  5
10A5
330
1E
100
AcDbEntity
  8
2
  6
Continuous
 62
     7
370
    13
100
AcDbText
 10
4721.787999999999
 20
935.886000000004
 30
0.0
 40
64.0
  1
910
  7
BIGFONT
100
AcDbText
  0
TEXT
  5
10A6
330
1E
100
AcDbEntity
  8
2
  6
Continuous
 62
     7
370
    13
100
AcDbText
 10
10232.33599999999
 20
2874.91
 30
0.0
 40
64.0
  1
1.00
  7
BIGFONT
100
AcDbText
  0
LINE
  5
10A7
330
1E
100
AcDbEntity
  8
2
  6
Continuous
 62
     7
370
    13
100
AcDbLine
 10
4919.553999999998
 20
2294.556
 30
0.0
 11
4919.553999999998
 21
2308.042
 31
0.0
  0
LINE
  5
10A8
330
1E
100
AcDbEntity
  8
2
  6
Continuous
 62
     7
370
    13
100
AcDbLine
 10
4919.553999999998
 20
2294.556
 30
0.0
 11
5018.188000000003
 21
2287.657999999999
 31
0.0
  0
TEXT
  5
10A9
330
1E
100
AcDbEntity
  8
2
  6
Continuous
 62
     7
370
    13
100
AcDbText
 10
4412.247999999998
 20
789.1240000000034
 30
0.0
 40
64.0
  1
2
  7
BIGFONT
100
AcDbText
  0
TEXT
  5
10AA
330
1E
100
AcDbEntity
  8
2
  6
Continuous
 62
     7
370
    13
100
AcDbText
 10
4412.058
 20
650.8400000000055
 30
0.0
 40
64.0
  1
4
  7
BIGFONT
100
AcDbText
  0
LINE
  5
10AB
330
1E
100
AcDbEntity
  8
0
  6
Continuous
 62
     7
370
    13
100
AcDbLine
 10
1646.369000000001
 20
3266.695
 30
0.0
 11
1646.532999999999
 21
2997.726000000001
 31
0.0
  0
LINE
  5
10AC
330
1E
100
AcDbEntity
  8
0
  6
Continuous
 62
     7
370
    13
100
AcDbLine
 10
1640.0946
 20
3021.722200000001
 30
0.0
 11
1646.539999999999
 21
2997.726000000001
 31
0.0
  0
LINE
  5
10AD
330
1E
100
AcDbEntity
  8
0
  6
Continuous
 62
     7
370
    13
100
AcDbLine
 10
1646.539999999999
 20
2997.726000000001
 30
0.0
 11
1652.9562
 21
3021.73
 31
0.0
  0
LINE
  5
10AE
330
1E
100
AcDbEntity
  8
0
  6
Continuous
 62
     7
370
    13
100
AcDbLine
 10
1251.935999999999
 20
3266.695
 30
0.0
 11
1251.935999999999
 21
2997.726000000001
 31
0.0
  0
LINE
  5
10AF
330
1E
100
AcDbEntity
  8
0
  6
Continuous
 62
     7
370
    13
100
AcDbLine
 10
1245.509399999999
 20
3021.726000000001
 30
0.0
 11
1251.94
 21
2997.726000000001
 31
0.0
  0
LINE
  5
10B0
330
1E
100
AcDbEntity
  8
0
  6
Continuous
 62
     7
370
    13
100
AcDbLine
 10
1251.94
 20
2997.726000000001
 30
0.0
 11
1258.3708
 21
3021.726000000001
 31
0.0
  0
LINE
  5
10B1
330
1E
100
AcDbEntity
  8
0
  6
Continuous
 62
     7
370
    13
100
AcDbLine
 10
1138.306
 20
3266.695
 30
0.0
 11
1138.306
 21
2802.162
 31
0.0
  0
LINE
  5
10B2
330
1E
100
AcDbEntity
  8
0
  6
Continuous
 62
     7
370
    13
100
AcDbLine
 10
1131.889400000002
 20
2826.165999999999
 30
0.0
 11
1138.320000000001
 21
2802.166
 31
0.0
  0
LINE
  5
10B3
330
1E
100
AcDbEntity
  8
0
  6
Continuous
 62
     7
370
    13
100
AcDbLine
 10
1138.320000000001
 20
2802.166
 30
0.0
 11
1144.750799999999
 21
2826.165999999999
 31
0.0
  0
TEXT
  5
10B4
330
1E
100
AcDbEntity
  8
1
  6
Continuous
 62
     7
370
    13
100
AcDbText
 10
6426.863
 20
2540.047840556965
 30
0.0
 40
90.0
  1
鉄筋加工図
  7
BIGFONT
100
AcDbText
  0
LINE
  5
10B5
330
1E
100
AcDbEntity
  8
1
  6
Continuous
 62
     7
370
    13
100
AcDbLine
 10
6399.149
 20
2511.010440556964
 30
0.0
 11
7554.363999999996
 21
2511.010440556964
 31
0.0
  0
TEXT
  5
10B6
330
1E
100
AcDbEntity
  8
1
  6
Continuous
 62
     7
370
    13
100
AcDbText
 10
7087.620750008461
 20
2539.773840556966
 30
0.0
 40
64.0
  1
Ｓ＝１：４０
  7
BIGFONT
100
AcDbText
  0
CIRCLE
  5
10B7
330
1E
100
AcDbEntity
  8
1
  6
Continuous
 62
     7
370
    13
100
AcDbCircle
 10
6608.480400000002
 20
2197.613840556965
 30
0.0
 40
55.0
  0
TEXT
  5
10B8
330
1E
100
AcDbEntity
  8
1
  6
Continuous
 62
     7
370
    13
100
AcDbText
 10
6558.604399999999
 20
2159.946440556965
 30
0.0
 40
72.0
  1
Ｓ
  7
BIGFONT
100
AcDbText
  0
TEXT
  5
10B9
330
1E
100
AcDbEntity
  8
1
  6
Continuous
 62
     7
370
    13
100
AcDbText
 10
6614.803999999998
 20
2166.066840556965
 30
0.0
 40
40.0
  1
２
  7
BIGFONT
100
AcDbText
  0
LINE
  5
10BA
330
1E
100
AcDbEntity
  8
1
  6
Continuous
 62
     7
370
    13
100
AcDbLine
 10
7696.643999999999
 20
1615.946440556965
 30
0.0
 11
7701.494399999998
 21
1640.356840556966
 31
0.0
  0
LINE
  5
10BB
330
1E
100
AcDbEntity
  8
1
  6
Continuous
 62
     7
370
    13
100
AcDbLine
 10
7701.494399999998
 20
1640.356840556966
 30
0.0
 11
7710.3594
 21
1616.199440556966
 31
0.0
  0
LINE
  5
10BC
330
1E
100
AcDbEntity
  8
1
  6
Continuous
 62
     7
370
    13
100
AcDbLine
 10
7848.125999999999
 20
1468.472440556965
 30
0.0
 11
7872.780999999998
 21
1457.515440556966
 31
0.0
  0
LINE
  5
10BD
330
1E
100
AcDbEntity
  8
1
  6
Continuous
 62
     7
370
    13
100
AcDbLine
 10
7848.328400000001
 20
1454.352440556966
 30
0.0
 11
7872.780999999998
 21
1457.515440556966
 31
0.0
  0
LINE
  5
10BE
330
1E
100
AcDbEntity
  8
1
  6
Continuous
 62
     7
370
    13
100
AcDbLine
 10
7687.381400000001
 20
1680.356840556966
 30
0.0
 11
7852.533000000001
 21
1680.356840556966
 31
0.0
  0
LINE
  5
10BF
330
1E
100
AcDbEntity
  8
1
  6
Continuous
 62
     7
370
    13
100
AcDbLine
 10
7686.693399999999
 20
1640.356840556966
 30
0.0
 11
7884.795400000001
 21
1640.356840556966
 31
0.0
  0
LINE
  5
10C0
330
1E
100
AcDbEntity
  8
1
  6
Continuous
 62
     7
370
    13
100
AcDbLine
 10
7695.653400000002
 20
1640.356840556966
 30
0.0
 11
7707.675000000001
 21
1640.356840556966
 31
0.0
  0
ARC
  5
10C1
330
1E
100
AcDbEntity
  8
1
  6
Continuous
 62
     7
370
    13
100
AcDbCircle
 10
7884.795400000001
 20
1640.356840556966
 30
0.0
 40
183.2359999999999
100
AcDbArc
 50
180.0
 51
266.2406600000094
  0
LINE
  5
10C2
330
1E
100
AcDbEntity
  8
1
  6
Continuous
 62
     7
370
    13
100
AcDbLine
 10
7701.494399999998
 20
1640.356840556966
 30
0.0
 11
7701.494399999998
 21
1680.356840556966
 31
0.0
  0
LINE
  5
10C3
330
1E
100
AcDbEntity
  8
1
  6
Continuous
 62
     7
370
    13
100
AcDbLine
 10
7701.553400000003
 20
1734.878440556966
 30
0.0
 11
7701.494399999998
 21
1680.356840556966
 31
0.0
  0
LINE
  5
10C4
330
1E
100
AcDbEntity
  8
1
  6
Continuous
 62
     7
370
    13
100
AcDbLine
 10
7695.074999999999
 20
1704.378840556965
 30
0.0
 11
7701.479999999998
 21
1680.371840556965
 31
0.0
  0
LINE
  5
10C5
330
1E
100
AcDbEntity
  8
1
  6
Continuous
 62
     7
370
    13
100
AcDbLine
 10
7701.479999999998
 20
1680.371840556965
 30
0.0
 11
7707.936600000003
 21
1704.365040556966
 31
0.0
  0
ARC
  5
10C6
330
1E
100
AcDbEntity
  8
1
  6
Continuous
 62
     7
370
    13
100
AcDbCircle
 10
7858.581400000002
 20
1645.132840556964
 30
0.0
 40
236.0739999999998
100
AcDbArc
 50
359.2744199999864
 51
18.94437800002678
  0
ARC
  5
10C7
330
1E
100
AcDbEntity
  8
1
  6
Continuous
 62
     7
370
    13
100
AcDbCircle
 10
7919.498399999999
 20
1644.549440556964
 30
0.0
 40
236.0739999999998
100
AcDbArc
 50
66.21623199995837
 51
90.91102099999854
  0
LINE
  5
10C8
330
1E
100
AcDbEntity
  8
1
  6
Continuous
 62
     7
370
    13
100
AcDbLine
 10
8094.636399999997
 20
1642.143440556965
 30
0.0
 11
8100.867399999996
 21
1665.728840556965
 31
0.0
  0
LINE
  5
10C9
330
1E
100
AcDbEntity
  8
1
  6
Continuous
 62
     7
370
    13
100
AcDbLine
 10
8088.835399999998
 20
1665.251440556965
 30
0.0
 11
8094.636399999997
 21
1642.143440556965
 31
0.0
  0
LINE
  5
10CA
330
1E
100
AcDbEntity
  8
1
  6
Continuous
 62
     7
370
    13
100
AcDbLine
 10
7915.744999999997
 20
1880.593840556965
 30
0.0
 11
7938.4194
 21
1886.849440556965
 31
0.0
  0
LINE
  5
10CB
330
1E
100
AcDbEntity
  8
1
  6
Continuous
 62
     7
370
    13
100
AcDbLine
 10
7915.744999999997
 20
1880.593840556965
 30
0.0
 11
7938.842999999998
 21
1874.456440556965
 31
0.0
  0
LINE
  5
10CC
330
1E
100
AcDbEntity
  8
1
  6
Continuous
 62
     7
370
    13
100
AcDbLine
 10
7881.884000000001
 20
1600.419840556966
 30
0.0
 11
7884.795400000001
 21
1640.356840556966
 31
0.0
  0
LINE
  5
10CD
330
1E
100
AcDbEntity
  8
1
  6
Continuous
 62
     1
370
    25
100
AcDbLine
 10
6841.3274
 20
635.3880888303301
 30
0.0
 11
6841.3274
 21
675.3880888303301
 31
0.0
  0
LINE
  5
10CE
330
1E
100
AcDbEntity
  8
1
  6
Continuous
 62
     1
370
    25
100
AcDbLine
 10
6896.481400000003
 20
580.2340888303297
 30
0.0
 11
6936.481399999999
 21
580.2340888303297
 31
0.0
  0
LINE
  5
10CF
330
1E
100
AcDbEntity
  8
1
  6
Continuous
 62
     7
370
    13
100
AcDbLine
 10
6669.916399999999
 20
635.3880888303301
 30
0.0
 11
6669.916399999999
 21
675.3880888303301
 31
0.0
  0
LINE
  5
10D0
330
1E
100
AcDbEntity
  8
1
  6
Continuous
 62
     7
370
    13
100
AcDbLine
 10
6821.327400000004
 20
675.3880888303301
 30
0.0
 11
6649.916400000001
 21
675.3880888303301
 31
0.0
  0
LINE
  5
10D1
330
1E
100
AcDbEntity
  8
1
  6
Continuous
 62
     7
370
    13
100
AcDbLine
 10
6821.327400000004
 20
635.3880888303301
 30
0.0
 11
6649.916400000001
 21
635.3880888303301
 31
0.0
  0
LINE
  5
10D2
330
1E
100
AcDbEntity
  8
1
  6
Continuous
 62
     7
370
    13
100
AcDbLine
 10
6669.916399999999
 20
723.3880888303283
 30
0.0
 11
6669.916399999999
 21
675.3880888303301
 31
0.0
  0
LINE
  5
10D3
330
1E
100
AcDbEntity
  8
1
  6
Continuous
 62
     7
370
    13
100
AcDbLine
 10
6663.469200000001
 20
699.3970888303302
 30
0.0
 11
6669.9
 21
675.3970888303301
 31
0.0
  0
LINE
  5
10D4
330
1E
100
AcDbEntity
  8
1
  6
Continuous
 62
     7
370
    13
100
AcDbLine
 10
6669.9
 20
675.3970888303301
 30
0.0
 11
6676.3306
 21
699.3970888303302
 31
0.0
  0
LINE
  5
10D5
330
1E
100
AcDbEntity
  8
1
  6
Continuous
 62
     7
370
    13
100
AcDbLine
 10
6669.916399999999
 20
635.3880888303301
 30
0.0
 11
6669.916399999999
 21
587.3880888303319
 31
0.0
  0
LINE
  5
10D6
330
1E
100
AcDbEntity
  8
1
  6
Continuous
 62
     7
370
    13
100
AcDbLine
 10
6676.3306
 20
611.3970888303302
 30
0.0
 11
6669.9
 21
635.3970888303301
 31
0.0
  0
LINE
  5
10D7
330
1E
100
AcDbEntity
  8
1
  6
Continuous
 62
     7
370
    13
100
AcDbLine
 10
6669.9
 20
635.3970888303301
 30
0.0
 11
6663.469200000001
 21
611.3970888303302
 31
0.0
  0
TEXT
  5
10D8
330
1E
100
AcDbEntity
  8
1
  6
Continuous
 62
     7
370
    13
100
AcDbText
 10
6657.916400000001
 20
599.3880888303301
 30
0.0
 40
64.0
  1
80
 50
90.0
 41
0.875
  7
BIGFONT
100
AcDbText
  0
LINE
  5
10D9
330
1E
100
AcDbEntity
  8
1
  6
Continuous
 62
     7
370
    13
100
AcDbLine
 10
6896.296000000001
 20
463.2926888303318
 30
0.0
 11
6936.296
 21
463.2926888303318
 31
0.0
  0
LINE
  5
10DA
330
1E
100
AcDbEntity
  8
1
  6
Continuous
 62
     7
370
    13
100
AcDbLine
 10
6936.296
 20
562.2690888303295
 30
0.0
 11
6936.296
 21
443.2926888303318
 31
0.0
  0
LINE
  5
10DB
330
1E
100
AcDbEntity
  8
1
  6
Continuous
 62
     7
370
    13
100
AcDbLine
 10
6896.296000000001
 20
562.2690888303295
 30
0.0
 11
6896.296000000001
 21
443.2926888303318
 31
0.0
  0
LINE
  5
10DC
330
1E
100
AcDbEntity
  8
1
  6
Continuous
 62
     7
370
    13
100
AcDbLine
 10
6984.296
 20
463.2926888303318
 30
0.0
 11
6936.296
 21
463.2926888303318
 31
0.0
  0
LINE
  5
10DD
330
1E
100
AcDbEntity
  8
1
  6
Continuous
 62
     7
370
    13
100
AcDbLine
 10
6960.28
 20
469.7278888303299
 30
0.0
 11
6936.279999999998
 21
463.2970888303297
 31
0.0
  0
LINE
  5
10DE
330
1E
100
AcDbEntity
  8
1
  6
Continuous
 62
     7
370
    13
100
AcDbLine
 10
6936.279999999998
 20
463.2970888303297
 30
0.0
 11
6960.28
 21
456.8664888303319
 31
0.0
  0
LINE
  5
10DF
330
1E
100
AcDbEntity
  8
1
  6
Continuous
 62
     7
370
    13
100
AcDbLine
 10
6896.296000000001
 20
463.2926888303318
 30
0.0
 11
6848.296000000001
 21
463.2926888303318
 31
0.0
  0
LINE
  5
10E0
330
1E
100
AcDbEntity
  8
1
  6
Continuous
 62
     7
370
    13
100
AcDbLine
 10
6872.279999999998
 20
456.8664888303319
 30
0.0
 11
6896.28
 21
463.2970888303297
 31
0.0
  0
LINE
  5
10E1
330
1E
100
AcDbEntity
  8
1
  6
Continuous
 62
     7
370
    13
100
AcDbLine
 10
6896.28
 20
463.2970888303297
 30
0.0
 11
6872.279999999998
 21
469.7278888303299
 31
0.0
  0
TEXT
  5
10E2
330
1E
100
AcDbEntity
  8
1
  6
Continuous
 62
     7
370
    13
100
AcDbText
 10
6860.296000000001
 20
387.29268883033
 30
0.0
 40
64.0
  1
80
 41
0.875
  7
BIGFONT
100
AcDbText
  0
LINE
  5
10E3
330
1E
100
AcDbEntity
  8
1
  6
Continuous
 62
     1
370
    25
100
AcDbLine
 10
7869.795399999997
 20
1640.356840556966
 30
0.0
 11
7869.795399999997
 21
1681.283440556964
 31
0.0
  0
ARC
  5
10E4
330
1E
100
AcDbEntity
  8
1
  6
Continuous
 62
     1
370
    25
100
AcDbCircle
 10
7884.795400000001
 20
1640.356840556966
 30
0.0
 40
15.0
100
AcDbArc
 50
180.0
 51
266.3496800000309
  0
TEXT
  5
10E5
330
1E
100
AcDbEntity
  8
1
  6
Continuous
 62
     7
370
    13
100
AcDbText
 10
7692.704400000001
 20
1603.399840556965
 30
0.0
 40
64.0
  1
80
 50
90.0
  7
BIGFONT
100
AcDbText
  0
ARC
  5
10E6
330
1E
100
AcDbEntity
  8
1
  6
Continuous
 62
     7
370
    13
100
AcDbCircle
 10
7884.795400000001
 20
1640.356840556966
 30
0.0
 40
183.2359999999999
100
AcDbArc
 50
180.0
 51
266.5486400000482
  0
TEXT
  5
10E7
330
1E
100
AcDbEntity
  8
1
  6
Continuous
 62
     7
370
    13
100
AcDbText
 10
7713.612000000003
 20
1574.999440556965
 30
0.0
 40
64.0
  1
45
 50
312.0
  7
BIGFONT
100
AcDbText
  0
TEXT
  5
10E8
330
1E
100
AcDbEntity
  8
1
  6
Continuous
 62
     7
370
    13
100
AcDbText
 10
7979.532999999998
 20
1691.707440556964
 30
0.0
 40
40.0
  1
Ｒ
  7
BIGFONT
100
AcDbText
  0
TEXT
  5
10E9
330
1E
100
AcDbEntity
  8
1
  6
Continuous
 62
     7
370
    13
100
AcDbText
 10
7877.586999999998
 20
1652.068440556966
 30
0.0
 40
64.0
  1
30
  7
BIGFONT
100
AcDbText
  0
LINE
  5
10EA
330
1E
100
AcDbEntity
  8
1
  6
Continuous
 62
     7
370
    13
100
AcDbLine
 10
5633.623000000001
 20
542.5256888303302
 30
0.0
 11
5638.473400000004
 21
566.9360888303308
 31
0.0
  0
LINE
  5
10EB
330
1E
100
AcDbEntity
  8
1
  6
Continuous
 62
     7
370
    13
100
AcDbLine
 10
5638.473400000004
 20
566.9360888303308
 30
0.0
 11
5647.338399999995
 21
542.7786888303326
 31
0.0
  0
LINE
  5
10EC
330
1E
100
AcDbEntity
  8
1
  6
Continuous
 62
     7
370
    13
100
AcDbLine
 10
5785.104999999997
 20
395.05168883033
 30
0.0
 11
5809.76
 21
384.0946888303315
 31
0.0
  0
LINE
  5
10ED
330
1E
100
AcDbEntity
  8
1
  6
Continuous
 62
     7
370
    13
100
AcDbLine
 10
5785.3074
 20
380.9316888303292
 30
0.0
 11
5809.76
 21
384.0946888303315
 31
0.0
  0
LINE
  5
10EE
330
1E
100
AcDbEntity
  8
1
  6
Continuous
 62
     7
370
    13
100
AcDbLine
 10
5624.3604
 20
606.9360888303308
 30
0.0
 11
5789.512000000001
 21
606.9360888303308
 31
0.0
  0
LINE
  5
10EF
330
1E
100
AcDbEntity
  8
1
  6
Continuous
 62
     7
370
    13
100
AcDbLine
 10
5623.672399999998
 20
566.9360888303308
 30
0.0
 11
5821.7744
 21
566.9360888303308
 31
0.0
  0
LINE
  5
10F0
330
1E
100
AcDbEntity
  8
1
  6
Continuous
 62
     7
370
    13
100
AcDbLine
 10
5632.632400000004
 20
566.9360888303308
 30
0.0
 11
5644.654
 21
566.9360888303308
 31
0.0
  0
ARC
  5
10F1
330
1E
100
AcDbEntity
  8
1
  6
Continuous
 62
     7
370
    13
100
AcDbCircle
 10
5821.7744
 20
566.9360888303308
 30
0.0
 40
183.2359999999999
100
AcDbArc
 50
180.0
 51
266.2406600000094
  0
LINE
  5
10F2
330
1E
100
AcDbEntity
  8
1
  6
Continuous
 62
     7
370
    13
100
AcDbLine
 10
5638.473400000004
 20
566.9360888303308
 30
0.0
 11
5638.473400000004
 21
606.9360888303308
 31
0.0
  0
LINE
  5
10F3
330
1E
100
AcDbEntity
  8
1
  6
Continuous
 62
     7
370
    13
100
AcDbLine
 10
5638.532399999999
 20
661.457688830329
 30
0.0
 11
5638.473400000004
 21
606.9360888303308
 31
0.0
  0
LINE
  5
10F4
330
1E
100
AcDbEntity
  8
1
  6
Continuous
 62
     7
370
    13
100
AcDbLine
 10
5632.055000000002
 20
630.9440888303306
 30
0.0
 11
5638.460000000002
 21
606.9370888303311
 31
0.0
  0
LINE
  5
10F5
330
1E
100
AcDbEntity
  8
1
  6
Continuous
 62
     7
370
    13
100
AcDbLine
 10
5638.460000000002
 20
606.9370888303311
 30
0.0
 11
5644.916599999999
 21
630.9302888303299
 31
0.0
  0
LINE
  5
10F6
330
1E
100
AcDbEntity
  8
1
  6
Continuous
 62
     7
370
    13
100
AcDbLine
 10
5818.863
 20
526.9990888303309
 30
0.0
 11
5821.7744
 21
566.9360888303308
 31
0.0
  0
LINE
  5
10F7
330
1E
100
AcDbEntity
  8
1
  6
Continuous
 62
     1
370
    25
100
AcDbLine
 10
5806.774400000001
 20
566.9360888303308
 30
0.0
 11
5806.774400000001
 21
607.8626888303315
 31
0.0
  0
ARC
  5
10F8
330
1E
100
AcDbEntity
  8
1
  6
Continuous
 62
     1
370
    25
100
AcDbCircle
 10
5821.7744
 20
566.9360888303308
 30
0.0
 40
15.0
100
AcDbArc
 50
180.0
 51
266.3496800000309
  0
TEXT
  5
10F9
330
1E
100
AcDbEntity
  8
1
  6
Continuous
 62
     7
370
    13
100
AcDbText
 10
5629.6834
 20
529.9790888303323
 30
0.0
 40
64.0
  1
80
 50
90.0
  7
BIGFONT
100
AcDbText
  0
ARC
  5
10FA
330
1E
100
AcDbEntity
  8
1
  6
Continuous
 62
     7
370
    13
100
AcDbCircle
 10
5821.7744
 20
566.9360888303308
 30
0.0
 40
183.2359999999999
100
AcDbArc
 50
180.0
 51
266.5486400000482
  0
TEXT
  5
10FB
330
1E
100
AcDbEntity
  8
1
  6
Continuous
 62
     7
370
    13
100
AcDbText
 10
5650.591000000002
 20
501.5786888303319
 30
0.0
 40
64.0
  1
45
 50
312.0
  7
BIGFONT
100
AcDbText
  0
TEXT
  5
10FC
330
1E
100
AcDbEntity
  8
1
  6
Continuous
 62
     7
370
    13
100
AcDbText
 10
5916.512
 20
618.2866888303306
 30
0.0
 40
40.0
  1
Ｒ
  7
BIGFONT
100
AcDbText
  0
TEXT
  5
10FD
330
1E
100
AcDbEntity
  8
1
  6
Continuous
 62
     7
370
    13
100
AcDbText
 10
5814.566000000001
 20
578.6476888303296
 30
0.0
 40
64.0
  1
30
  7
BIGFONT
100
AcDbText
  0
TEXT
  5
10FE
330
1E
100
AcDbEntity
  8
1
  6
Continuous
 62
     7
370
    13
100
AcDbText
 10
5493.763000000001
 20
1000.00168883033
 30
0.0
 40
72.0
  1
Ｓ
  7
BIGFONT
100
AcDbText
  0
TEXT
  5
10FF
330
1E
100
AcDbEntity
  8
1
  6
Continuous
 62
     7
370
    13
100
AcDbText
 10
5548.318999999998
 20
1004.502688830331
 30
0.0
 40
40.0
  1
５
  7
BIGFONT
100
AcDbText
  0
CIRCLE
  5
1100
330
1E
100
AcDbEntity
  8
1
  6
Continuous
 62
     7
370
    13
100
AcDbCircle
 10
5544.344399999996
 20
1036.361688830329
 30
0.0
 40
55.0
  0
LINE
  5
1101
330
1E
100
AcDbEntity
  8
1
  6
Continuous
 62
     7
370
    13
100
AcDbLine
 10
6526.835000000001
 20
979.9980888303307
 30
0.0
 11
7280.154400000002
 21
979.9980888303307
 31
0.0
  0
TEXT
  5
1102
330
1E
100
AcDbEntity
  8
1
  6
Continuous
 62
     7
370
    13
100
AcDbText
 10
6562.457000000001
 20
995.8430888303265
 30
0.0
 40
72.0
  1
Ｓ
  7
BIGFONT
100
AcDbText
  0
CIRCLE
  5
1103
330
1E
100
AcDbEntity
  8
1
  6
Continuous
 62
     7
370
    13
100
AcDbCircle
 10
6608.224400000001
 20
1034.774688830331
 30
0.0
 40
55.0
  0
CIRCLE
  5
1104
330
1E
100
AcDbEntity
  8
1
  6
Continuous
 62
     7
370
    13
100
AcDbCircle
 10
5523.399399999997
 20
2197.606840556966
 30
0.0
 40
55.0
  0
TEXT
  5
1105
330
1E
100
AcDbEntity
  8
1
  6
Continuous
 62
     7
370
    13
100
AcDbText
 10
5474.237000000003
 20
2159.939440556966
 30
0.0
 40
72.0
  1
Ｓ
  7
BIGFONT
100
AcDbText
  0
TEXT
  5
1106
330
1E
100
AcDbEntity
  8
1
  6
Continuous
 62
     7
370
    13
100
AcDbText
 10
5528.799399999998
 20
2166.808840556965
 30
0.0
 40
40.0
  1
１
  7
BIGFONT
100
AcDbText
  0
LINE
  5
1107
330
1E
100
AcDbEntity
  8
1
  6
Continuous
 62
     7
370
    13
100
AcDbLine
 10
7552.496000000001
 20
2142.677440556965
 30
0.0
 11
8305.815400000001
 21
2142.677440556965
 31
0.0
  0
TEXT
  5
1108
330
1E
100
AcDbEntity
  8
1
  6
Continuous
 62
     7
370
    13
100
AcDbText
 10
7585.815399999998
 20
2161.093840556965
 30
0.0
 40
72.0
  1
Ｓ
  7
BIGFONT
100
AcDbText
  0
CIRCLE
  5
1109
330
1E
100
AcDbEntity
  8
1
  6
Continuous
 62
     7
370
    13
100
AcDbCircle
 10
7633.867400000001
 20
2197.453840556964
 30
0.0
 40
55.0
  0
TEXT
  5
110A
330
1E
100
AcDbEntity
  8
1
  6
Continuous
 62
     7
370
    13
100
AcDbText
 10
7642.808999999999
 20
2165.838840556966
 30
0.0
 40
40.0
  1
４
  7
BIGFONT
100
AcDbText
  0
LINE
  5
110B
330
1E
100
AcDbEntity
  8
1
  6
Continuous
 62
     1
370
    25
100
AcDbLine
 10
6841.3274
 20
635.3880888303301
 30
0.0
 11
6896.481400000003
 21
580.2340888303297
 31
0.0
  0
LINE
  5
110C
330
1E
100
AcDbEntity
  8
1
  6
Continuous
 62
     7
370
    13
100
AcDbLine
 10
6725.945400000002
 20
520.0060888303305
 30
0.0
 11
6781.099400000001
 21
464.8520888303319
 31
0.0
  0
LINE
  5
110D
330
1E
100
AcDbEntity
  8
1
  6
Continuous
 62
     7
370
    13
100
AcDbLine
 10
6882.339199999996
 20
566.0920888303299
 30
0.0
 11
6766.957199999999
 21
450.7100888303321
 31
0.0
  0
LINE
  5
110E
330
1E
100
AcDbEntity
  8
1
  6
Continuous
 62
     7
370
    13
100
AcDbLine
 10
6827.185199999998
 20
621.2460888303303
 30
0.0
 11
6711.803199999997
 21
505.8640888303307
 31
0.0
  0
LINE
  5
110F
330
1E
100
AcDbEntity
  8
1
  6
Continuous
 62
     7
370
    13
100
AcDbLine
 10
6759.561999999999
 20
477.2804888303308
 30
0.0
 11
6781.08
 21
464.8570888303293
 31
0.0
  0
LINE
  5
1110
330
1E
100
AcDbEntity
  8
1
  6
Continuous
 62
     7
370
    13
100
AcDbLine
 10
6781.08
 20
464.8570888303293
 30
0.0
 11
6768.656599999999
 21
486.3750888303293
 31
0.0
  0
LINE
  5
1111
330
1E
100
AcDbEntity
  8
1
  6
Continuous
 62
     7
370
    13
100
AcDbLine
 10
6747.457799999998
 20
507.5938888303299
 30
0.0
 11
6725.940000000004
 21
520.0170888303327
 31
0.0
  0
LINE
  5
1112
330
1E
100
AcDbEntity
  8
1
  6
Continuous
 62
     7
370
    13
100
AcDbLine
 10
6725.940000000004
 20
520.0170888303327
 30
0.0
 11
6738.363200000001
 21
498.4992888303331
 31
0.0
  0
TEXT
  5
1113
330
1E
100
AcDbEntity
  8
1
  6
Continuous
 62
     7
370
    13
100
AcDbText
 10
6702.610800000001
 20
560.3114888303298
 30
0.0
 40
64.0
  1
156
 50
315.0
 41
0.875
  7
BIGFONT
100
AcDbText
  0
LINE
  5
1114
330
1E
100
AcDbEntity
  8
1
  6
Continuous
 62
     7
370
    13
100
AcDbLine
 10
5820.683999999999
 20
551.9756888303309
 30
0.0
 11
5820.819400000002
 21
551.9666888303309
 31
0.0
  0
LINE
  5
1115
330
1E
100
AcDbEntity
  8
1
  6
Continuous
 62
     7
370
    13
100
AcDbLine
 10
5470.898
 20
979.9980888303307
 30
0.0
 11
6224.2174
 21
979.9980888303307
 31
0.0
  0
LINE
  5
1116
330
1E
100
AcDbEntity
  8
1
  6
Continuous
 62
     7
370
    13
100
AcDbLine
 10
6526.835000000001
 20
2142.026440556965
 30
0.0
 11
7280.154400000002
 21
2142.026440556965
 31
0.0
  0
TEXT
  5
1117
330
1E
100
AcDbEntity
  8
1
  6
Continuous
 62
     7
370
    13
100
AcDbText
 10
6702.755999999999
 20
2160.421840556967
 30
0.0
 40
64.0
  1
2-D10×760
  7
BIGFONT
100
AcDbText
  0
TEXT
  5
1118
330
1E
100
AcDbEntity
  8
1
  6
Continuous
 62
     7
370
    13
100
AcDbText
 10
7725.429399999995
 20
2161.397440556966
 30
0.0
 40
64.0
  1
8-D10×730
  7
BIGFONT
100
AcDbText
  0
LINE
  5
1119
330
1E
100
AcDbEntity
  8
1
  6
Continuous
 62
     7
370
    13
100
AcDbLine
 10
5444.007
 20
2142.677440556965
 30
0.0
 11
6259.8264
 21
2142.677440556965
 31
0.0
  0
TEXT
  5
111A
330
1E
100
AcDbEntity
  8
1
  6
Continuous
 62
     7
370
    13
100
AcDbText
 10
5618.743400000001
 20
2160.768840556966
 30
0.0
 40
64.0
  1
8-D10×1120
  7
BIGFONT
100
AcDbText
  0
TEXT
  5
111B
330
1E
100
AcDbEntity
  8
1
  6
Continuous
 62
     7
370
    13
100
AcDbText
 10
5640.318000000001
 20
997.6176888303289
 30
0.0
 40
64.0
  1
2-D10×320
  7
BIGFONT
100
AcDbText
  0
TEXT
  5
111C
330
1E
100
AcDbEntity
  8
1
  6
Continuous
 62
     7
370
    13
100
AcDbText
 10
6701.263399999998
 20
996.9956888303313
 30
0.0
 40
64.0
  1
8-D10×320
  7
BIGFONT
100
AcDbText
  0
TEXT
  5
111D
330
1E
100
AcDbEntity
  8
1
  6
Continuous
 62
     7
370
    13
100
AcDbText
 10
6615.998399999998
 20
1001.558688830331
 30
0.0
 40
40.0
  1
７
  7
BIGFONT
100
AcDbText
  0
LINE
  5
111E
330
1E
100
AcDbEntity
  8
1
  6
Continuous
 62
     1
370
    25
100
AcDbLine
 10
5824.839000000002
 20
1536.096840556965
 30
0.0
 11
5824.839000000002
 21
1975.496840556965
 31
0.0
  0
LINE
  5
111F
330
1E
100
AcDbEntity
  8
1
  6
Continuous
 62
     1
370
    25
100
AcDbLine
 10
5839.839000000002
 20
1521.096840556966
 30
0.0
 11
5935.339000000002
 21
1521.096840556966
 31
0.0
  0
ARC
  5
1120
330
1E
100
AcDbEntity
  8
1
  6
Continuous
 62
     1
370
    25
100
AcDbCircle
 10
5839.839000000002
 20
1536.096840556965
 30
0.0
 40
15.0
100
AcDbArc
 50
180.0
 51
270.0
  0
ARC
  5
1121
330
1E
100
AcDbEntity
  8
1
  6
Continuous
 62
     7
370
    13
100
AcDbCircle
 10
5840.369399999998
 20
1536.224840556964
 30
0.0
 40
177.3153999999999
100
AcDbArc
 50
180.0744800000196
 51
270.0
  0
LINE
  5
1122
330
1E
100
AcDbEntity
  8
1
  6
Continuous
 62
     7
370
    13
100
AcDbLine
 10
5840.341399999999
 20
1358.909440556965
 30
0.0
 11
5935.339000000002
 21
1358.909440556965
 31
0.0
  0
LINE
  5
1123
330
1E
100
AcDbEntity
  8
1
  6
Continuous
 62
     7
370
    13
100
AcDbLine
 10
5935.339000000002
 20
1501.096840556965
 30
0.0
 11
5935.339000000002
 21
1338.909440556965
 31
0.0
  0
LINE
  5
1124
330
1E
100
AcDbEntity
  8
1
  6
Continuous
 62
     7
370
    13
100
AcDbLine
 10
5840.341399999999
 20
1516.213840556966
 30
0.0
 11
5840.341399999999
 21
1338.909440556965
 31
0.0
  0
LINE
  5
1125
330
1E
100
AcDbEntity
  8
1
  6
Continuous
 62
     7
370
    13
100
AcDbLine
 10
5911.319999999998
 20
1352.481240556966
 30
0.0
 11
5935.320000000001
 21
1358.911840556964
 31
0.0
  0
LINE
  5
1126
330
1E
100
AcDbEntity
  8
1
  6
Continuous
 62
     7
370
    13
100
AcDbLine
 10
5935.320000000001
 20
1358.911840556964
 30
0.0
 11
5911.319999999998
 21
1365.342640556966
 31
0.0
  0
LINE
  5
1127
330
1E
100
AcDbEntity
  8
1
  6
Continuous
 62
     7
370
    13
100
AcDbLine
 10
5864.340000000002
 20
1365.342640556966
 30
0.0
 11
5840.340000000002
 21
1358.911840556964
 31
0.0
  0
LINE
  5
1128
330
1E
100
AcDbEntity
  8
1
  6
Continuous
 62
     7
370
    13
100
AcDbLine
 10
5840.340000000002
 20
1358.911840556964
 30
0.0
 11
5864.340000000002
 21
1352.481240556966
 31
0.0
  0
TEXT
  5
1129
330
1E
100
AcDbEntity
  8
1
  6
Continuous
 62
     7
370
    13
100
AcDbText
 10
5803.8402
 20
1282.909440556965
 30
0.0
 40
64.0
  1
190
 41
0.875
  7
BIGFONT
100
AcDbText
  0
TEXT
  5
112A
330
1E
100
AcDbEntity
  8
1
  6
Continuous
 62
     7
370
    13
100
AcDbText
 10
5935.078999999999
 20
1587.345840556965
 30
0.0
 40
40.0
  1
Ｒ
  7
BIGFONT
100
AcDbText
  0
TEXT
  5
112B
330
1E
100
AcDbEntity
  8
1
  6
Continuous
 62
     7
370
    13
100
AcDbText
 10
5833.133
 20
1547.706840556966
 30
0.0
 40
64.0
  1
30
  7
BIGFONT
100
AcDbText
  0
LINE
  5
112C
330
1E
100
AcDbEntity
  8
1
  6
Continuous
 62
     7
370
    13
100
AcDbLine
 10
5663.053999999998
 20
1535.994440556966
 30
0.0
 11
5673.230400000002
 21
1511.720440556966
 31
0.0
  0
LINE
  5
112D
330
1E
100
AcDbEntity
  8
1
  6
Continuous
 62
     7
370
    13
100
AcDbLine
 10
5658.947399999999
 20
1509.913440556966
 30
0.0
 11
5663.053999999998
 21
1535.994440556966
 31
0.0
  0
LINE
  5
112E
330
1E
100
AcDbEntity
  8
1
  6
Continuous
 62
     7
370
    13
100
AcDbLine
 10
5815.245
 20
1369.986840556965
 30
0.0
 11
5840.369399999998
 21
1358.909440556965
 31
0.0
  0
LINE
  5
112F
330
1E
100
AcDbEntity
  8
1
  6
Continuous
 62
     7
370
    13
100
AcDbLine
 10
5814.117400000001
 20
1354.752440556965
 30
0.0
 11
5840.369399999998
 21
1358.909440556965
 31
0.0
  0
LINE
  5
1130
330
1E
100
AcDbEntity
  8
1
  6
Continuous
 62
     7
370
    13
100
AcDbLine
 10
5663.053999999998
 20
1535.995440556966
 30
0.0
 11
5663.053999999998
 21
1975.496840556965
 31
0.0
  0
LINE
  5
1131
330
1E
100
AcDbEntity
  8
1
  6
Continuous
 62
     7
370
    13
100
AcDbLine
 10
5804.839000000002
 20
1975.496840556965
 30
0.0
 11
5643.053999999999
 21
1975.496840556965
 31
0.0
  0
LINE
  5
1132
330
1E
100
AcDbEntity
  8
1
  6
Continuous
 62
     7
370
    13
100
AcDbLine
 10
5815.227399999997
 20
1535.995440556966
 30
0.0
 11
5643.053999999999
 21
1535.995440556966
 31
0.0
  0
LINE
  5
1133
330
1E
100
AcDbEntity
  8
1
  6
Continuous
 62
     7
370
    13
100
AcDbLine
 10
5669.470600000003
 20
1951.511840556965
 30
0.0
 11
5663.040000000003
 21
1975.511840556965
 31
0.0
  0
LINE
  5
1134
330
1E
100
AcDbEntity
  8
1
  6
Continuous
 62
     7
370
    13
100
AcDbLine
 10
5663.040000000003
 20
1975.511840556965
 30
0.0
 11
5656.609200000001
 21
1951.511840556965
 31
0.0
  0
LINE
  5
1135
330
1E
100
AcDbEntity
  8
1
  6
Continuous
 62
     7
370
    13
100
AcDbLine
 10
5656.609200000001
 20
1560.011840556964
 30
0.0
 11
5663.040000000003
 21
1536.011840556966
 31
0.0
  0
LINE
  5
1136
330
1E
100
AcDbEntity
  8
1
  6
Continuous
 62
     7
370
    13
100
AcDbLine
 10
5663.040000000003
 20
1536.011840556966
 30
0.0
 11
5669.470600000003
 21
1560.011840556964
 31
0.0
  0
TEXT
  5
1137
330
1E
100
AcDbEntity
  8
1
  6
Continuous
 62
     7
370
    13
100
AcDbText
 10
5651.053999999998
 20
1671.746240556966
 30
0.0
 40
64.0
  1
879
 50
90.0
 41
0.875
  7
BIGFONT
100
AcDbText
  0
LINE
  5
1138
330
1E
100
AcDbEntity
  8
1
  6
Continuous
 62
     7
370
    13
100
AcDbLine
 10
5840.341399999999
 20
1505.624440556965
 30
0.0
 11
5840.341399999999
 21
1535.995440556966
 31
0.0
  0
LINE
  5
1139
330
1E
100
AcDbEntity
  8
1
  6
Continuous
 62
     7
370
    13
100
AcDbLine
 10
5801.242000000001
 20
1535.995440556966
 30
0.0
 11
5840.341399999999
 21
1535.995440556966
 31
0.0
  0
TEXT
  5
113A
330
1E
100
AcDbEntity
  8
1
  6
Continuous
 62
     7
370
    13
100
AcDbText
 10
5677.286999999998
 20
1466.619840556965
 30
0.0
 40
64.0
  1
48
 50
315.0
  7
BIGFONT
100
AcDbText
  0
ARC
  5
113B
330
1E
100
AcDbEntity
  8
1
  6
Continuous
 62
     7
370
    13
100
AcDbCircle
 10
5788.4684
 20
1555.787440556965
 30
0.0
 40
236.0739999999998
100
AcDbArc
 50
1.274415700010605
 51
20.94441699994435
  0
ARC
  5
113C
330
1E
100
AcDbEntity
  8
1
  6
Continuous
 62
     7
370
    13
100
AcDbCircle
 10
5859.741999999997
 20
1526.881440556966
 30
0.0
 40
236.0739999999998
100
AcDbArc
 50
66.21623199995837
 51
90.91102099999854
  0
LINE
  5
113D
330
1E
100
AcDbEntity
  8
1
  6
Continuous
 62
     7
370
    13
100
AcDbLine
 10
6024.483999999999
 20
1561.037840556966
 30
0.0
 11
6029.888000000001
 21
1584.826440556964
 31
0.0
  0
LINE
  5
113E
330
1E
100
AcDbEntity
  8
1
  6
Continuous
 62
     7
370
    13
100
AcDbLine
 10
6017.879999999999
 20
1583.929440556965
 30
0.0
 11
6024.483999999999
 21
1561.037840556966
 31
0.0
  0
LINE
  5
113F
330
1E
100
AcDbEntity
  8
1
  6
Continuous
 62
     7
370
    13
100
AcDbLine
 10
5855.988400000001
 20
1762.925840556965
 30
0.0
 11
5878.663000000003
 21
1769.181440556966
 31
0.0
  0
LINE
  5
1140
330
1E
100
AcDbEntity
  8
1
  6
Continuous
 62
     7
370
    13
100
AcDbLine
 10
5855.988400000001
 20
1762.925840556965
 30
0.0
 11
5879.086400000002
 21
1756.788440556966
 31
0.0
  0
TEXT
  5
1141
330
1E
100
AcDbEntity
  8
1
  6
Continuous
 62
     7
370
    13
100
AcDbText
 10
5944.048399999998
 20
1662.284840556966
 30
0.0
 40
64.0
  1
90°
  7
BIGFONT
100
AcDbText
  0
LINE
  5
1142
330
1E
100
AcDbEntity
  8
1
  6
Continuous
 62
     1
370
    25
100
AcDbLine
 10
6886.656400000003
 20
1536.018840556966
 30
0.0
 11
6886.656400000003
 21
1792.918840556964
 31
0.0
  0
LINE
  5
1143
330
1E
100
AcDbEntity
  8
1
  6
Continuous
 62
     1
370
    25
100
AcDbLine
 10
6901.656400000002
 20
1521.018840556966
 30
0.0
 11
6997.156399999998
 21
1521.018840556966
 31
0.0
  0
ARC
  5
1144
330
1E
100
AcDbEntity
  8
1
  6
Continuous
 62
     1
370
    25
100
AcDbCircle
 10
6901.656400000002
 20
1536.018840556966
 30
0.0
 40
15.0
100
AcDbArc
 50
180.0
 51
270.0
  0
ARC
  5
1145
330
1E
100
AcDbEntity
  8
1
  6
Continuous
 62
     7
370
    13
100
AcDbCircle
 10
6902.187000000001
 20
1536.146840556966
 30
0.0
 40
177.3153999999999
100
AcDbArc
 50
180.0744800000196
 51
270.0
  0
LINE
  5
1146
330
1E
100
AcDbEntity
  8
1
  6
Continuous
 62
     7
370
    13
100
AcDbLine
 10
6902.159000000001
 20
1358.831440556965
 30
0.0
 11
6997.156399999998
 21
1358.831440556965
 31
0.0
  0
LINE
  5
1147
330
1E
100
AcDbEntity
  8
1
  6
Continuous
 62
     7
370
    13
100
AcDbLine
 10
6997.156399999998
 20
1501.018840556964
 30
0.0
 11
6997.156399999998
 21
1338.831440556965
 31
0.0
  0
LINE
  5
1148
330
1E
100
AcDbEntity
  8
1
  6
Continuous
 62
     7
370
    13
100
AcDbLine
 10
6902.159000000001
 20
1516.135840556966
 30
0.0
 11
6902.159000000001
 21
1338.831440556965
 31
0.0
  0
LINE
  5
1149
330
1E
100
AcDbEntity
  8
1
  6
Continuous
 62
     7
370
    13
100
AcDbLine
 10
6973.14
 20
1352.401240556966
 30
0.0
 11
6997.139999999998
 21
1358.831840556966
 31
0.0
  0
LINE
  5
114A
330
1E
100
AcDbEntity
  8
1
  6
Continuous
 62
     7
370
    13
100
AcDbLine
 10
6997.139999999998
 20
1358.831840556966
 30
0.0
 11
6973.14
 21
1365.262640556966
 31
0.0
  0
LINE
  5
114B
330
1E
100
AcDbEntity
  8
1
  6
Continuous
 62
     7
370
    13
100
AcDbLine
 10
6926.140000000001
 20
1365.262640556966
 30
0.0
 11
6902.139999999997
 21
1358.831840556966
 31
0.0
  0
LINE
  5
114C
330
1E
100
AcDbEntity
  8
1
  6
Continuous
 62
     7
370
    13
100
AcDbLine
 10
6902.139999999997
 20
1358.831840556966
 30
0.0
 11
6926.140000000001
 21
1352.401240556966
 31
0.0
  0
TEXT
  5
114D
330
1E
100
AcDbEntity
  8
1
  6
Continuous
 62
     7
370
    13
100
AcDbText
 10
6865.6576
 20
1282.831440556965
 30
0.0
 40
64.0
  1
190
 41
0.875
  7
BIGFONT
100
AcDbText
  0
TEXT
  5
114E
330
1E
100
AcDbEntity
  8
1
  6
Continuous
 62
     7
370
    13
100
AcDbText
 10
6996.8964
 20
1587.267840556966
 30
0.0
 40
40.0
  1
Ｒ
  7
BIGFONT
100
AcDbText
  0
TEXT
  5
114F
330
1E
100
AcDbEntity
  8
1
  6
Continuous
 62
     7
370
    13
100
AcDbText
 10
6894.9504
 20
1547.628840556965
 30
0.0
 40
64.0
  1
30
  7
BIGFONT
100
AcDbText
  0
LINE
  5
1150
330
1E
100
AcDbEntity
  8
1
  6
Continuous
 62
     7
370
    13
100
AcDbLine
 10
6724.871399999997
 20
1535.916440556966
 30
0.0
 11
6735.047999999998
 21
1511.642440556965
 31
0.0
  0
LINE
  5
1151
330
1E
100
AcDbEntity
  8
1
  6
Continuous
 62
     7
370
    13
100
AcDbLine
 10
6720.765000000001
 20
1509.835440556964
 30
0.0
 11
6724.871399999997
 21
1535.916440556966
 31
0.0
  0
LINE
  5
1152
330
1E
100
AcDbEntity
  8
1
  6
Continuous
 62
     7
370
    13
100
AcDbLine
 10
6877.062400000001
 20
1369.908840556965
 30
0.0
 11
6902.187000000001
 21
1358.831440556965
 31
0.0
  0
LINE
  5
1153
330
1E
100
AcDbEntity
  8
1
  6
Continuous
 62
     7
370
    13
100
AcDbLine
 10
6875.935
 20
1354.674440556964
 30
0.0
 11
6902.187000000001
 21
1358.831440556965
 31
0.0
  0
LINE
  5
1154
330
1E
100
AcDbEntity
  8
1
  6
Continuous
 62
     7
370
    13
100
AcDbLine
 10
6724.871399999997
 20
1535.917440556966
 30
0.0
 11
6724.871399999997
 21
1792.918840556964
 31
0.0
  0
LINE
  5
1155
330
1E
100
AcDbEntity
  8
1
  6
Continuous
 62
     7
370
    13
100
AcDbLine
 10
6866.656399999998
 20
1792.918840556964
 30
0.0
 11
6704.871399999999
 21
1792.918840556964
 31
0.0
  0
LINE
  5
1156
330
1E
100
AcDbEntity
  8
1
  6
Continuous
 62
     7
370
    13
100
AcDbLine
 10
6877.044999999999
 20
1535.917440556966
 30
0.0
 11
6704.871399999999
 21
1535.917440556966
 31
0.0
  0
LINE
  5
1157
330
1E
100
AcDbEntity
  8
1
  6
Continuous
 62
     7
370
    13
100
AcDbLine
 10
6731.290600000003
 20
1768.931840556964
 30
0.0
 11
6724.859999999998
 21
1792.931840556966
 31
0.0
  0
LINE
  5
1158
330
1E
100
AcDbEntity
  8
1
  6
Continuous
 62
     7
370
    13
100
AcDbLine
 10
6724.859999999998
 20
1792.931840556966
 30
0.0
 11
6718.4292
 21
1768.931840556964
 31
0.0
  0
LINE
  5
1159
330
1E
100
AcDbEntity
  8
1
  6
Continuous
 62
     7
370
    13
100
AcDbLine
 10
6718.4292
 20
1559.931840556966
 30
0.0
 11
6724.859999999998
 21
1535.931840556967
 31
0.0
  0
LINE
  5
115A
330
1E
100
AcDbEntity
  8
1
  6
Continuous
 62
     7
370
    13
100
AcDbLine
 10
6724.859999999998
 20
1535.931840556967
 30
0.0
 11
6731.290600000003
 21
1559.931840556966
 31
0.0
  0
TEXT
  5
115B
330
1E
100
AcDbEntity
  8
1
  6
Continuous
 62
     7
370
    13
100
AcDbText
 10
6712.871399999999
 20
1580.418240556964
 30
0.0
 40
64.0
  1
514
 50
90.0
 41
0.875
  7
BIGFONT
100
AcDbText
  0
LINE
  5
115C
330
1E
100
AcDbEntity
  8
1
  6
Continuous
 62
     7
370
    13
100
AcDbLine
 10
6902.159000000001
 20
1505.546440556965
 30
0.0
 11
6902.159000000001
 21
1535.917440556966
 31
0.0
  0
LINE
  5
115D
330
1E
100
AcDbEntity
  8
1
  6
Continuous
 62
     7
370
    13
100
AcDbLine
 10
6863.0594
 20
1535.917440556966
 30
0.0
 11
6902.159000000001
 21
1535.917440556966
 31
0.0
  0
TEXT
  5
115E
330
1E
100
AcDbEntity
  8
1
  6
Continuous
 62
     7
370
    13
100
AcDbText
 10
6739.104399999998
 20
1466.541840556965
 30
0.0
 40
64.0
  1
48
 50
315.0
  7
BIGFONT
100
AcDbText
  0
ARC
  5
115F
330
1E
100
AcDbEntity
  8
1
  6
Continuous
 62
     7
370
    13
100
AcDbCircle
 10
6847.786000000002
 20
1548.209440556966
 30
0.0
 40
236.0739999999998
100
AcDbArc
 50
1.274415700010605
 51
20.94441699994435
  0
ARC
  5
1160
330
1E
100
AcDbEntity
  8
1
  6
Continuous
 62
     7
370
    13
100
AcDbCircle
 10
6919.0594
 20
1519.303440556965
 30
0.0
 40
236.0739999999998
100
AcDbArc
 50
66.21623199995837
 51
90.91102099999854
  0
LINE
  5
1161
330
1E
100
AcDbEntity
  8
1
  6
Continuous
 62
     7
370
    13
100
AcDbLine
 10
7083.801400000003
 20
1553.459840556965
 30
0.0
 11
7089.205400000001
 21
1577.248440556967
 31
0.0
  0
LINE
  5
1162
330
1E
100
AcDbEntity
  8
1
  6
Continuous
 62
     7
370
    13
100
AcDbLine
 10
7077.197399999999
 20
1576.351440556966
 30
0.0
 11
7083.801400000003
 21
1553.459840556965
 31
0.0
  0
LINE
  5
1163
330
1E
100
AcDbEntity
  8
1
  6
Continuous
 62
     7
370
    13
100
AcDbLine
 10
6915.305999999998
 20
1755.347840556964
 30
0.0
 11
6937.980400000002
 21
1761.603440556966
 31
0.0
  0
LINE
  5
1164
330
1E
100
AcDbEntity
  8
1
  6
Continuous
 62
     7
370
    13
100
AcDbLine
 10
6915.305999999998
 20
1755.347840556964
 30
0.0
 11
6938.403999999997
 21
1749.210440556964
 31
0.0
  0
TEXT
  5
1165
330
1E
100
AcDbEntity
  8
1
  6
Continuous
 62
     7
370
    13
100
AcDbText
 10
7003.365999999999
 20
1654.706840556966
 30
0.0
 40
64.0
  1
90°
  7
BIGFONT
100
AcDbText
  0
LINE
  5
1166
330
1E
100
AcDbEntity
  8
1
  6
Continuous
 62
     1
370
    25
100
AcDbLine
 10
7883.704999999996
 20
1625.396440556966
 30
0.0
 11
8183.096399999996
 21
1606.297840556965
 31
0.0
  0
LINE
  5
1167
330
1E
100
AcDbEntity
  8
1
  6
Continuous
 62
     7
370
    13
100
AcDbLine
 10
7872.994999999997
 20
1457.502440556966
 30
0.0
 11
8172.386399999998
 21
1438.404040556967
 31
0.0
  0
LINE
  5
1168
330
1E
100
AcDbEntity
  8
1
  6
Continuous
 62
     7
370
    13
100
AcDbLine
 10
8181.823200000001
 20
1586.338440556965
 30
0.0
 11
8171.113
 21
1418.444640556965
 31
0.0
  0
LINE
  5
1169
330
1E
100
AcDbEntity
  8
1
  6
Continuous
 62
     7
370
    13
100
AcDbLine
 10
7882.431599999998
 20
1605.437040556964
 30
0.0
 11
7871.721600000002
 21
1437.543040556964
 31
0.0
  0
LINE
  5
116A
330
1E
100
AcDbEntity
  8
1
  6
Continuous
 62
     7
370
    13
100
AcDbLine
 10
8148.0192
 20
1433.522040556965
 30
0.0
 11
8172.380000000002
 21
1438.411840556966
 31
0.0
  0
LINE
  5
116B
330
1E
100
AcDbEntity
  8
1
  6
Continuous
 62
     7
370
    13
100
AcDbLine
 10
8172.380000000002
 20
1438.411840556966
 30
0.0
 11
8148.838000000003
 21
1446.357640556967
 31
0.0
  0
LINE
  5
116C
330
1E
100
AcDbEntity
  8
1
  6
Continuous
 62
     7
370
    13
100
AcDbLine
 10
7897.340599999998
 20
1462.401840556964
 30
0.0
 11
7872.979999999998
 21
1457.511840556966
 31
0.0
  0
LINE
  5
116D
330
1E
100
AcDbEntity
  8
1
  6
Continuous
 62
     7
370
    13
100
AcDbLine
 10
7872.979999999998
 20
1457.511840556966
 30
0.0
 11
7896.521799999996
 21
1449.566240556965
 31
0.0
  0
TEXT
  5
116E
330
1E
100
AcDbEntity
  8
1
  6
Continuous
 62
     7
370
    13
100
AcDbText
 10
7939.625000000003
 20
1465.276440556965
 30
0.0
 40
64.0
  1
600
 50
356.36
 41
0.875
  7
BIGFONT
100
AcDbText
  0
LINE
  5
116F
330
1E
100
AcDbEntity
  8
1
  6
Continuous
 62
     7
370
    13
100
AcDbLine
 10
5820.683999999999
 20
551.9756888303309
 30
0.0
 11
5820.819400000002
 21
551.9666888303309
 31
0.0
  0
LINE
  5
1170
330
1E
100
AcDbEntity
  8
1
  6
Continuous
 62
     1
370
    25
100
AcDbLine
 10
5820.683999999999
 20
551.9756888303309
 30
0.0
 11
5917.985999999999
 21
545.7686888303306
 31
0.0
  0
LINE
  5
1171
330
1E
100
AcDbEntity
  8
1
  6
Continuous
 62
     7
370
    13
100
AcDbLine
 10
5810.1464
 20
384.1930888303305
 30
0.0
 11
5907.314
 21
378.0118888303296
 31
0.0
  0
LINE
  5
1172
330
1E
100
AcDbEntity
  8
1
  6
Continuous
 62
     7
370
    13
100
AcDbLine
 10
5916.716199999997
 20
525.8090888303286
 30
0.0
 11
5906.044199999999
 21
358.0520888303308
 31
0.0
  0
LINE
  5
1173
330
1E
100
AcDbEntity
  8
1
  6
Continuous
 62
     7
370
    13
100
AcDbLine
 10
5819.549600000001
 20
532.0070888303289
 30
0.0
 11
5808.876599999997
 21
364.2334888303303
 31
0.0
  0
LINE
  5
1174
330
1E
100
AcDbEntity
  8
1
  6
Continuous
 62
     7
370
    13
100
AcDbLine
 10
5882.940000000001
 20
373.1230888303289
 30
0.0
 11
5907.300000000001
 21
378.0170888303292
 31
0.0
  0
LINE
  5
1175
330
1E
100
AcDbEntity
  8
1
  6
Continuous
 62
     7
370
    13
100
AcDbLine
 10
5907.300000000001
 20
378.0170888303292
 30
0.0
 11
5883.756599999999
 21
385.9586888303293
 31
0.0
  0
LINE
  5
1176
330
1E
100
AcDbEntity
  8
1
  6
Continuous
 62
     7
370
    13
100
AcDbLine
 10
5834.499799999999
 20
389.0912888303337
 30
0.0
 11
5810.140000000001
 21
384.1970888303294
 31
0.0
  0
LINE
  5
1177
330
1E
100
AcDbEntity
  8
1
  6
Continuous
 62
     7
370
    13
100
AcDbLine
 10
5810.140000000001
 20
384.1970888303294
 30
0.0
 11
5833.683200000002
 21
376.2556888303298
 31
0.0
  0
TEXT
  5
1178
330
1E
100
AcDbEntity
  8
1
  6
Continuous
 62
     7
370
    13
100
AcDbText
 10
5770.074600000001
 20
310.5886888303321
 30
0.0
 40
64.0
  1
195
 50
356.36
 41
0.875
  7
BIGFONT
100
AcDbText
  0
LINE
  5
1179
330
1E
100
AcDbEntity
  8
1
  6
Continuous
 62
     7
370
    13
100
AcDbLine
 10
7161.860999999999
 20
580.2340888303297
 30
0.0
 11
7161.860999999999
 21
635.3880888303301
 31
0.0
  0
LINE
  5
117A
330
1E
100
AcDbEntity
  8
1
  6
Continuous
 62
     7
370
    13
100
AcDbLine
 10
6861.3274
 20
635.3880888303301
 30
0.0
 11
7181.860999999999
 21
635.3880888303301
 31
0.0
  0
LINE
  5
117B
330
1E
100
AcDbEntity
  8
1
  6
Continuous
 62
     7
370
    13
100
AcDbLine
 10
6956.481400000003
 20
580.2340888303297
 30
0.0
 11
7181.860999999999
 21
580.2340888303297
 31
0.0
  0
LINE
  5
117C
330
1E
100
AcDbEntity
  8
1
  6
Continuous
 62
     7
370
    13
100
AcDbLine
 10
7168.290600000002
 20
611.3970888303302
 30
0.0
 11
7161.859999999999
 21
635.3970888303301
 31
0.0
  0
LINE
  5
117D
330
1E
100
AcDbEntity
  8
1
  6
Continuous
 62
     7
370
    13
100
AcDbLine
 10
7161.859999999999
 20
635.3970888303301
 30
0.0
 11
7155.4292
 21
611.3970888303302
 31
0.0
  0
LINE
  5
117E
330
1E
100
AcDbEntity
  8
1
  6
Continuous
 62
     7
370
    13
100
AcDbLine
 10
7155.4292
 20
604.2370888303339
 30
0.0
 11
7161.859999999999
 21
580.2370888303303
 31
0.0
  0
LINE
  5
117F
330
1E
100
AcDbEntity
  8
1
  6
Continuous
 62
     7
370
    13
100
AcDbLine
 10
7161.859999999999
 20
580.2370888303303
 30
0.0
 11
7168.290600000002
 21
604.2370888303339
 31
0.0
  0
TEXT
  5
1180
330
1E
100
AcDbEntity
  8
1
  6
Continuous
 62
     7
370
    13
100
AcDbText
 10
7149.860999999998
 20
523.8110888303308
 30
0.0
 40
64.0
  1
110
 50
90.0
 41
0.875
  7
BIGFONT
100
AcDbText
  0
TEXT
  5
1181
330
1E
100
AcDbEntity
  8
1
  6
Continuous
 62
     7
370
    13
100
AcDbText
 10
7936.702999999996
 20
1760.835440556966
 30
0.0
 40
64.0
  1
93°11′
  7
BIGFONT
100
AcDbText
  0
ARC
  5
1182
330
1E
100
AcDbEntity
  8
1
  6
Continuous
 62
     7
370
    13
100
AcDbCircle
 10
5795.5604
 20
576.7120888303306
 30
0.0
 40
236.0739999999998
100
AcDbArc
 50
359.2744199999864
 51
18.94437800002678
  0
ARC
  5
1183
330
1E
100
AcDbEntity
  8
1
  6
Continuous
 62
     7
370
    13
100
AcDbCircle
 10
5831.477399999998
 20
571.1286888303293
 30
0.0
 40
236.0739999999998
100
AcDbArc
 50
66.21623199995837
 51
90.91102099999854
  0
LINE
  5
1184
330
1E
100
AcDbEntity
  8
1
  6
Continuous
 62
     7
370
    13
100
AcDbLine
 10
6031.615400000004
 20
573.7226888303321
 30
0.0
 11
6037.846399999996
 21
597.3080888303302
 31
0.0
  0
LINE
  5
1185
330
1E
100
AcDbEntity
  8
1
  6
Continuous
 62
     7
370
    13
100
AcDbLine
 10
6025.814400000001
 20
596.8306888303323
 30
0.0
 11
6031.615400000004
 21
573.7226888303321
 31
0.0
  0
LINE
  5
1186
330
1E
100
AcDbEntity
  8
1
  6
Continuous
 62
     7
370
    13
100
AcDbLine
 10
5827.723999999996
 20
807.1730888303299
 30
0.0
 11
5850.3984
 21
813.4286888303304
 31
0.0
  0
LINE
  5
1187
330
1E
100
AcDbEntity
  8
1
  6
Continuous
 62
     7
370
    13
100
AcDbLine
 10
5827.723999999996
 20
807.1730888303299
 30
0.0
 11
5850.821999999999
 21
801.0356888303322
 31
0.0
  0
TEXT
  5
1188
330
1E
100
AcDbEntity
  8
1
  6
Continuous
 62
     7
370
    13
100
AcDbText
 10
5873.681999999998
 20
687.4146888303293
 30
0.0
 40
64.0
  1
93°11′
  7
BIGFONT
100
AcDbText
  0
LINE
  5
1189
330
1E
100
AcDbEntity
  8
0
  6
Continuous
 62
     7
370
    13
100
AcDbLine
 10
1542.572
 20
5703.560999999997
 30
0.0
 11
1062.5
 21
5703.560999999997
 31
0.0
  0
LINE
  5
118A
330
1E
100
AcDbEntity
  8
0
  6
Continuous
 62
     7
370
    13
100
AcDbLine
 10
1086.5
 20
5709.9766
 30
0.0
 11
1062.5
 21
5703.546
 31
0.0
  0
LINE
  5
118B
330
1E
100
AcDbEntity
  8
0
  6
Continuous
 62
     7
370
    13
100
AcDbLine
 10
1062.5
 20
5703.546
 30
0.0
 11
1086.5
 21
5697.115199999999
 31
0.0
  0
LINE
  5
118C
330
1E
100
AcDbEntity
  8
0
  6
Continuous
 62
     7
370
    13
100
AcDbLine
 10
1469.844000000001
 20
5359.097000000001
 30
0.0
 11
1832.469000000001
 21
5359.097000000001
 31
0.0
  0
LINE
  5
118D
330
1E
100
AcDbEntity
  8
0
  6
Continuous
 62
     7
370
    13
100
AcDbLine
 10
1589.015999999998
 20
5195.333000000001
 30
0.0
 11
1949.542999999999
 21
5195.333000000001
 31
0.0
  0
LINE
  5
118E
330
1E
100
AcDbEntity
  8
0
  6
Continuous
 62
     7
370
    13
100
AcDbLine
 10
359.4310000000005
 20
4476.224000000001
 30
0.0
 11
719.9579999999987
 21
4476.224000000001
 31
0.0
  0
LINE
  5
118F
330
1E
100
AcDbEntity
  8
0
  6
Continuous
 62
     1
370
    25
100
AcDbLine
 10
3092.500000000002
 20
4890.364
 30
0.0
 11
3092.500000000002
 21
5429.364
 31
0.0
  0
LINE
  5
1190
330
1E
100
AcDbEntity
  8
0
  6
Continuous
 62
     1
370
    25
100
AcDbLine
 10
4982.500000000001
 20
4890.364
 30
0.0
 11
4982.500000000001
 21
5429.364
 31
0.0
  0
LINE
  5
1191
330
1E
100
AcDbEntity
  8
0
  6
Continuous
 62
     1
370
    25
100
AcDbLine
 10
3092.500000000002
 20
5599.364000000001
 30
0.0
 11
3092.500000000002
 21
5789.364
 31
0.0
  0
LINE
  5
1192
330
1E
100
AcDbEntity
  8
0
  6
Continuous
 62
     1
370
    25
100
AcDbLine
 10
4982.500000000001
 20
5599.364000000001
 30
0.0
 11
4982.500000000001
 21
5789.364
 31
0.0
  0
LINE
  5
1193
330
1E
100
AcDbEntity
  8
0
  6
Continuous
 62
     1
370
    25
100
AcDbLine
 10
4887.500000000002
 20
4890.364
 30
0.0
 11
4887.500000000002
 21
5789.364
 31
0.0
  0
LINE
  5
1194
330
1E
100
AcDbEntity
  8
0
  6
Continuous
 62
     1
370
    25
100
AcDbLine
 10
3187.5
 20
4890.364
 30
0.0
 11
3187.5
 21
5789.364
 31
0.0
  0
LINE
  5
1195
330
1E
100
AcDbEntity
  8
0
  6
Continuous
 62
     7
370
    13
100
AcDbLine
 10
3287.5
 20
5234.344
 30
0.0
 11
3187.5
 21
5234.344
 31
0.0
  0
LINE
  5
1196
330
1E
100
AcDbEntity
  8
0
  6
Continuous
 62
     7
370
    13
100
AcDbLine
 10
3211.5
 20
5240.7566
 30
0.0
 11
3187.5
 21
5234.326
 31
0.0
  0
LINE
  5
1197
330
1E
100
AcDbEntity
  8
0
  6
Continuous
 62
     7
370
    13
100
AcDbLine
 10
3187.5
 20
5234.326
 30
0.0
 11
3211.5
 21
5227.895199999998
 31
0.0
  0
LINE
  5
1198
330
1E
100
AcDbEntity
  8
0
  6
Continuous
 62
     7
370
    13
100
AcDbLine
 10
4982.500000000001
 20
5234.344
 30
0.0
 11
4887.500000000002
 21
5234.344
 31
0.0
  0
LINE
  5
1199
330
1E
100
AcDbEntity
  8
0
  6
Continuous
 62
     7
370
    13
100
AcDbLine
 10
4911.500000000001
 20
5240.7566
 30
0.0
 11
4887.500000000002
 21
5234.326
 31
0.0
  0
LINE
  5
119A
330
1E
100
AcDbEntity
  8
0
  6
Continuous
 62
     7
370
    13
100
AcDbLine
 10
4887.500000000002
 20
5234.326
 30
0.0
 11
4911.500000000001
 21
5227.895199999998
 31
0.0
  0
LINE
  5
119B
330
1E
100
AcDbEntity
  8
0
  6
Continuous
 62
     7
370
    13
100
AcDbLine
 10
3092.815000000001
 20
4495.368999999999
 30
0.0
 11
3187.5
 21
4495.368999999999
 31
0.0
  0
LINE
  5
119C
330
1E
100
AcDbEntity
  8
0
  6
Continuous
 62
     7
370
    13
100
AcDbLine
 10
3187.5
 20
4825.364
 30
0.0
 11
3187.5
 21
4475.368999999997
 31
0.0
  0
LINE
  5
119D
330
1E
100
AcDbEntity
  8
0
  6
Continuous
 62
     7
370
    13
100
AcDbLine
 10
3092.815000000001
 20
4495.368999999999
 30
0.0
 11
3092.815000000001
 21
4495.368999999999
 31
0.0
  0
LINE
  5
119E
330
1E
100
AcDbEntity
  8
0
  6
Continuous
 62
     7
370
    13
100
AcDbLine
 10
3235.499999999998
 20
4495.368999999999
 30
0.0
 11
3187.5
 21
4495.368999999999
 31
0.0
  0
LINE
  5
119F
330
1E
100
AcDbEntity
  8
0
  6
Continuous
 62
     7
370
    13
100
AcDbLine
 10
3211.5
 20
4501.796599999997
 30
0.0
 11
3187.5
 21
4495.365999999999
 31
0.0
  0
LINE
  5
11A0
330
1E
100
AcDbEntity
  8
0
  6
Continuous
 62
     7
370
    13
100
AcDbLine
 10
3187.5
 20
4495.365999999999
 30
0.0
 11
3211.5
 21
4488.9352
 31
0.0
  0
LINE
  5
11A1
330
1E
100
AcDbEntity
  8
0
  6
Continuous
 62
     7
370
    13
100
AcDbLine
 10
3116.82
 20
4501.796599999997
 30
0.0
 11
3092.82
 21
4495.365999999999
 31
0.0
  0
LINE
  5
11A2
330
1E
100
AcDbEntity
  8
0
  6
Continuous
 62
     7
370
    13
100
AcDbLine
 10
3092.82
 20
4495.365999999999
 30
0.0
 11
3116.82
 21
4488.9352
 31
0.0
  0
TEXT
  5
11A3
330
1E
100
AcDbEntity
  8
0
  6
Continuous
 62
     7
370
    13
100
AcDbText
 10
3084.157599999999
 20
4507.368999999997
 30
0.0
 40
64.0
  1
95
 41
0.875
  7
BIGFONT
100
AcDbText
  0
LINE
  5
11A4
330
1E
100
AcDbEntity
  8
0
  6
Continuous
 62
     7
370
    13
100
AcDbLine
 10
3187.5
 20
4495.368999999999
 30
0.0
 11
3287.291000000001
 21
4495.368999999999
 31
0.0
  0
LINE
  5
11A5
330
1E
100
AcDbEntity
  8
0
  6
Continuous
 62
     7
370
    13
100
AcDbLine
 10
3287.291000000001
 20
4825.364
 30
0.0
 11
3287.291000000001
 21
4475.368999999997
 31
0.0
  0
LINE
  5
11A6
330
1E
100
AcDbEntity
  8
0
  6
Continuous
 62
     7
370
    13
100
AcDbLine
 10
3263.3
 20
4488.9352
 30
0.0
 11
3287.299999999999
 21
4495.365999999999
 31
0.0
  0
LINE
  5
11A7
330
1E
100
AcDbEntity
  8
0
  6
Continuous
 62
     7
370
    13
100
AcDbLine
 10
3287.299999999999
 20
4495.365999999999
 30
0.0
 11
3263.3
 21
4501.796599999997
 31
0.0
  0
LINE
  5
11A8
330
1E
100
AcDbEntity
  8
0
  6
Continuous
 62
     7
370
    13
100
AcDbLine
 10
3187.5
 20
4495.368999999999
 30
0.0
 11
3139.5
 21
4495.368999999999
 31
0.0
  0
LINE
  5
11A9
330
1E
100
AcDbEntity
  8
0
  6
Continuous
 62
     7
370
    13
100
AcDbLine
 10
3163.5
 20
4488.9352
 30
0.0
 11
3187.5
 21
4495.365999999999
 31
0.0
  0
LINE
  5
11AA
330
1E
100
AcDbEntity
  8
0
  6
Continuous
 62
     7
370
    13
100
AcDbLine
 10
3187.5
 20
4495.365999999999
 30
0.0
 11
3163.5
 21
4501.796599999997
 31
0.0
  0
LINE
  5
11AB
330
1E
100
AcDbEntity
  8
0
  6
Continuous
 62
     7
370
    13
100
AcDbLine
 10
3139.5
 20
4495.368999999999
 30
0.0
 11
3153.9
 21
4495.368999999999
 31
0.0
  0
TEXT
  5
11AC
330
1E
100
AcDbEntity
  8
0
  6
Continuous
 62
     7
370
    13
100
AcDbText
 10
3180.055667632609
 20
4419.368999999996
 30
0.0
 40
64.0
  1
100
 41
0.875
  7
BIGFONT
100
AcDbText
  0
LINE
  5
11AD
330
1E
100
AcDbEntity
  8
0
  6
Continuous
 62
     7
370
    13
100
AcDbLine
 10
4787.034
 20
4495.368999999999
 30
0.0
 11
4887.500000000002
 21
4495.368999999999
 31
0.0
  0
LINE
  5
11AE
330
1E
100
AcDbEntity
  8
0
  6
Continuous
 62
     7
370
    13
100
AcDbLine
 10
4887.500000000002
 20
4825.364
 30
0.0
 11
4887.500000000002
 21
4475.368999999997
 31
0.0
  0
LINE
  5
11AF
330
1E
100
AcDbEntity
  8
0
  6
Continuous
 62
     7
370
    13
100
AcDbLine
 10
4787.034
 20
4825.364
 30
0.0
 11
4787.034
 21
4475.368999999997
 31
0.0
  0
LINE
  5
11B0
330
1E
100
AcDbEntity
  8
0
  6
Continuous
 62
     7
370
    13
100
AcDbLine
 10
4863.500000000001
 20
4488.9352
 30
0.0
 11
4887.500000000002
 21
4495.365999999999
 31
0.0
  0
LINE
  5
11B1
330
1E
100
AcDbEntity
  8
0
  6
Continuous
 62
     7
370
    13
100
AcDbLine
 10
4887.500000000002
 20
4495.365999999999
 30
0.0
 11
4863.500000000001
 21
4501.796599999997
 31
0.0
  0
LINE
  5
11B2
330
1E
100
AcDbEntity
  8
0
  6
Continuous
 62
     7
370
    13
100
AcDbLine
 10
4811.040000000001
 20
4501.796599999997
 30
0.0
 11
4787.040000000001
 21
4495.365999999999
 31
0.0
  0
LINE
  5
11B3
330
1E
100
AcDbEntity
  8
0
  6
Continuous
 62
     7
370
    13
100
AcDbLine
 10
4787.040000000001
 20
4495.365999999999
 30
0.0
 11
4811.040000000001
 21
4488.9352
 31
0.0
  0
TEXT
  5
11B4
330
1E
100
AcDbEntity
  8
0
  6
Continuous
 62
     7
370
    13
100
AcDbText
 10
4786.895715527633
 20
4419.368999999996
 30
0.0
 40
64.0
  1
100
 41
0.875
  7
BIGFONT
100
AcDbText
  0
LINE
  5
11B5
330
1E
100
AcDbEntity
  8
0
  6
Continuous
 62
     7
370
    13
100
AcDbLine
 10
4887.500000000002
 20
4495.368999999999
 30
0.0
 11
4983.638000000001
 21
4495.368999999999
 31
0.0
  0
LINE
  5
11B6
330
1E
100
AcDbEntity
  8
0
  6
Continuous
 62
     7
370
    13
100
AcDbLine
 10
4983.638000000001
 20
4495.368999999999
 30
0.0
 11
4983.638000000001
 21
4495.368999999999
 31
0.0
  0
LINE
  5
11B7
330
1E
100
AcDbEntity
  8
0
  6
Continuous
 62
     7
370
    13
100
AcDbLine
 10
4959.640000000002
 20
4488.9352
 30
0.0
 11
4983.640000000001
 21
4495.365999999999
 31
0.0
  0
LINE
  5
11B8
330
1E
100
AcDbEntity
  8
0
  6
Continuous
 62
     7
370
    13
100
AcDbLine
 10
4983.640000000001
 20
4495.365999999999
 30
0.0
 11
4959.640000000002
 21
4501.796599999997
 31
0.0
  0
LINE
  5
11B9
330
1E
100
AcDbEntity
  8
0
  6
Continuous
 62
     7
370
    13
100
AcDbLine
 10
4911.500000000001
 20
4501.796599999997
 30
0.0
 11
4887.500000000002
 21
4495.365999999999
 31
0.0
  0
LINE
  5
11BA
330
1E
100
AcDbEntity
  8
0
  6
Continuous
 62
     7
370
    13
100
AcDbLine
 10
4887.500000000002
 20
4495.365999999999
 30
0.0
 11
4911.500000000001
 21
4488.9352
 31
0.0
  0
TEXT
  5
11BB
330
1E
100
AcDbEntity
  8
0
  6
Continuous
 62
     7
370
    13
100
AcDbText
 10
4879.568999999998
 20
4507.368999999997
 30
0.0
 40
64.0
  1
95
 41
0.875
  7
BIGFONT
100
AcDbText
  0
LINE
  5
11BC
330
1E
100
AcDbEntity
  8
0
  6
Continuous
 62
     1
370
    25
100
AcDbLine
 10
1062.5
 20
2902.726000000001
 30
0.0
 11
1682.5
 21
2902.726000000001
 31
0.0
  0
LINE
  5
11BD
330
1E
100
AcDbEntity
  8
0
  6
Continuous
 62
     1
370
    25
100
AcDbLine
 10
1062.5
 20
1197.726
 30
0.0
 11
1272.5
 21
1197.726
 31
0.0
  0
LINE
  5
11BE
330
1E
100
AcDbEntity
  8
0
  6
Continuous
 62
     7
370
    13
100
AcDbLine
 10
1138.306
 20
2997.073
 30
0.0
 11
1138.306
 21
2900.961
 31
0.0
  0
LINE
  5
11BF
330
1E
100
AcDbEntity
  8
0
  6
Continuous
 62
     7
370
    13
100
AcDbLine
 10
1131.889400000002
 20
2924.966000000001
 30
0.0
 11
1138.320000000001
 21
2900.966
 31
0.0
  0
LINE
  5
11C0
330
1E
100
AcDbEntity
  8
0
  6
Continuous
 62
     7
370
    13
100
AcDbLine
 10
1138.320000000001
 20
2900.966
 30
0.0
 11
1144.750799999999
 21
2924.966000000001
 31
0.0
  0
LINE
  5
11C1
330
1E
100
AcDbEntity
  8
0
  6
Continuous
 62
     7
370
    13
100
AcDbLine
 10
1228.036000000002
 20
1101.939
 30
0.0
 11
1228.036000000002
 21
1197.547999999999
 31
0.0
  0
LINE
  5
11C2
330
1E
100
AcDbEntity
  8
0
  6
Continuous
 62
     7
370
    13
100
AcDbLine
 10
1234.470799999999
 20
1173.566
 30
0.0
 11
1228.040000000001
 21
1197.566000000002
 31
0.0
  0
LINE
  5
11C3
330
1E
100
AcDbEntity
  8
0
  6
Continuous
 62
     7
370
    13
100
AcDbLine
 10
1228.040000000001
 20
1197.566000000002
 30
0.0
 11
1221.609400000001
 21
1173.566
 31
0.0
  0
LINE
  5
11C4
330
1E
100
AcDbEntity
  8
0
  6
Continuous
 62
     7
370
    13
100
AcDbLine
 10
2238.725999999997
 20
2802.687
 30
0.0
 11
2238.725999999997
 21
2900.317000000001
 31
0.0
  0
LINE
  5
11C5
330
1E
100
AcDbEntity
  8
0
  6
Continuous
 62
     7
370
    13
100
AcDbLine
 10
1757.5
 20
2900.317000000001
 30
0.0
 11
2258.725999999999
 21
2900.317000000001
 31
0.0
  0
LINE
  5
11C6
330
1E
100
AcDbEntity
  8
0
  6
Continuous
 62
     7
370
    13
100
AcDbLine
 10
1757.5
 20
2802.687
 30
0.0
 11
2258.725999999999
 21
2802.687
 31
0.0
  0
LINE
  5
11C7
330
1E
100
AcDbEntity
  8
0
  6
Continuous
 62
     7
370
    13
100
AcDbLine
 10
2245.1708
 20
2876.325999999999
 30
0.0
 11
2238.740000000003
 21
2900.325999999999
 31
0.0
  0
LINE
  5
11C8
330
1E
100
AcDbEntity
  8
0
  6
Continuous
 62
     7
370
    13
100
AcDbLine
 10
2238.740000000003
 20
2900.325999999999
 30
0.0
 11
2232.309399999998
 21
2876.325999999999
 31
0.0
  0
LINE
  5
11C9
330
1E
100
AcDbEntity
  8
0
  6
Continuous
 62
     7
370
    13
100
AcDbLine
 10
2232.309399999998
 20
2826.706
 30
0.0
 11
2238.740000000003
 21
2802.706
 31
0.0
  0
LINE
  5
11CA
330
1E
100
AcDbEntity
  8
0
  6
Continuous
 62
     7
370
    13
100
AcDbLine
 10
2238.740000000003
 20
2802.706
 30
0.0
 11
2245.1708
 21
2826.706
 31
0.0
  0
TEXT
  5
11CB
330
1E
100
AcDbEntity
  8
0
  6
Continuous
 62
     7
370
    13
100
AcDbText
 10
2314.726000000001
 20
2793.779218969796
 30
0.0
 40
64.0
  1
100
 50
90.0
 41
0.875
  7
BIGFONT
100
AcDbText
  0
LINE
  5
11CC
330
1E
100
AcDbEntity
  8
0
  6
Continuous
 62
     7
370
    13
100
AcDbLine
 10
2238.725999999997
 20
2900.317000000001
 30
0.0
 11
2238.725999999997
 21
2995.317000000001
 31
0.0
  0
LINE
  5
11CD
330
1E
100
AcDbEntity
  8
0
  6
Continuous
 62
     7
370
    13
100
AcDbLine
 10
2238.725999999997
 20
2995.317000000001
 30
0.0
 11
2258.725999999999
 21
2995.317000000001
 31
0.0
  0
LINE
  5
11CE
330
1E
100
AcDbEntity
  8
0
  6
Continuous
 62
     7
370
    13
100
AcDbLine
 10
2245.1708
 20
2971.325999999999
 30
0.0
 11
2238.740000000003
 21
2995.326
 31
0.0
  0
LINE
  5
11CF
330
1E
100
AcDbEntity
  8
0
  6
Continuous
 62
     7
370
    13
100
AcDbLine
 10
2238.740000000003
 20
2995.326
 30
0.0
 11
2232.309399999998
 21
2971.325999999999
 31
0.0
  0
LINE
  5
11D0
330
1E
100
AcDbEntity
  8
0
  6
Continuous
 62
     7
370
    13
100
AcDbLine
 10
2232.309399999998
 20
2924.325999999999
 30
0.0
 11
2238.740000000003
 21
2900.325999999999
 31
0.0
  0
LINE
  5
11D1
330
1E
100
AcDbEntity
  8
0
  6
Continuous
 62
     7
370
    13
100
AcDbLine
 10
2238.740000000003
 20
2900.325999999999
 30
0.0
 11
2245.1708
 21
2924.325999999999
 31
0.0
  0
TEXT
  5
11D2
330
1E
100
AcDbEntity
  8
0
  6
Continuous
 62
     7
370
    13
100
AcDbText
 10
2226.726000000002
 20
2891.817000000001
 30
0.0
 40
64.0
  1
95
 50
90.0
 41
0.875
  7
BIGFONT
100
AcDbText
  0
LINE
  5
11D3
330
1E
100
AcDbEntity
  8
0
  6
Continuous
 62
     7
370
    13
100
AcDbLine
 10
2087.5
 20
1105.557000000001
 30
0.0
 11
2087.5
 21
1200.556999999999
 31
0.0
  0
LINE
  5
11D4
330
1E
100
AcDbEntity
  8
0
  6
Continuous
 62
     7
370
    13
100
AcDbLine
 10
1757.5
 20
1200.556999999999
 30
0.0
 11
2107.5
 21
1200.556999999999
 31
0.0
  0
LINE
  5
11D5
330
1E
100
AcDbEntity
  8
0
  6
Continuous
 62
     7
370
    13
100
AcDbLine
 10
2087.5
 20
1105.557000000001
 30
0.0
 11
2087.5
 21
1105.557000000001
 31
0.0
  0
LINE
  5
11D6
330
1E
100
AcDbEntity
  8
0
  6
Continuous
 62
     7
370
    13
100
AcDbLine
 10
2093.9308
 20
1176.566000000002
 30
0.0
 11
2087.5
 21
1200.566000000001
 31
0.0
  0
LINE
  5
11D7
330
1E
100
AcDbEntity
  8
0
  6
Continuous
 62
     7
370
    13
100
AcDbLine
 10
2087.5
 20
1200.566000000001
 30
0.0
 11
2081.0694
 21
1176.566000000002
 31
0.0
  0
LINE
  5
11D8
330
1E
100
AcDbEntity
  8
0
  6
Continuous
 62
     7
370
    13
100
AcDbLine
 10
2081.0694
 20
1129.566000000004
 30
0.0
 11
2087.5
 21
1105.566
 31
0.0
  0
LINE
  5
11D9
330
1E
100
AcDbEntity
  8
0
  6
Continuous
 62
     7
370
    13
100
AcDbLine
 10
2087.5
 20
1105.566
 30
0.0
 11
2093.9308
 21
1129.566000000004
 31
0.0
  0
TEXT
  5
11DA
330
1E
100
AcDbEntity
  8
0
  6
Continuous
 62
     7
370
    13
100
AcDbText
 10
2075.500000000004
 20
1097.057000000002
 30
0.0
 40
64.0
  1
95
 50
90.0
 41
0.875
  7
BIGFONT
100
AcDbText
  0
LINE
  5
11DB
330
1E
100
AcDbEntity
  8
0
  6
Continuous
 62
     7
370
    13
100
AcDbLine
 10
2087.5
 20
1200.556999999999
 30
0.0
 11
2087.5
 21
1296.833
 31
0.0
  0
LINE
  5
11DC
330
1E
100
AcDbEntity
  8
0
  6
Continuous
 62
     7
370
    13
100
AcDbLine
 10
1757.5
 20
1296.833
 30
0.0
 11
2107.5
 21
1296.833
 31
0.0
  0
LINE
  5
11DD
330
1E
100
AcDbEntity
  8
0
  6
Continuous
 62
     7
370
    13
100
AcDbLine
 10
2093.9308
 20
1272.846000000001
 30
0.0
 11
2087.5
 21
1296.846000000001
 31
0.0
  0
LINE
  5
11DE
330
1E
100
AcDbEntity
  8
0
  6
Continuous
 62
     7
370
    13
100
AcDbLine
 10
2087.5
 20
1296.846000000001
 30
0.0
 11
2081.0694
 21
1272.846000000001
 31
0.0
  0
LINE
  5
11DF
330
1E
100
AcDbEntity
  8
0
  6
Continuous
 62
     7
370
    13
100
AcDbLine
 10
2081.0694
 20
1224.566000000001
 30
0.0
 11
2087.5
 21
1200.566000000001
 31
0.0
  0
LINE
  5
11E0
330
1E
100
AcDbEntity
  8
0
  6
Continuous
 62
     7
370
    13
100
AcDbLine
 10
2087.5
 20
1200.566000000001
 30
0.0
 11
2093.9308
 21
1224.566000000001
 31
0.0
  0
TEXT
  5
11E1
330
1E
100
AcDbEntity
  8
0
  6
Continuous
 62
     7
370
    13
100
AcDbText
 10
2163.5
 20
1189.029154114441
 30
0.0
 40
64.0
  1
100
 50
90.0
 41
0.875
  7
BIGFONT
100
AcDbText
  0
LINE
  5
11E2
330
1E
100
AcDbEntity
  8
0
  6
Continuous
 62
     7
370
    13
100
AcDbLine
 10
638.1710000000002
 20
4892.672000000001
 30
0.0
 11
638.1710000000002
 21
4930.364
 31
0.0
  0
LINE
  5
11E3
330
1E
100
AcDbEntity
  8
0
  6
Continuous
 62
     7
370
    13
100
AcDbLine
 10
967.5
 20
4930.364
 30
0.0
 11
618.1710000000021
 21
4930.364
 31
0.0
  0
LINE
  5
11E4
330
1E
100
AcDbEntity
  8
0
  6
Continuous
 62
     7
370
    13
100
AcDbLine
 10
638.1710000000002
 20
4892.672000000001
 30
0.0
 11
638.1710000000002
 21
4892.672000000001
 31
0.0
  0
LINE
  5
11E5
330
1E
100
AcDbEntity
  8
0
  6
Continuous
 62
     7
370
    13
100
AcDbLine
 10
638.1710000000002
 20
4978.364000000001
 30
0.0
 11
638.1710000000002
 21
4930.364
 31
0.0
  0
LINE
  5
11E6
330
1E
100
AcDbEntity
  8
0
  6
Continuous
 62
     7
370
    13
100
AcDbLine
 10
631.7494000000024
 20
4954.346000000001
 30
0.0
 11
638.1800000000021
 21
4930.346000000001
 31
0.0
  0
LINE
  5
11E7
330
1E
100
AcDbEntity
  8
0
  6
Continuous
 62
     7
370
    13
100
AcDbLine
 10
638.1800000000021
 20
4930.346000000001
 30
0.0
 11
644.6108000000004
 21
4954.346000000001
 31
0.0
  0
LINE
  5
11E8
330
1E
100
AcDbEntity
  8
0
  6
Continuous
 62
     7
370
    13
100
AcDbLine
 10
638.1710000000002
 20
4892.672000000001
 30
0.0
 11
638.1710000000002
 21
4844.671999999999
 31
0.0
  0
LINE
  5
11E9
330
1E
100
AcDbEntity
  8
0
  6
Continuous
 62
     7
370
    13
100
AcDbLine
 10
644.6108000000004
 20
4868.666000000001
 30
0.0
 11
638.1800000000021
 21
4892.666000000001
 31
0.0
  0
LINE
  5
11EA
330
1E
100
AcDbEntity
  8
0
  6
Continuous
 62
     7
370
    13
100
AcDbLine
 10
638.1800000000021
 20
4892.666000000001
 30
0.0
 11
631.7494000000024
 21
4868.666000000001
 31
0.0
  0
LINE
  5
11EB
330
1E
100
AcDbEntity
  8
0
  6
Continuous
 62
     7
370
    13
100
AcDbLine
 10
638.1710000000002
 20
4844.671999999999
 30
0.0
 11
638.1710000000002
 21
4724.671999999999
 31
0.0
  0
TEXT
  5
11EC
330
1E
100
AcDbEntity
  8
0
  6
Continuous
 62
     7
370
    13
100
AcDbText
 10
626.1710000000021
 20
4724.671999999999
 30
0.0
 40
64.0
  1
39
 50
90.0
 41
0.875
  7
BIGFONT
100
AcDbText
  0
LINE
  5
11ED
330
1E
100
AcDbEntity
  8
0
  6
Continuous
 62
     7
370
    13
100
AcDbLine
 10
638.1710000000002
 20
4930.364
 30
0.0
 11
638.1710000000002
 21
5130.364000000001
 31
0.0
  0
LINE
  5
11EE
330
1E
100
AcDbEntity
  8
0
  6
Continuous
 62
     7
370
    13
100
AcDbLine
 10
967.5
 20
5130.364000000001
 30
0.0
 11
618.1710000000021
 21
5130.364000000001
 31
0.0
  0
LINE
  5
11EF
330
1E
100
AcDbEntity
  8
0
  6
Continuous
 62
     7
370
    13
100
AcDbLine
 10
644.6108000000004
 20
5106.345999999998
 30
0.0
 11
638.1800000000021
 21
5130.346000000001
 31
0.0
  0
LINE
  5
11F0
330
1E
100
AcDbEntity
  8
0
  6
Continuous
 62
     7
370
    13
100
AcDbLine
 10
638.1800000000021
 20
5130.346000000001
 30
0.0
 11
631.7494000000024
 21
5106.345999999998
 31
0.0
  0
TEXT
  5
11F1
330
1E
100
AcDbEntity
  8
0
  6
Continuous
 62
     7
370
    13
100
AcDbText
 10
626.1710000000021
 20
4960.528033359071
 30
0.0
 40
64.0
  1
200
 50
90.0
 41
0.875
  7
BIGFONT
100
AcDbText
  0
LINE
  5
11F2
330
1E
100
AcDbEntity
  8
0
  6
Continuous
 62
     7
370
    13
100
AcDbLine
 10
638.1710000000002
 20
5130.364000000001
 30
0.0
 11
638.1710000000002
 21
5330.364000000001
 31
0.0
  0
LINE
  5
11F3
330
1E
100
AcDbEntity
  8
0
  6
Continuous
 62
     7
370
    13
100
AcDbLine
 10
967.5
 20
5430.364
 30
0.0
 11
618.1710000000021
 21
5430.364
 31
0.0
  0
LINE
  5
11F4
330
1E
100
AcDbEntity
  8
0
  6
Continuous
 62
     7
370
    13
100
AcDbLine
 10
644.6108000000004
 20
5406.345999999999
 30
0.0
 11
638.1800000000021
 21
5430.345999999999
 31
0.0
  0
LINE
  5
11F5
330
1E
100
AcDbEntity
  8
0
  6
Continuous
 62
     7
370
    13
100
AcDbLine
 10
638.1800000000021
 20
5430.345999999999
 30
0.0
 11
631.7494000000024
 21
5406.345999999999
 31
0.0
  0
LINE
  5
11F6
330
1E
100
AcDbEntity
  8
0
  6
Continuous
 62
     7
370
    13
100
AcDbLine
 10
631.7494000000024
 20
5154.346000000002
 30
0.0
 11
638.1800000000021
 21
5130.346000000001
 31
0.0
  0
LINE
  5
11F7
330
1E
100
AcDbEntity
  8
0
  6
Continuous
 62
     7
370
    13
100
AcDbLine
 10
638.1800000000021
 20
5130.346000000001
 30
0.0
 11
644.6108000000004
 21
5154.346000000002
 31
0.0
  0
TEXT
  5
11F8
330
1E
100
AcDbEntity
  8
0
  6
Continuous
 62
     7
370
    13
100
AcDbText
 10
714.1710000000021
 20
5458.144489513229
 30
0.0
 40
64.0
  1
200
 50
90.0
 41
0.875
  7
BIGFONT
100
AcDbText
  0
LINE
  5
11F9
330
1E
100
AcDbEntity
  8
0
  6
Continuous
 62
     7
370
    13
100
AcDbLine
 10
638.1710000000002
 20
5330.364000000001
 30
0.0
 11
638.1710000000002
 21
5630.364000000001
 31
0.0
  0
LINE
  5
11FA
330
1E
100
AcDbEntity
  8
0
  6
Continuous
 62
     7
370
    13
100
AcDbLine
 10
967.5
 20
5630.364000000001
 30
0.0
 11
618.1710000000021
 21
5630.364000000001
 31
0.0
  0
LINE
  5
11FB
330
1E
100
AcDbEntity
  8
0
  6
Continuous
 62
     7
370
    13
100
AcDbLine
 10
644.6108000000004
 20
5606.345999999998
 30
0.0
 11
638.1800000000021
 21
5630.346000000001
 31
0.0
  0
LINE
  5
11FC
330
1E
100
AcDbEntity
  8
0
  6
Continuous
 62
     7
370
    13
100
AcDbLine
 10
638.1800000000021
 20
5630.346000000001
 30
0.0
 11
631.7494000000024
 21
5606.345999999998
 31
0.0
  0
LINE
  5
11FD
330
1E
100
AcDbEntity
  8
0
  6
Continuous
 62
     7
370
    13
100
AcDbLine
 10
631.7494000000024
 20
5454.346000000001
 30
0.0
 11
638.1800000000021
 21
5430.345999999999
 31
0.0
  0
LINE
  5
11FE
330
1E
100
AcDbEntity
  8
0
  6
Continuous
 62
     7
370
    13
100
AcDbLine
 10
638.1800000000021
 20
5430.345999999999
 30
0.0
 11
644.6108000000004
 21
5454.346000000001
 31
0.0
  0
TEXT
  5
11FF
330
1E
100
AcDbEntity
  8
0
  6
Continuous
 62
     7
370
    13
100
AcDbText
 10
626.1710000000021
 20
5223.788868538893
 30
0.0
 40
64.0
  1
300
 50
90.0
 41
0.875
  7
BIGFONT
100
AcDbText
  0
LINE
  5
1200
330
1E
100
AcDbEntity
  8
0
  6
Continuous
 62
     7
370
    13
100
AcDbLine
 10
638.1710000000002
 20
5630.364000000001
 30
0.0
 11
638.1710000000002
 21
5789.364
 31
0.0
  0
LINE
  5
1201
330
1E
100
AcDbEntity
  8
0
  6
Continuous
 62
     7
370
    13
100
AcDbLine
 10
638.1710000000002
 20
5789.364
 30
0.0
 11
638.1710000000002
 21
5789.364
 31
0.0
  0
LINE
  5
1202
330
1E
100
AcDbEntity
  8
0
  6
Continuous
 62
     7
370
    13
100
AcDbLine
 10
644.6108000000004
 20
5765.346000000001
 30
0.0
 11
638.1800000000021
 21
5789.346000000001
 31
0.0
  0
LINE
  5
1203
330
1E
100
AcDbEntity
  8
0
  6
Continuous
 62
     7
370
    13
100
AcDbLine
 10
638.1800000000021
 20
5789.346000000001
 30
0.0
 11
631.7494000000024
 21
5765.346000000001
 31
0.0
  0
LINE
  5
1204
330
1E
100
AcDbEntity
  8
0
  6
Continuous
 62
     7
370
    13
100
AcDbLine
 10
631.7494000000024
 20
5654.346000000002
 30
0.0
 11
638.1800000000021
 21
5630.346000000001
 31
0.0
  0
LINE
  5
1205
330
1E
100
AcDbEntity
  8
0
  6
Continuous
 62
     7
370
    13
100
AcDbLine
 10
638.1800000000021
 20
5630.346000000001
 30
0.0
 11
644.6108000000004
 21
5654.346000000002
 31
0.0
  0
TEXT
  5
1206
330
1E
100
AcDbEntity
  8
0
  6
Continuous
 62
     7
370
    13
100
AcDbText
 10
626.1710000000021
 20
5642.388695806696
 30
0.0
 40
64.0
  1
160
 50
90.0
 41
0.875
  7
BIGFONT
100
AcDbText
  0
LINE
  5
1207
330
1E
100
AcDbEntity
  8
0
  6
Continuous
 62
     7
370
    13
100
AcDbLine
 10
3742.251999999999
 20
5629.364
 30
0.0
 11
3742.251999999999
 21
5789.364
 31
0.0
  0
LINE
  5
1208
330
1E
100
AcDbEntity
  8
0
  6
Continuous
 62
     7
370
    13
100
AcDbLine
 10
3748.690800000001
 20
5765.346000000001
 30
0.0
 11
3742.26
 21
5789.346000000001
 31
0.0
  0
LINE
  5
1209
330
1E
100
AcDbEntity
  8
0
  6
Continuous
 62
     7
370
    13
100
AcDbLine
 10
3742.26
 20
5789.346000000001
 30
0.0
 11
3735.829399999999
 21
5765.346000000001
 31
0.0
  0
LINE
  5
120A
330
1E
100
AcDbEntity
  8
0
  6
Continuous
 62
     7
370
    13
100
AcDbLine
 10
3742.251999999999
 20
5329.364
 30
0.0
 11
3742.251999999999
 21
5630.364000000001
 31
0.0
  0
LINE
  5
120B
330
1E
100
AcDbEntity
  8
0
  6
Continuous
 62
     7
370
    13
100
AcDbLine
 10
3748.690800000001
 20
5606.345999999998
 30
0.0
 11
3742.26
 21
5630.346000000001
 31
0.0
  0
LINE
  5
120C
330
1E
100
AcDbEntity
  8
0
  6
Continuous
 62
     7
370
    13
100
AcDbLine
 10
3742.26
 20
5630.346000000001
 30
0.0
 11
3735.829399999999
 21
5606.345999999998
 31
0.0
  0
LINE
  5
120D
330
1E
100
AcDbEntity
  8
0
  6
Continuous
 62
     7
370
    13
100
AcDbLine
 10
3742.251999999999
 20
5129.364
 30
0.0
 11
3742.251999999999
 21
5330.364000000001
 31
0.0
  0
LINE
  5
120E
330
1E
100
AcDbEntity
  8
0
  6
Continuous
 62
     7
370
    13
100
AcDbLine
 10
3748.690800000001
 20
5406.345999999999
 30
0.0
 11
3742.26
 21
5430.345999999999
 31
0.0
  0
LINE
  5
120F
330
1E
100
AcDbEntity
  8
0
  6
Continuous
 62
     7
370
    13
100
AcDbLine
 10
3742.26
 20
5430.345999999999
 30
0.0
 11
3735.829399999999
 21
5406.345999999999
 31
0.0
  0
LINE
  5
1210
330
1E
100
AcDbEntity
  8
0
  6
Continuous
 62
     7
370
    13
100
AcDbLine
 10
3742.251999999999
 20
4929.363999999999
 30
0.0
 11
3742.251999999999
 21
5130.364000000001
 31
0.0
  0
LINE
  5
1211
330
1E
100
AcDbEntity
  8
0
  6
Continuous
 62
     7
370
    13
100
AcDbLine
 10
3748.690800000001
 20
5106.345999999998
 30
0.0
 11
3742.26
 21
5130.346000000001
 31
0.0
  0
LINE
  5
1212
330
1E
100
AcDbEntity
  8
0
  6
Continuous
 62
     7
370
    13
100
AcDbLine
 10
3742.26
 20
5130.346000000001
 30
0.0
 11
3735.829399999999
 21
5106.345999999998
 31
0.0
  0
LINE
  5
1213
330
1E
100
AcDbEntity
  8
0
  6
Continuous
 62
     1
370
    25
100
AcDbLine
 10
1062.5
 20
2912.726000000001
 30
0.0
 11
1682.5
 21
2912.726000000001
 31
0.0
  0
LINE
  5
1214
330
1E
100
AcDbEntity
  8
0
  6
Continuous
 62
     7
370
    13
100
AcDbLine
 10
1189.181936364466
 20
3411.371114592777
 30
0.0
 11
1189.181936364466
 21
2912.726000000001
 31
0.0
  0
LINE
  5
1215
330
1E
100
AcDbEntity
  8
0
  6
Continuous
 62
     7
370
    13
100
AcDbLine
 10
1189.181936364466
 20
3411.371114592777
 30
0.0
 11
1550.478936364463
 21
3411.371114592777
 31
0.0
  0
TEXT
  5
1216
330
1E
100
AcDbEntity
  8
0
  6
Continuous
 62
     7
370
    13
100
AcDbText
 10
1288.276936364465
 20
3434.003114592777
 30
0.0
 40
40.0
  1
９
  7
BIGFONT
100
AcDbText
  0
CIRCLE
  5
1217
330
1E
100
AcDbEntity
  8
0
  6
Continuous
 62
     7
370
    13
100
AcDbCircle
 10
1281.643936364466
 20
3466.351114592777
 30
0.0
 40
55.0
  0
TEXT
  5
1218
330
1E
100
AcDbEntity
  8
0
  6
Continuous
 62
     7
370
    13
100
AcDbText
 10
1227.966936364466
 20
3429.222114592778
 30
0.0
 40
72.0
  1
Ｓ
  7
BIGFONT
100
AcDbText
  0
TEXT
  5
1219
330
1E
100
AcDbEntity
  8
0
  6
Continuous
 62
     7
370
    13
100
AcDbText
 10
1372.270936364464
 20
3434.187114592777
 30
0.0
 40
64.0
  1
D10
  7
BIGFONT
100
AcDbText
  0
LINE
  5
121A
330
1E
100
AcDbEntity
  8
0
  6
Continuous
 62
     7
370
    13
100
AcDbLine
 10
1189.185936364467
 20
2912.726000000001
 30
0.0
 11
1195.616736364467
 21
2936.726000000001
 31
0.0
  0
LINE
  5
121B
330
1E
100
AcDbEntity
  8
0
  6
Continuous
 62
     7
370
    13
100
AcDbLine
 10
1182.755336364465
 20
2936.726000000001
 30
0.0
 11
1189.185936364467
 21
2912.726000000001
 31
0.0
  0
LINE
  5
121C
330
1E
100
AcDbEntity
  8
2
  6
Continuous
 62
     7
370
    13
100
AcDbLine
 10
2899.096
 20
1755.394
 30
0.0
 11
5119.095999999999
 21
1755.394
 31
0.0
  0
CIRCLE
  5
121D
330
1E
100
AcDbEntity
  8
2
  6
Continuous
 62
     7
370
    13
100
AcDbCircle
 10
3009.096000000001
 20
1695.394
 30
0.0
 40
52.0
  0
TEXT
  5
121E
330
1E
100
AcDbEntity
  8
2
  6
Continuous
 62
     7
370
    13
100
AcDbText
 10
3016.056000000002
 20
1663.588
 30
0.0
 40
40.0
  1
９
  7
BIGFONT
100
AcDbText
  0
TEXT
  5
121F
330
1E
100
AcDbEntity
  8
2
  6
Continuous
 62
     7
370
    13
100
AcDbText
 10
2954.584000000001
 20
1656.559999999999
 30
0.0
 40
80.0
  1
Ｓ
  7
BIGFONT
100
AcDbText
  0
TEXT
  5
1220
330
1E
100
AcDbEntity
  8
2
  6
Continuous
 62
     7
370
    13
100
AcDbText
 10
3160.280000000003
 20
1659.433999999999
 30
0.0
 40
64.0
  1
D10
  7
BIGFONT
100
AcDbText
  0
TEXT
  5
1221
330
1E
100
AcDbEntity
  8
2
  6
Continuous
 62
     7
370
    13
100
AcDbText
 10
3480.428905377383
 20
1659.646000000001
 30
0.0
 40
64.0
  1
630
  7
BIGFONT
100
AcDbText
  0
TEXT
  5
1222
330
1E
100
AcDbEntity
  8
2
  6
Continuous
 62
     7
370
    13
100
AcDbText
 10
3799.963999999999
 20
1660.444000000001
 30
0.0
 40
64.0
  1
2
  7
BIGFONT
100
AcDbText
  0
TEXT
  5
1223
330
1E
100
AcDbEntity
  8
2
  6
Continuous
 62
     7
370
    13
100
AcDbText
 10
4030.941999999998
 20
1660.326000000003
 30
0.0
 40
64.0
  1
0.560
  7
BIGFONT
100
AcDbText
  0
TEXT
  5
1224
330
1E
100
AcDbEntity
  8
2
  6
Continuous
 62
     7
370
    13
100
AcDbText
 10
4506.511999999998
 20
1660.416000000003
 30
0.0
 40
64.0
  1
0.71
  7
BIGFONT
100
AcDbText
  0
LINE
  5
1225
330
1E
100
AcDbEntity
  8
2
  6
Continuous
 62
     7
370
    13
100
AcDbLine
 10
4896.316000000001
 20
1696.026000000001
 30
0.0
 11
5051.191999999997
 21
1696.026000000001
 31
0.0
  0
TEXT
  5
1226
330
1E
100
AcDbEntity
  8
2
  6
Continuous
 62
     7
370
    13
100
AcDbText
 10
9789.465309794966
 20
1909.83
 30
0.0
 40
50.0
  1
kN/m
 41
0.7
  7
BIGFONT
100
AcDbText
  0
TEXT
  5
1227
330
1E
100
AcDbEntity
  8
2
  6
Continuous
 62
     7
370
    13
100
AcDbText
 10
9789.465309794966
 20
1789.83
 30
0.0
 40
50.0
  1
kN/m
 41
0.7
  7
BIGFONT
100
AcDbText
  0
TEXT
  5
1228
330
1E
100
AcDbEntity
  8
2
  6
Continuous
 62
     7
370
    13
100
AcDbText
 10
9792.65564496811
 20
1549.276
 30
0.0
 40
50.0
  1
N/mm
 41
0.7
  7
BIGFONT
100
AcDbText
  0
TEXT
  5
1229
330
1E
100
AcDbEntity
  8
2
  6
Continuous
 62
     7
370
    13
100
AcDbText
 10
9924.398073276421
 20
1585.111999999999
 30
0.0
 40
26.0
  1
２
  7
BIGFONT
100
AcDbText
  0
TEXT
  5
122A
330
1E
100
AcDbEntity
  8
2
  6
Continuous
 62
     7
370
    13
100
AcDbText
 10
9792.65564496811
 20
1429.276000000001
 30
0.0
 40
50.0
  1
N/mm
 41
0.7
  7
BIGFONT
100
AcDbText
  0
TEXT
  5
122B
330
1E
100
AcDbEntity
  8
2
  6
Continuous
 62
     7
370
    13
100
AcDbText
 10
9924.398073276421
 20
1465.112000000001
 30
0.0
 40
26.0
  1
２
  7
BIGFONT
100
AcDbText
  0
TEXT
  5
122C
330
1E
100
AcDbEntity
  8
2
  6
Continuous
 62
     7
370
    13
100
AcDbText
 10
9792.65564496811
 20
1309.276000000001
 30
0.0
 40
50.0
  1
N/mm
 41
0.7
  7
BIGFONT
100
AcDbText
  0
TEXT
  5
122D
330
1E
100
AcDbEntity
  8
2
  6
Continuous
 62
     7
370
    13
100
AcDbText
 10
9924.398073276421
 20
1345.112000000001
 30
0.0
 40
26.0
  1
２
  7
BIGFONT
100
AcDbText
  0
LINE
  5
122E
330
1E
100
AcDbEntity
  8
0
  6
Continuous
 62
     1
370
    25
100
AcDbLine
 10
4899.636107110595
 20
5259.364000000001
 30
0.0
 11
4899.636107110595
 21
5709.364
 31
0.0
  0
LINE
  5
122F
330
1E
100
AcDbEntity
  8
0
  6
Continuous
 62
     1
370
    25
100
AcDbLine
 10
3175.363892889407
 20
5259.364000000001
 30
0.0
 11
3175.363892889407
 21
5709.364
 31
0.0
  0
CIRCLE
  5
1230
330
1E
100
AcDbEntity
  8
0
  6
Continuous
 62
     7
370
    13
100
AcDbCircle
 10
5148.966000000002
 20
5468.754825061899
 30
0.0
 40
55.0
  0
TEXT
  5
1231
330
1E
100
AcDbEntity
  8
0
  6
Continuous
 62
     7
370
    13
100
AcDbText
 10
5097.288999999999
 20
5431.625825061898
 30
0.0
 40
72.0
  1
Ｓ
  7
BIGFONT
100
AcDbText
  0
TEXT
  5
1232
330
1E
100
AcDbEntity
  8
0
  6
Continuous
 62
     7
370
    13
100
AcDbText
 10
5157.441000000001
 20
5437.3808250619
 30
0.0
 40
40.0
  1
10
 41
0.8
  7
BIGFONT
100
AcDbText
  0
TEXT
  5
1233
330
1E
100
AcDbEntity
  8
0
  6
Continuous
 62
     7
370
    13
100
AcDbText
 10
5253.835000000001
 20
5434.634825061899
 30
0.0
 40
64.0
  1
D10
  7
BIGFONT
100
AcDbText
  0
LINE
  5
1234
330
1E
100
AcDbEntity
  8
0
  6
Continuous
 62
     7
370
    13
100
AcDbLine
 10
5441.538000000003
 20
5413.773825061901
 30
0.0
 11
3175.363892889407
 21
5413.773825061901
 31
0.0
  0
LINE
  5
1235
330
1E
100
AcDbEntity
  8
0
  6
Continuous
 62
     7
370
    13
100
AcDbLine
 10
3199.363892889407
 20
5420.2044250619
 30
0.0
 11
3175.363892889407
 21
5413.773825061901
 31
0.0
  0
LINE
  5
1236
330
1E
100
AcDbEntity
  8
0
  6
Continuous
 62
     7
370
    13
100
AcDbLine
 10
3175.363892889407
 20
5413.773825061901
 30
0.0
 11
3199.363892889407
 21
5407.3430250619
 31
0.0
  0
LINE
  5
1237
330
1E
100
AcDbEntity
  8
0
  6
Continuous
 62
     7
370
    13
100
AcDbLine
 10
4923.636107110595
 20
5420.2044250619
 30
0.0
 11
4899.636107110595
 21
5413.773825061901
 31
0.0
  0
LINE
  5
1238
330
1E
100
AcDbEntity
  8
0
  6
Continuous
 62
     7
370
    13
100
AcDbLine
 10
4899.636107110595
 20
5413.773825061901
 30
0.0
 11
4923.636107110595
 21
5407.3430250619
 31
0.0
  0
LINE
  5
1239
330
1E
100
AcDbEntity
  8
2
  6
Continuous
 62
     7
370
    13
100
AcDbLine
 10
2899.096
 20
1516.658000000003
 30
0.0
 11
5119.095999999999
 21
1516.658000000003
 31
0.0
  0
CIRCLE
  5
123A
330
1E
100
AcDbEntity
  8
2
  6
Continuous
 62
     7
370
    13
100
AcDbCircle
 10
3009.096000000001
 20
1576.026000000001
 30
0.0
 40
52.0
  0
TEXT
  5
123B
330
1E
100
AcDbEntity
  8
2
  6
Continuous
 62
     7
370
    13
100
AcDbText
 10
3016.056000000002
 20
1544.220000000001
 30
0.0
 40
40.0
  1
10
 41
0.8
  7
BIGFONT
100
AcDbText
  0
TEXT
  5
123C
330
1E
100
AcDbEntity
  8
2
  6
Continuous
 62
     7
370
    13
100
AcDbText
 10
2954.584000000001
 20
1537.192000000001
 30
0.0
 40
80.0
  1
Ｓ
  7
BIGFONT
100
AcDbText
  0
TEXT
  5
123D
330
1E
100
AcDbEntity
  8
2
  6
Continuous
 62
     7
370
    13
100
AcDbText
 10
3160.280000000003
 20
1540.066000000001
 30
0.0
 40
64.0
  1
D10
  7
BIGFONT
100
AcDbText
  0
TEXT
  5
123E
330
1E
100
AcDbEntity
  8
2
  6
Continuous
 62
     7
370
    13
100
AcDbText
 10
3480.428905377383
 20
1540.278000000002
 30
0.0
 40
64.0
  1
400
  7
BIGFONT
100
AcDbText
  0
TEXT
  5
123F
330
1E
100
AcDbEntity
  8
2
  6
Continuous
 62
     7
370
    13
100
AcDbText
 10
3799.963999999999
 20
1541.076000000003
 30
0.0
 40
64.0
  1
2
  7
BIGFONT
100
AcDbText
  0
TEXT
  5
1240
330
1E
100
AcDbEntity
  8
2
  6
Continuous
 62
     7
370
    13
100
AcDbText
 10
4030.941999999998
 20
1540.958000000004
 30
0.0
 40
64.0
  1
0.560
  7
BIGFONT
100
AcDbText
  0
TEXT
  5
1241
330
1E
100
AcDbEntity
  8
2
  6
Continuous
 62
     7
370
    13
100
AcDbText
 10
4506.511999999998
 20
1541.048000000004
 30
0.0
 40
64.0
  1
0.45
  7
BIGFONT
100
AcDbText
  0
LINE
  5
1242
330
1E
100
AcDbEntity
  8
2
  6
Continuous
 62
     7
370
    13
100
AcDbLine
 10
4960.464000000001
 20
1555.372000000005
 30
0.0
 11
4960.464000000001
 21
1585.372000000005
 31
0.0
  0
ENDSEC
  0
SECTION
  2
OBJECTS
  0
DICTIONARY
  5
C
330
0
100
AcDbDictionary
281
     1
  3
ACAD_COLOR
350
689
  3
ACAD_GROUP
350
D
  3
ACAD_LAYOUT
350
68C
  3
ACAD_MATERIAL
350
674
  3
ACAD_MLINESTYLE
350
16
  3
ACAD_PLOTSETTINGS
350
18
  3
ACAD_PLOTSTYLENAME
350
672
  3
ACAD_TABLESTYLE
350
68A
  3
ACAD_VISUALSTYLE
350
678
  3
AcDbVariableDictionary
350
1243
  3
DWGPROPS
350
1248
1001
ACAD
1000
TREAT_AS_HARD
1070
     0
1000
TREAT_AS_HARD
1070
     0
1000
TREAT_AS_HARD
1070
     0
1000
TREAT_AS_HARD
1070
     0
1000
TREAT_AS_HARD
1070
     0
1000
TREAT_AS_HARD
1070
     0
1000
TREAT_AS_HARD
1070
     0
1000
TREAT_AS_HARD
1070
     0
  0
DICTIONARY
  5
5F2
330
1E
100
AcDbDictionary
281
     1
  3
ACAD_LAYOUTSELFREF
350
66E
1001
ACAD
1000
TREAT_AS_HARD
1070
     0
1000
TREAT_AS_HARD
1070
     0
1000
TREAT_AS_HARD
1070
     0
1000
TREAT_AS_HARD
1070
     0
1000
TREAT_AS_HARD
1070
     0
1000
TREAT_AS_HARD
1070
     0
1000
TREAT_AS_HARD
1070
     0
  0
DICTIONARY
  5
5F0
330
1A
100
AcDbDictionary
281
     1
  3
ACAD_LAYOUTSELFREF
350
66D
1001
ACAD
1000
TREAT_AS_HARD
1070
     0
1000
TREAT_AS_HARD
1070
     0
1000
TREAT_AS_HARD
1070
     0
1000
TREAT_AS_HARD
1070
     0
1000
TREAT_AS_HARD
1070
     0
1000
TREAT_AS_HARD
1070
     0
1000
TREAT_AS_HARD
1070
     0
  0
DICTIONARY
  5
689
102
{ACAD_REACTORS
330
C
102
}
330
C
100
AcDbDictionary
281
     1
  0
DICTIONARY
  5
D
102
{ACAD_REACTORS
330
C
102
}
330
C
100
AcDbDictionary
281
     1
1001
ACAD
1000
TREAT_AS_HARD
1070
     0
1000
TREAT_AS_HARD
1070
     0
1000
TREAT_AS_HARD
1070
     0
1000
TREAT_AS_HARD
1070
     0
1000
TREAT_AS_HARD
1070
     0
1000
TREAT_AS_HARD
1070
     0
1000
TREAT_AS_HARD
1070
     0
1000
TREAT_AS_HARD
1070
     0
  0
DICTIONARY
  5
68C
102
{ACAD_REACTORS
330
C
102
}
330
C
100
AcDbDictionary
281
     1
  3
Model
350
68D
  3
レイアウト1
350
68E
  0
DICTIONARY
  5
674
102
{ACAD_REACTORS
330
C
102
}
330
C
100
AcDbDictionary
281
     1
  3
ByBlock
350
676
  3
ByLayer
350
675
  3
Global
350
677
  0
DICTIONARY
  5
16
102
{ACAD_REACTORS
330
C
102
}
330
C
100
AcDbDictionary
281
     1
  3
STANDARD
350
17
1001
ACAD
1000
TREAT_AS_HARD
1070
     0
1000
TREAT_AS_HARD
1070
     0
1000
TREAT_AS_HARD
1070
     0
1000
TREAT_AS_HARD
1070
     0
1000
TREAT_AS_HARD
1070
     0
1000
TREAT_AS_HARD
1070
     0
1000
TREAT_AS_HARD
1070
     0
1000
TREAT_AS_HARD
1070
     0
  0
DICTIONARY
  5
18
102
{ACAD_REACTORS
330
C
102
}
330
C
100
AcDbDictionary
281
     1
1001
ACAD
1000
TREAT_AS_HARD
1070
     0
1000
TREAT_AS_HARD
1070
     0
1000
TREAT_AS_HARD
1070
     0
1000
TREAT_AS_HARD
1070
     0
1000
TREAT_AS_HARD
1070
     0
1000
TREAT_AS_HARD
1070
     0
1000
TREAT_AS_HARD
1070
     0
1000
TREAT_AS_HARD
1070
     0
  0
ACDBDICTIONARYWDFLT
  5
672
102
{ACAD_REACTORS
330
C
102
}
330
C
100
AcDbDictionary
281
     1
  3
Normal
350
673
100
AcDbDictionaryWithDefault
340
673
  0
DICTIONARY
  5
68A
102
{ACAD_REACTORS
330
C
102
}
330
C
100
AcDbDictionary
281
     1
  3
Standard
350
68B
  0
DICTIONARY
  5
678
102
{ACAD_REACTORS
330
C
102
}
330
C
100
AcDbDictionary
281
     1
  3
2dWireframe
350
67E
  3
3D Hidden
350
680
  3
3dWireframe
350
67F
  3
Basic
350
67D
  3
Brighten
350
684
  3
ColorChange
350
688
  3
Conceptual
350
681
  3
Dim
350
683
  3
Facepattern
350
687
  3
Flat
350
679
  3
FlatWithEdges
350
67A
  3
Gouraud
350
67B
  3
GouraudWithEdges
350
67C
  3
Linepattern
350
686
  3
Realistic
350
682
  3
Thicken
350
685
  0
DICTIONARY
  5
1243
102
{ACAD_REACTORS
330
C
102
}
330
C
100
AcDbDictionary
281
     1
  3
CTABLESTYLE
350
1244
  3
DIMASSOC
350
1247
  3
INDEXCTL
350
1246
  3
SORTENTS
350
1245
  0
XRECORD
  5
1248
102
{ACAD_REACTORS
330
C
102
}
330
C
100
AcDbXrecord
280
     1
  1
DWGPROPS COOKIE
  2

  3

  4

  6

  7

  8
段本
  9

300
=
301
=
302
=
303
=
304
=
305
=
306
=
307
=
308
=
309
=
 40
0.0451558217592593
 41
2452128.680599306
 42
2455111.367118055
  1

 90
        0
  0
XRECORD
  5
66E
102
{ACAD_REACTORS
330
5F2
102
}
330
5F2
100
AcDbXrecord
280
     1
340
1E
  0
XRECORD
  5
66D
102
{ACAD_REACTORS
330
5F0
102
}
330
5F0
100
AcDbXrecord
280
     1
340
1A
  0
LAYOUT
  5
68D
102
{ACAD_XDICTIONARY
360
1251
102
}
102
{ACAD_REACTORS
330
68C
102
}
330
68C
100
AcDbPlotSettings
  1

  2
自動 RICOH IPSiO NX700 RPDL (YOUR-5FBDA9497F 上)
  4

  6

 40
0.0
 41
0.0
 42
0.0
 43
0.0
 44
0.0
 45
0.0
 46
0.0
 47
0.0
 48
0.0
 49
0.0
140
0.0
141
0.0
142
1.0
143
1.0
 70
  1712
 72
     0
 73
     0
 74
     0
  7

 75
     0
147
1.0
148
0.0
149
0.0
100
AcDbLayout
  1
Model
 70
     1
 71
     0
 10
0.0
 20
0.0
 11
12.0
 21
9.0
 12
0.0
 22
0.0
 32
0.0
 14
0.0
 24
0.0
 34
0.0
 15
0.0
 25
0.0
 35
0.0
146
0.0
 13
0.0
 23
0.0
 33
0.0
 16
1.0
 26
0.0
 36
0.0
 17
0.0
 27
1.0
 37
0.0
 76
     0
330
1E
331
66C
  0
LAYOUT
  5
68E
102
{ACAD_XDICTIONARY
360
1253
102
}
102
{ACAD_REACTORS
330
68C
102
}
330
68C
100
AcDbPlotSettings
  1

  2
自動 RICOH IPSiO NX700 RPDL (YOUR-5FBDA9497F 上)
  4

  6

 40
0.0
 41
0.0
 42
0.0
 43
0.0
 44
0.0
 45
0.0
 46
0.0
 47
0.0
 48
0.0
 49
0.0
140
0.0
141
0.0
142
1.0
143
1.0
 70
   688
 72
     0
 73
     0
 74
     5
  7

 75
    16
147
1.0
148
0.0
149
0.0
100
AcDbLayout
  1
レイアウト1
 70
     1
 71
     1
 10
0.0
 20
0.0
 11
12.0
 21
9.0
 12
0.0
 22
0.0
 32
0.0
 14
1.000000000000000E+20
 24
1.000000000000000E+20
 34
1.000000000000000E+20
 15
-1.000000000000000E+20
 25
-1.000000000000000E+20
 35
-1.000000000000000E+20
146
0.0
 13
0.0
 23
0.0
 33
0.0
 16
1.0
 26
0.0
 36
0.0
 17
0.0
 27
1.0
 37
0.0
 76
     0
330
1A
  0
MATERIAL
  5
676
102
{ACAD_XDICTIONARY
360
124B
102
}
102
{ACAD_REACTORS
330
674
102
}
330
674
100
AcDbMaterial
  1
ByBlock
  0
MATERIAL
  5
675
102
{ACAD_XDICTIONARY
360
1249
102
}
102
{ACAD_REACTORS
330
674
102
}
330
674
100
AcDbMaterial
  1
ByLayer
  0
MATERIAL
  5
677
102
{ACAD_XDICTIONARY
360
124D
102
}
102
{ACAD_REACTORS
330
674
102
}
330
674
100
AcDbMaterial
  1
Global
  0
MLINESTYLE
  5
17
102
{ACAD_REACTORS
330
16
102
}
330
16
100
AcDbMlineStyle
  2
STANDARD
 70
     0
  3

 62
   256
 51
90.0
 52
90.0
 71
     2
 49
0.5
 62
   256
  6
BYLAYER
 49
-0.5
 62
   256
  6
BYLAYER
  0
ACDBPLACEHOLDER
  5
673
102
{ACAD_REACTORS
330
672
102
}
330
672
  0
TABLESTYLE
  5
68B
102
{ACAD_XDICTIONARY
360
124F
102
}
102
{ACAD_REACTORS
330
68A
102
}
330
68A
100
AcDbTableStyle
  3
Standard
 70
     0
 71
     0
 40
0.06
 41
0.06
280
     0
281
     0
  7
STANDARD
140
0.18
170
     2
 62
     0
 63
     7
283
     0
274
    -2
284
     1
 64
     0
275
    -2
285
     1
 65
     0
276
    -2
286
     1
 66
     0
277
    -2
287
     1
 67
     0
278
    -2
288
     1
 68
     0
279
    -2
289
     1
 69
     0
  7
STANDARD
140
0.25
170
     5
 62
     0
 63
     7
283
     0
274
    -2
284
     1
 64
     0
275
    -2
285
     1
 65
     0
276
    -2
286
     1
 66
     0
277
    -2
287
     1
 67
     0
278
    -2
288
     1
 68
     0
279
    -2
289
     1
 69
     0
  7
STANDARD
140
0.18
170
     5
 62
     0
 63
     7
283
     0
274
    -2
284
     1
 64
     0
275
    -2
285
     1
 65
     0
276
    -2
286
     1
 66
     0
277
    -2
287
     1
 67
     0
278
    -2
288
     1
 68
     0
279
    -2
289
     1
 69
     0
  0
VISUALSTYLE
  5
67E
102
{ACAD_REACTORS
330
678
102
}
330
678
100
AcDbVisualStyle
  2
2dWireframe
 70
     4
 71
     0
 72
     2
 73
     0
 90
        0
 40
-0.6
 41
-30.0
 62
     5
 63
     7
 74
     1
 91
        4
 64
     7
 65
   257
 75
     1
175
     1
 42
1.0
 92
        0
 66
   257
 43
1.0
 76
     1
 77
     6
 78
     2
 67
     7
 79
     5
170
     0
171
     0
290
     0
174
     0
 93
        1
 44
0.0
173
     0
291
     0
 45
0.0
1001
ACAD
1000
AcDbSavedByObjectVersion
1070
     0
  0
VISUALSTYLE
  5
680
102
{ACAD_REACTORS
330
678
102
}
330
678
100
AcDbVisualStyle
  2
3D Hidden
 70
     6
 71
     1
 72
     2
 73
     2
 90
        0
 40
-0.6
 41
-30.0
 62
     5
 63
     7
 74
     2
 91
        2
 64
     7
 65
   257
 75
     2
175
     1
 42
40.0
 92
        0
 66
   257
 43
1.0
 76
     1
 77
     6
 78
     2
 67
     7
 79
     3
170
     0
171
     0
290
     0
174
     0
 93
        1
 44
0.0
173
     0
291
     0
 45
0.0
1001
ACAD
1000
AcDbSavedByObjectVersion
1070
     0
  0
VISUALSTYLE
  5
67F
102
{ACAD_REACTORS
330
678
102
}
330
678
100
AcDbVisualStyle
  2
3dWireframe
 70
     5
 71
     0
 72
     2
 73
     0
 90
        0
 40
-0.6
 41
-30.0
 62
     5
 63
     7
 74
     1
 91
        4
 64
     7
 65
   257
 75
     1
175
     1
 42
1.0
 92
        0
 66
   257
 43
1.0
 76
     1
 77
     6
 78
     2
 67
     7
 79
     5
170
     0
171
     0
290
     0
174
     0
 93
        1
 44
0.0
173
     0
291
     0
 45
0.0
1001
ACAD
1000
AcDbSavedByObjectVersion
1070
     0
  0
VISUALSTYLE
  5
67D
102
{ACAD_REACTORS
330
678
102
}
330
678
100
AcDbVisualStyle
  2
Basic
 70
     7
 71
     1
 72
     0
 73
     1
 90
        0
 40
-0.6
 41
-30.0
 62
     5
 63
     7
 74
     0
 91
        4
 64
     7
 65
   257
 75
     1
175
     1
 42
1.0
 92
        8
 66
     7
 43
1.0
 76
     1
 77
     6
 78
     2
 67
     7
 79
     5
170
     0
171
     0
290
     0
174
     0
 93
        1
 44
0.0
173
     0
291
     1
 45
0.0
1001
ACAD
1000
AcDbSavedByObjectVersion
1070
     0
  0
VISUALSTYLE
  5
684
102
{ACAD_REACTORS
330
678
102
}
330
678
100
AcDbVisualStyle
  2
Brighten
 70
    12
 71
     2
 72
     2
 73
     0
 90
        0
 40
-0.6
 41
-30.0
 62
     5
 63
     7
 74
     1
 91
        4
 64
     7
 65
   257
 75
     1
175
     1
 42
1.0
 92
        8
 66
     7
 43
1.0
 76
     1
 77
     6
 78
     2
 67
     7
 79
     5
170
     0
171
     0
290
     0
174
     0
 93
        1
 44
50.0
173
     0
291
     1
 45
0.0
1001
ACAD
1000
AcDbSavedByObjectVersion
1070
     0
  0
VISUALSTYLE
  5
688
102
{ACAD_REACTORS
330
678
102
}
330
678
100
AcDbVisualStyle
  2
ColorChange
 70
    16
 71
     2
 72
     2
 73
     3
 90
        0
 40
-0.6
 41
-30.0
 62
     5
 63
     8
 74
     1
 91
        4
 64
     7
 65
   257
 75
     1
175
     1
 42
1.0
 92
        8
 66
     8
 43
1.0
 76
     1
 77
     6
 78
     2
 67
     7
 79
     5
170
     0
171
     0
290
     0
174
     0
 93
        1
 44
0.0
173
     0
291
     1
 45
0.0
1001
ACAD
1000
AcDbSavedByObjectVersion
1070
     0
  0
VISUALSTYLE
  5
681
102
{ACAD_REACTORS
330
678
102
}
330
678
100
AcDbVisualStyle
  2
Conceptual
 70
     9
 71
     3
 72
     2
 73
     0
 90
        0
 40
-0.6
 41
-30.0
 62
     5
 63
     7
 74
     2
 91
        2
 64
     7
 65
   257
 75
     1
175
     1
 42
40.0
 92
        8
 66
     7
 43
1.0
 76
     1
 77
     6
 78
     2
 67
     7
 79
     3
170
     0
171
     0
290
     0
174
     0
 93
        1
 44
0.0
173
     0
291
     0
 45
0.0
1001
ACAD
1000
AcDbSavedByObjectVersion
1070
     0
  0
VISUALSTYLE
  5
683
102
{ACAD_REACTORS
330
678
102
}
330
678
100
AcDbVisualStyle
  2
Dim
 70
    11
 71
     2
 72
     2
 73
     0
 90
        0
 40
-0.6
 41
-30.0
 62
     5
 63
     7
 74
     1
 91
        4
 64
     7
 65
   257
 75
     1
175
     1
 42
1.0
 92
        8
 66
     7
 43
1.0
 76
     1
 77
     6
 78
     2
 67
     7
 79
     5
170
     0
171
     0
290
     0
174
     0
 93
        1
 44
-50.0
173
     0
291
     1
 45
0.0
1001
ACAD
1000
AcDbSavedByObjectVersion
1070
     0
  0
VISUALSTYLE
  5
687
102
{ACAD_REACTORS
330
678
102
}
330
678
100
AcDbVisualStyle
  2
Facepattern
 70
    15
 71
     2
 72
     2
 73
     0
 90
        0
 40
-0.6
 41
-30.0
 62
     5
 63
     7
 74
     1
 91
        4
 64
     7
 65
   257
 75
     1
175
     1
 42
1.0
 92
        8
 66
     7
 43
1.0
 76
     1
 77
     6
 78
     2
 67
     7
 79
     5
170
     0
171
     0
290
     0
174
     0
 93
        1
 44
0.0
173
     0
291
     1
 45
0.0
1001
ACAD
1000
AcDbSavedByObjectVersion
1070
     0
  0
VISUALSTYLE
  5
679
102
{ACAD_REACTORS
330
678
102
}
330
678
100
AcDbVisualStyle
  2
Flat
 70
     0
 71
     2
 72
     1
 73
     1
 90
        2
 40
-0.6
 41
30.0
 62
     5
 63
     7
 74
     0
 91
        4
 64
     7
 65
   257
 75
     1
175
     1
 42
1.0
 92
        8
 66
     7
 43
1.0
 76
     1
 77
     6
 78
     2
 67
     7
 79
     5
170
     0
171
     0
290
     0
174
     0
 93
       13
 44
0.0
173
     0
291
     1
 45
0.0
1001
ACAD
1000
AcDbSavedByObjectVersion
1070
     0
  0
VISUALSTYLE
  5
67A
102
{ACAD_REACTORS
330
678
102
}
330
678
100
AcDbVisualStyle
  2
FlatWithEdges
 70
     1
 71
     2
 72
     1
 73
     1
 90
        2
 40
-0.6
 41
30.0
 62
     5
 63
     7
 74
     1
 91
        4
 64
     7
 65
   257
 75
     1
175
     1
 42
1.0
 92
        0
 66
   257
 43
1.0
 76
     1
 77
     6
 78
     2
 67
     7
 79
     5
170
     0
171
     0
290
     0
174
     0
 93
       13
 44
0.0
173
     0
291
     1
 45
0.0
1001
ACAD
1000
AcDbSavedByObjectVersion
1070
     0
  0
VISUALSTYLE
  5
67B
102
{ACAD_REACTORS
330
678
102
}
330
678
100
AcDbVisualStyle
  2
Gouraud
 70
     2
 71
     2
 72
     2
 73
     1
 90
        2
 40
-0.6
 41
30.0
 62
     5
 63
     7
 74
     0
 91
        4
 64
     7
 65
   257
 75
     1
175
     1
 42
1.0
 92
        0
 66
     7
 43
1.0
 76
     1
 77
     6
 78
     2
 67
     7
 79
     5
170
     0
171
     0
290
     0
174
     0
 93
       13
 44
0.0
173
     0
291
     1
 45
0.0
1001
ACAD
1000
AcDbSavedByObjectVersion
1070
     0
  0
VISUALSTYLE
  5
67C
102
{ACAD_REACTORS
330
678
102
}
330
678
100
AcDbVisualStyle
  2
GouraudWithEdges
 70
     3
 71
     2
 72
     2
 73
     1
 90
        2
 40
-0.6
 41
30.0
 62
     5
 63
     7
 74
     1
 91
        4
 64
     7
 65
   257
 75
     1
175
     1
 42
1.0
 92
        0
 66
   257
 43
1.0
 76
     1
 77
     6
 78
     2
 67
     7
 79
     5
170
     0
171
     0
290
     0
174
     0
 93
       13
 44
0.0
173
     0
291
     1
 45
0.0
1001
ACAD
1000
AcDbSavedByObjectVersion
1070
     0
  0
VISUALSTYLE
  5
686
102
{ACAD_REACTORS
330
678
102
}
330
678
100
AcDbVisualStyle
  2
Linepattern
 70
    14
 71
     2
 72
     2
 73
     0
 90
        0
 40
-0.6
 41
-30.0
 62
     5
 63
     7
 74
     1
 91
        4
 64
     7
 65
   257
 75
     7
175
     7
 42
1.0
 92
        8
 66
     7
 43
1.0
 76
     1
 77
     6
 78
     2
 67
     7
 79
     5
170
     0
171
     0
290
     0
174
     0
 93
        1
 44
0.0
173
     0
291
     1
 45
0.0
1001
ACAD
1000
AcDbSavedByObjectVersion
1070
     0
  0
VISUALSTYLE
  5
682
102
{ACAD_REACTORS
330
678
102
}
330
678
100
AcDbVisualStyle
  2
Realistic
 70
     8
 71
     2
 72
     2
 73
     0
 90
        0
 40
-0.6
 41
-30.0
 62
     5
 63
     7
 74
     1
 91
        0
 64
     7
 65
   257
 75
     1
175
     1
 42
1.0
 92
        8
 66
     8
 43
1.0
 76
     1
 77
     6
 78
     2
 67
     7
 79
     5
170
     0
171
     0
290
     0
174
     0
 93
       13
 44
0.0
173
     0
291
     0
 45
0.0
1001
ACAD
1000
AcDbSavedByObjectVersion
1070
     0
  0
VISUALSTYLE
  5
685
102
{ACAD_REACTORS
330
678
102
}
330
678
100
AcDbVisualStyle
  2
Thicken
 70
    13
 71
     2
 72
     2
 73
     0
 90
        0
 40
-0.6
 41
-30.0
 62
     5
 63
     7
 74
     1
 91
        4
 64
     7
 65
   257
 75
     1
175
     1
 42
1.0
 92
       12
 66
     7
 43
1.0
 76
     1
 77
     6
 78
     2
 67
     7
 79
     5
170
     0
171
     0
290
     0
174
     0
 93
        1
 44
0.0
173
     0
291
     1
 45
0.0
1001
ACAD
1000
AcDbSavedByObjectVersion
1070
     0
  0
DICTIONARYVAR
  5
1244
102
{ACAD_REACTORS
330
1243
102
}
330
1243
100
DictionaryVariables
280
     0
  1
STANDARD
  0
DICTIONARYVAR
  5
1247
102
{ACAD_REACTORS
330
1243
102
}
330
1243
100
DictionaryVariables
280
     0
  1
1
  0
DICTIONARYVAR
  5
1246
102
{ACAD_REACTORS
330
1243
102
}
330
1243
100
DictionaryVariables
280
     0
  1
0
  0
DICTIONARYVAR
  5
1245
102
{ACAD_REACTORS
330
1243
102
}
330
1243
100
DictionaryVariables
280
     0
  1
127
  0
DICTIONARY
  5
1251
330
68D
100
AcDbDictionary
280
     1
281
     1
  3
ACAD_XREC_ROUNDTRIP
360
1252
  0
DICTIONARY
  5
1253
330
68E
100
AcDbDictionary
280
     1
281
     1
  3
ACAD_XREC_ROUNDTRIP
360
1254
  0
DICTIONARY
  5
124B
330
676
100
AcDbDictionary
280
     1
281
     1
  3
ACAD_XREC_ROUNDTRIP
360
124C
  0
DICTIONARY
  5
1249
330
675
100
AcDbDictionary
280
     1
281
     1
  3
ACAD_XREC_ROUNDTRIP
360
124A
  0
DICTIONARY
  5
124D
330
677
100
AcDbDictionary
280
     1
281
     1
  3
ACAD_XREC_ROUNDTRIP
360
124E
  0
DICTIONARY
  5
124F
330
68B
100
AcDbDictionary
280
     1
281
     1
  3
ACAD_XREC_ROUNDTRIP
360
1250
  0
XRECORD
  5
1252
102
{ACAD_REACTORS
330
1251
102
}
330
1251
100
AcDbXrecord
280
     1
102
SHADEPLOT
 70
     0
102
SHADEPLOTRESLEVEL
 70
     2
102
SHADEPLOTCUSTOMDPI
 70
   300
  0
XRECORD
  5
1254
102
{ACAD_REACTORS
330
1253
102
}
330
1253
100
AcDbXrecord
280
     1
102
SHADEPLOT
 70
     0
102
SHADEPLOTRESLEVEL
 70
     2
102
SHADEPLOTCUSTOMDPI
 70
   300
  0
XRECORD
  5
124C
102
{ACAD_REACTORS
330
124B
102
}
330
124B
100
AcDbXrecord
280
     1
102
MATERIAL
148
0.0
149
0.0
149
0.0
 93
        0
 94
       63
282
     0
 72
     1
 77
     1
171
     1
175
     1
179
     1
273
     0
  0
XRECORD
  5
124A
102
{ACAD_REACTORS
330
1249
102
}
330
1249
100
AcDbXrecord
280
     1
102
MATERIAL
148
0.0
149
0.0
149
0.0
 93
        0
 94
       63
282
     0
 72
     1
 77
     1
171
     1
175
     1
179
     1
273
     0
  0
XRECORD
  5
124E
102
{ACAD_REACTORS
330
124D
102
}
330
124D
100
AcDbXrecord
280
     1
102
MATERIAL
148
0.0
149
0.0
149
0.0
 93
        0
 94
       63
282
     0
 72
     1
 77
     1
171
     1
175
     1
179
     1
273
     0
  0
XRECORD
  5
1250
102
{ACAD_REACTORS
330
124F
102
}
330
124F
100
AcDbXrecord
280
     1
102
ACAD_ROUNDTRIP_PRE2007_TABLESTYLE
 90
      512
 91
        0
  1

 92
      512
 93
        0
  2

 94
      512
 95
        0
  3

  0
ENDSEC
  0
EOF
