  0
SECTION
  2
HEADER
  9
$ACADVER
  1
AC1015
  9
$ACADMAINTVER
 70
    20
  9
$DWGCODEPAGE
  3
ANSI_932
  9
$INSBASE
 10
0.0
 20
0.0
 30
0.0
  9
$EXTMIN
 10
-0.6085964546036849
 20
-0.1422880631707812
 30
-0.0000000000112498
  9
$EXTMAX
 10
10775.31152750256
 20
7695.620642221982
 30
0.0000000000002956
  9
$LIMMIN
 10
-297.0
 20
-210.0
  9
$LIMMAX
 10
297.0
 20
210.0
  9
$ORTHOMODE
 70
     1
  9
$REGENMODE
 70
     1
  9
$FILLMODE
 70
     1
  9
$QTEXTMODE
 70
     0
  9
$MIRRTEXT
 70
     1
  9
$LTSCALE
 40
100.0
  9
$ATTMODE
 70
     1
  9
$TEXTSIZE
 40
1.0
  9
$TRACEWID
 40
0.05
  9
$TEXTSTYLE
  7
BIGFONT
  9
$CLAYER
  8
0
  9
$CELTYPE
  6
CONTINUOUS
  9
$CECOLOR
 62
   256
  9
$CELTSCALE
 40
1.0
  9
$DISPSILH
 70
     0
  9
$DIMSCALE
 40
1.0
  9
$DIMASZ
 40
0.18
  9
$DIMEXO
 40
0.0625
  9
$DIMDLI
 40
0.38
  9
$DIMRND
 40
0.0
  9
$DIMDLE
 40
0.0
  9
$DIMEXE
 40
0.18
  9
$DIMTP
 40
0.0
  9
$DIMTM
 40
0.0
  9
$DIMTXT
 40
0.18
  9
$DIMCEN
 40
0.09
  9
$DIMTSZ
 40
0.0
  9
$DIMTOL
 70
     0
  9
$DIMLIM
 70
     0
  9
$DIMTIH
 70
     1
  9
$DIMTOH
 70
     1
  9
$DIMSE1
 70
     0
  9
$DIMSE2
 70
     0
  9
$DIMTAD
 70
     0
  9
$DIMZIN
 70
     0
  9
$DIMBLK
  1

  9
$DIMASO
 70
     1
  9
$DIMSHO
 70
     1
  9
$DIMPOST
  1

  9
$DIMAPOST
  1

  9
$DIMALT
 70
     0
  9
$DIMALTD
 70
     2
  9
$DIMALTF
 40
25.4
  9
$DIMLFAC
 40
1.0
  9
$DIMTOFL
 70
     0
  9
$DIMTVP
 40
0.0
  9
$DIMTIX
 70
     0
  9
$DIMSOXD
 70
     0
  9
$DIMSAH
 70
     0
  9
$DIMBLK1
  1

  9
$DIMBLK2
  1

  9
$DIMSTYLE
  2
STANDARD
  9
$DIMCLRD
 70
     0
  9
$DIMCLRE
 70
     0
  9
$DIMCLRT
 70
     0
  9
$DIMTFAC
 40
1.0
  9
$DIMGAP
 40
0.09
  9
$DIMJUST
 70
     0
  9
$DIMSD1
 70
     0
  9
$DIMSD2
 70
     0
  9
$DIMTOLJ
 70
     1
  9
$DIMTZIN
 70
     0
  9
$DIMALTZ
 70
     0
  9
$DIMALTTZ
 70
     0
  9
$DIMUPT
 70
     0
  9
$DIMDEC
 70
     4
  9
$DIMTDEC
 70
     4
  9
$DIMALTU
 70
     2
  9
$DIMALTTD
 70
     2
  9
$DIMTXSTY
  7
STANDARD
  9
$DIMAUNIT
 70
     0
  9
$DIMADEC
 70
     0
  9
$DIMALTRND
 40
0.0
  9
$DIMAZIN
 70
     0
  9
$DIMDSEP
 70
    46
  9
$DIMATFIT
 70
     3
  9
$DIMFRAC
 70
     0
  9
$DIMLDRBLK
  1

  9
$DIMLUNIT
 70
     2
  9
$DIMLWD
 70
    -2
  9
$DIMLWE
 70
    -2
  9
$DIMTMOVE
 70
     0
  9
$LUNITS
 70
     2
  9
$LUPREC
 70
     4
  9
$SKETCHINC
 40
0.1
  9
$FILLETRAD
 40
0.0
  9
$AUNITS
 70
     0
  9
$AUPREC
 70
     0
  9
$MENU
  1
.
  9
$ELEVATION
 40
0.0
  9
$PELEVATION
 40
0.0
  9
$THICKNESS
 40
0.0
  9
$LIMCHECK
 70
     0
  9
$CHAMFERA
 40
0.0
  9
$CHAMFERB
 40
0.0
  9
$CHAMFERC
 40
0.0
  9
$CHAMFERD
 40
0.0
  9
$SKPOLY
 70
     0
  9
$TDCREATE
 40
2452128.650444329
  9
$TDUCREATE
 40
2452128.275444329
  9
$TDUPDATE
 40
2455111.367982489
  9
$TDUUPDATE
 40
2455110.992982489
  9
$TDINDWG
 40
0.0545845370
  9
$TDUSRTIMER
 40
0.0545837847
  9
$USRTIMER
 70
     1
  9
$ANGBASE
 50
0.0
  9
$ANGDIR
 70
     0
  9
$PDMODE
 70
     0
  9
$PDSIZE
 40
0.0
  9
$PLINEWID
 40
0.0
  9
$SPLFRAME
 70
     0
  9
$SPLINETYPE
 70
     6
  9
$SPLINESEGS
 70
     8
  9
$HANDSEED
  5
11B3
  9
$SURFTAB1
 70
     6
  9
$SURFTAB2
 70
     6
  9
$SURFTYPE
 70
     6
  9
$SURFU
 70
     6
  9
$SURFV
 70
     6
  9
$UCSBASE
  2

  9
$UCSNAME
  2

  9
$UCSORG
 10
0.0
 20
0.0
 30
0.0
  9
$UCSXDIR
 10
1.0
 20
0.0
 30
0.0
  9
$UCSYDIR
 10
0.0
 20
1.0
 30
0.0
  9
$UCSORTHOREF
  2

  9
$UCSORTHOVIEW
 70
     0
  9
$UCSORGTOP
 10
0.0
 20
0.0
 30
0.0
  9
$UCSORGBOTTOM
 10
0.0
 20
0.0
 30
0.0
  9
$UCSORGLEFT
 10
0.0
 20
0.0
 30
0.0
  9
$UCSORGRIGHT
 10
0.0
 20
0.0
 30
0.0
  9
$UCSORGFRONT
 10
0.0
 20
0.0
 30
0.0
  9
$UCSORGBACK
 10
0.0
 20
0.0
 30
0.0
  9
$PUCSBASE
  2

  9
$PUCSNAME
  2

  9
$PUCSORG
 10
0.0
 20
0.0
 30
0.0
  9
$PUCSXDIR
 10
1.0
 20
0.0
 30
0.0
  9
$PUCSYDIR
 10
0.0
 20
1.0
 30
0.0
  9
$PUCSORTHOREF
  2

  9
$PUCSORTHOVIEW
 70
     0
  9
$PUCSORGTOP
 10
0.0
 20
0.0
 30
0.0
  9
$PUCSORGBOTTOM
 10
0.0
 20
0.0
 30
0.0
  9
$PUCSORGLEFT
 10
0.0
 20
0.0
 30
0.0
  9
$PUCSORGRIGHT
 10
0.0
 20
0.0
 30
0.0
  9
$PUCSORGFRONT
 10
0.0
 20
0.0
 30
0.0
  9
$PUCSORGBACK
 10
0.0
 20
0.0
 30
0.0
  9
$USERI1
 70
     0
  9
$USERI2
 70
     0
  9
$USERI3
 70
     0
  9
$USERI4
 70
     0
  9
$USERI5
 70
     0
  9
$USERR1
 40
0.0
  9
$USERR2
 40
0.0
  9
$USERR3
 40
0.0
  9
$USERR4
 40
0.0
  9
$USERR5
 40
0.0
  9
$WORLDVIEW
 70
     1
  9
$SHADEDGE
 70
     3
  9
$SHADEDIF
 70
    70
  9
$TILEMODE
 70
     1
  9
$MAXACTVP
 70
    64
  9
$PINSBASE
 10
0.0
 20
0.0
 30
0.0
  9
$PLIMCHECK
 70
     0
  9
$PEXTMIN
 10
1.000000000000000E+20
 20
1.000000000000000E+20
 30
1.000000000000000E+20
  9
$PEXTMAX
 10
-1.000000000000000E+20
 20
-1.000000000000000E+20
 30
-1.000000000000000E+20
  9
$PLIMMIN
 10
0.0
 20
0.0
  9
$PLIMMAX
 10
12.0
 20
9.0
  9
$UNITMODE
 70
     0
  9
$VISRETAIN
 70
     1
  9
$PLINEGEN
 70
     0
  9
$PSLTSCALE
 70
     1
  9
$TREEDEPTH
 70
  3020
  9
$CMLSTYLE
  2
STANDARD
  9
$CMLJUST
 70
     0
  9
$CMLSCALE
 40
1.0
  9
$PROXYGRAPHICS
 70
     1
  9
$MEASUREMENT
 70
     0
  9
$CELWEIGHT
370
    -1
  9
$ENDCAPS
280
     0
  9
$JOINSTYLE
280
     0
  9
$LWDISPLAY
290
     0
  9
$INSUNITS
 70
     0
  9
$HYPERLINKBASE
  1

  9
$STYLESHEET
  1

  9
$XEDIT
290
     1
  9
$CEPSNTYPE
380
     0
  9
$PSTYLEMODE
290
     1
  9
$FINGERPRINTGUID
  2
{DB2B19F7-7270-4FF8-B4A5-F216F7291646}
  9
$VERSIONGUID
  2
{E1619DD8-527B-478B-A522-796C3EBAB464}
  9
$EXTNAMES
290
     1
  9
$PSVPSCALE
 40
0.0
  9
$OLESTARTUP
290
     0
  0
ENDSEC
  0
SECTION
  2
CLASSES
  0
CLASS
  1
ACDBDICTIONARYWDFLT
  2
AcDbDictionaryWithDefault
  3
ObjectDBX Classes
 90
        0
280
     0
281
     0
  0
CLASS
  1
ACDBPLACEHOLDER
  2
AcDbPlaceHolder
  3
ObjectDBX Classes
 90
        0
280
     0
281
     0
  0
CLASS
  1
LAYOUT
  2
AcDbLayout
  3
ObjectDBX Classes
 90
        0
280
     0
281
     0
  0
CLASS
  1
MATERIAL
  2
AcDbMaterial
  3
ObjectDBX Classes
 90
     1153
280
     0
281
     0
  0
CLASS
  1
VISUALSTYLE
  2
AcDbVisualStyle
  3
ObjectDBX Classes
 90
     4095
280
     0
281
     0
  0
CLASS
  1
TABLESTYLE
  2
AcDbTableStyle
  3
ObjectDBX Classes
 90
     4095
280
     0
281
     0
  0
CLASS
  1
DICTIONARYVAR
  2
AcDbDictionaryVar
  3
ObjectDBX Classes
 90
        0
280
     0
281
     0
  0
ENDSEC
  0
SECTION
  2
TABLES
  0
TABLE
  2
VPORT
  5
8
330
0
100
AcDbSymbolTable
 70
     1
  0
VPORT
  5
62D
330
8
100
AcDbSymbolTableRecord
100
AcDbViewportTableRecord
  2
*ACTIVE
 70
     0
 10
0.0
 20
0.0
 11
1.0
 21
1.0
 12
5387.35146552398
 22
3847.739177079406
 13
0.0
 23
0.0
 14
1.0
 24
1.0
 15
0.0
 25
0.0
 16
0.0
 26
0.0
 36
1.0
 17
0.0
 27
0.0
 37
0.0
 40
8141.927591711018
 41
1.331536388140161
 42
50.0
 43
0.0
 44
0.0
 50
0.0
 51
0.0
 71
     0
 72
   100
 73
     1
 74
     1
 75
     0
 76
     0
 77
     0
 78
     0
281
     0
 65
     1
110
0.0
120
0.0
130
0.0
111
1.0
121
0.0
131
0.0
112
0.0
122
1.0
132
0.0
 79
     0
146
0.0
  0
ENDTAB
  0
TABLE
  2
LTYPE
  5
5
330
0
100
AcDbSymbolTable
 70
     5
  0
LTYPE
  5
13
330
5
100
AcDbSymbolTableRecord
100
AcDbLinetypeTableRecord
  2
BYBLOCK
 70
     0
  3

 72
    65
 73
     0
 40
0.0
  0
LTYPE
  5
14
330
5
100
AcDbSymbolTableRecord
100
AcDbLinetypeTableRecord
  2
BYLAYER
 70
     0
  3

 72
    65
 73
     0
 40
0.0
  0
LTYPE
  5
15
330
5
100
AcDbSymbolTableRecord
100
AcDbLinetypeTableRecord
  2
CONTINUOUS
 70
     0
  3
実線
 72
    65
 73
     0
 40
0.0
  0
LTYPE
  5
23
330
5
100
AcDbSymbolTableRecord
100
AcDbLinetypeTableRecord
  2
HIDDEN
 70
     0
  3
_ _ _ _ _ _ _ _ _ _ _ _ _ _ _ _ _ _ _ _ _ _ _
 72
    65
 73
     2
 40
0.375
 49
0.25
 74
     0
 49
-0.125
 74
     0
  0
LTYPE
  5
24
330
5
100
AcDbSymbolTableRecord
100
AcDbLinetypeTableRecord
  2
DASHED
 70
     0
  3
__ __ __ __ __ __ __ __ __ __ __ __ __ __ __
 72
    65
 73
     2
 40
0.75
 49
0.5
 74
     0
 49
-0.25
 74
     0
  0
LTYPE
  5
25
330
5
100
AcDbSymbolTableRecord
100
AcDbLinetypeTableRecord
  2
CENTER
 70
     0
  3
____ _ ____ _ ____ _ ____ _ ____ _ ____ _ ____
 72
    65
 73
     4
 40
2.0
 49
1.25
 74
     0
 49
-0.25
 74
     0
 49
0.25
 74
     0
 49
-0.25
 74
     0
  0
LTYPE
  5
26
330
5
100
AcDbSymbolTableRecord
100
AcDbLinetypeTableRecord
  2
PHANTOM
 70
     0
  3
_____ _ _ _____ _ _ _____ _ _ _____ _ _ ____
 72
    65
 73
     6
 40
2.5
 49
1.25
 74
     0
 49
-0.25
 74
     0
 49
0.25
 74
     0
 49
-0.25
 74
     0
 49
0.25
 74
     0
 49
-0.25
 74
     0
  0
ENDTAB
  0
TABLE
  2
LAYER
  5
2
330
0
100
AcDbSymbolTable
 70
     4
  0
LAYER
  5
10
330
2
100
AcDbSymbolTableRecord
100
AcDbLayerTableRecord
  2
0
 70
     0
 62
     7
  6
CONTINUOUS
370
    -3
390
634
  0
LAYER
  5
27
330
2
100
AcDbSymbolTableRecord
100
AcDbLayerTableRecord
  2
1
 70
     0
 62
     7
  6
CONTINUOUS
370
    -3
390
634
  0
LAYER
  5
28
330
2
100
AcDbSymbolTableRecord
100
AcDbLayerTableRecord
  2
2
 70
     0
 62
     7
  6
CONTINUOUS
370
    -3
390
634
  0
LAYER
  5
29
330
2
100
AcDbSymbolTableRecord
100
AcDbLayerTableRecord
  2
3
 70
     0
 62
     7
  6
CONTINUOUS
370
    -3
390
634
  0
ENDTAB
  0
TABLE
  2
STYLE
  5
3
330
0
100
AcDbSymbolTable
 70
     2
  0
STYLE
  5
11
330
3
100
AcDbSymbolTableRecord
100
AcDbTextStyleTableRecord
  2
STANDARD
 70
     0
 40
0.0
 41
1.0
 50
0.0
 71
     0
 42
0.2
  3
txt
  4

  0
STYLE
  5
22
330
3
100
AcDbSymbolTableRecord
100
AcDbTextStyleTableRecord
  2
BIGFONT
 70
     0
 40
0.0
 41
1.0
 50
0.0
 71
     0
 42
1.0
  3

  4
bigfont
  0
ENDTAB
  0
TABLE
  2
VIEW
  5
6
330
0
100
AcDbSymbolTable
 70
     0
  0
ENDTAB
  0
TABLE
  2
UCS
  5
7
330
0
100
AcDbSymbolTable
 70
     0
  0
ENDTAB
  0
TABLE
  2
APPID
  5
9
330
0
100
AcDbSymbolTable
 70
     1
  0
APPID
  5
12
330
9
100
AcDbSymbolTableRecord
100
AcDbRegAppTableRecord
  2
ACAD
 70
     0
  0
ENDTAB
  0
TABLE
  2
DIMSTYLE
  5
A
330
0
100
AcDbSymbolTable
 70
     1
100
AcDbDimStyleTable
 71
     0
  0
DIMSTYLE
105
5CB
330
A
100
AcDbSymbolTableRecord
100
AcDbDimStyleTableRecord
  2
STANDARD
 70
     0
340
11
  0
ENDTAB
  0
TABLE
  2
BLOCK_RECORD
  5
1
330
0
100
AcDbSymbolTable
 70
     1
  0
BLOCK_RECORD
  5
1E
102
{ACAD_XDICTIONARY
360
5D1
102
}
330
1
100
AcDbSymbolTableRecord
100
AcDbBlockTableRecord
  2
*MODEL_SPACE
340
64E
  0
BLOCK_RECORD
  5
1A
102
{ACAD_XDICTIONARY
360
5CF
102
}
330
1
100
AcDbSymbolTableRecord
100
AcDbBlockTableRecord
  2
*PAPER_SPACE
340
64F
  0
ENDTAB
  0
ENDSEC
  0
SECTION
  2
BLOCKS
  0
BLOCK
  5
1F
330
1E
100
AcDbEntity
  8
0
100
AcDbBlockBegin
  2
*MODEL_SPACE
 70
     0
 10
0.0
 20
0.0
 30
0.0
  3
*MODEL_SPACE
  1

  0
ENDBLK
  5
20
330
1E
100
AcDbEntity
  8
0
100
AcDbBlockEnd
  0
BLOCK
  5
1B
330
1A
100
AcDbEntity
 67
     1
  8
0
100
AcDbBlockBegin
  2
*PAPER_SPACE
 70
     0
 10
0.0
 20
0.0
 30
0.0
  3
*PAPER_SPACE
  1

  0
ENDBLK
  5
1C
330
1A
100
AcDbEntity
 67
     1
  8
0
100
AcDbBlockEnd
  0
ENDSEC
  0
SECTION
  2
ENTITIES
  0
LINE
  5
BFC
330
1E
100
AcDbEntity
  8
0
  6
Continuous
 62
     7
370
    13
100
AcDbLine
 10
8139.961000000004
 20
4985.713999999997
 30
0.0
 11
8139.961000000004
 21
5223.714000000001
 31
0.0
  0
LINE
  5
BFD
330
1E
100
AcDbEntity
  8
0
  6
Continuous
 62
     7
370
    13
100
AcDbLine
 10
8139.961000000004
 20
5223.714000000001
 30
0.0
 11
8142.960999999999
 21
5226.714
 31
0.0
  0
LINE
  5
BFE
330
1E
100
AcDbEntity
  8
0
  6
Continuous
 62
     7
370
    13
100
AcDbLine
 10
8139.961000000004
 20
5321.351999999999
 30
0.0
 11
8142.960999999999
 21
5318.352
 31
0.0
  0
LINE
  5
BFF
330
1E
100
AcDbEntity
  8
0
  6
Continuous
 62
     7
370
    13
100
AcDbLine
 10
8139.961000000004
 20
5571.351999999999
 30
0.0
 11
8139.961000000004
 21
5723.714000000001
 31
0.0
  0
LINE
  5
C00
330
1E
100
AcDbEntity
  8
0
  6
Continuous
 62
     7
370
    13
100
AcDbLine
 10
8139.961000000004
 20
5723.714000000001
 30
0.0
 11
10134.961
 21
5723.714000000001
 31
0.0
  0
LINE
  5
C01
330
1E
100
AcDbEntity
  8
0
  6
Continuous
 62
     7
370
    13
100
AcDbLine
 10
10134.961
 20
5571.351999999999
 30
0.0
 11
10134.961
 21
5723.714000000001
 31
0.0
  0
LINE
  5
C02
330
1E
100
AcDbEntity
  8
0
  6
Continuous
 62
     7
370
    13
100
AcDbLine
 10
10131.961
 20
5318.352
 30
0.0
 11
10134.961
 21
5321.351999999999
 31
0.0
  0
LINE
  5
C03
330
1E
100
AcDbEntity
  8
0
  6
Continuous
 62
     7
370
    13
100
AcDbLine
 10
10131.961
 20
5226.714
 30
0.0
 11
10134.961
 21
5223.714000000001
 31
0.0
  0
LINE
  5
C04
330
1E
100
AcDbEntity
  8
0
  6
Continuous
 62
     7
370
    13
100
AcDbLine
 10
10134.961
 20
4985.713999999997
 30
0.0
 11
10134.961
 21
5223.714000000001
 31
0.0
  0
LINE
  5
C05
330
1E
100
AcDbEntity
  8
0
  6
Continuous
 62
     7
370
    13
100
AcDbLine
 10
8151.961
 20
4973.714000000001
 30
0.0
 11
10122.96099999999
 21
4973.714000000001
 31
0.0
  0
LINE
  5
C06
330
1E
100
AcDbEntity
  8
0
  6
Continuous
 62
     7
370
    13
100
AcDbLine
 10
8139.961000000004
 20
5074.714
 30
0.0
 11
10134.961
 21
5074.714
 31
0.0
  0
LINE
  5
C07
330
1E
100
AcDbEntity
  8
0
  6
Continuous
 62
     7
370
    13
100
AcDbLine
 10
8139.961000000004
 20
5093.578
 30
0.0
 11
10134.961
 21
5093.578
 31
0.0
  0
LINE
  5
C08
330
1E
100
AcDbEntity
  8
0
  6
Continuous
 62
     7
370
    13
100
AcDbLine
 10
8142.960999999999
 20
5146.351999999999
 30
0.0
 11
10131.961
 21
5146.351999999999
 31
0.0
  0
LINE
  5
C09
330
1E
100
AcDbEntity
  8
0
  6
Continuous
 62
     7
370
    13
100
AcDbLine
 10
8139.961000000004
 20
4985.713999999997
 30
0.0
 11
8151.961
 21
4973.714000000001
 31
0.0
  0
LINE
  5
C0A
330
1E
100
AcDbEntity
  8
0
  6
Continuous
 62
     7
370
    13
100
AcDbLine
 10
10122.96099999999
 20
4973.714000000001
 30
0.0
 11
10134.961
 21
4985.713999999997
 31
0.0
  0
LINE
  5
C0B
330
1E
100
AcDbEntity
  8
0
  6
Continuous
370
    13
100
AcDbLine
 10
8145.960999999999
 20
5358.713999999999
 30
0.0
 11
8145.960999999999
 21
5428.714
 31
0.0
  0
LINE
  5
C0C
330
1E
100
AcDbEntity
  8
0
  6
Continuous
370
    13
100
AcDbLine
 10
8145.960999999999
 20
5358.713999999999
 30
0.0
 11
8225.960999999996
 21
5358.713999999999
 31
0.0
  0
LINE
  5
C0D
330
1E
100
AcDbEntity
  8
0
  6
Continuous
370
    13
100
AcDbLine
 10
8225.960999999996
 20
5358.713999999999
 30
0.0
 11
8225.960999999996
 21
5428.714
 31
0.0
  0
LINE
  5
C0E
330
1E
100
AcDbEntity
  8
0
  6
Continuous
370
    13
100
AcDbLine
 10
8145.960999999999
 20
5428.714
 30
0.0
 11
8225.960999999996
 21
5428.714
 31
0.0
  0
LINE
  5
C0F
330
1E
100
AcDbEntity
  8
0
  6
Continuous
370
    13
100
AcDbLine
 10
8107.707999999995
 20
5393.714
 30
0.0
 11
8261.802999999996
 21
5393.714
 31
0.0
  0
LINE
  5
C10
330
1E
100
AcDbEntity
  8
0
  6
Continuous
370
    13
100
AcDbLine
 10
10128.961
 20
5358.713999999999
 30
0.0
 11
10128.961
 21
5428.714
 31
0.0
  0
LINE
  5
C11
330
1E
100
AcDbEntity
  8
0
  6
Continuous
370
    13
100
AcDbLine
 10
10048.961
 20
5428.714
 30
0.0
 11
10128.961
 21
5428.714
 31
0.0
  0
LINE
  5
C12
330
1E
100
AcDbEntity
  8
0
  6
Continuous
370
    13
100
AcDbLine
 10
10048.961
 20
5358.713999999999
 30
0.0
 11
10048.961
 21
5428.714
 31
0.0
  0
LINE
  5
C13
330
1E
100
AcDbEntity
  8
0
  6
Continuous
370
    13
100
AcDbLine
 10
10048.961
 20
5358.713999999999
 30
0.0
 11
10128.961
 21
5358.713999999999
 31
0.0
  0
LINE
  5
C14
330
1E
100
AcDbEntity
  8
0
  6
Continuous
370
    13
100
AcDbLine
 10
10013.119
 20
5393.714
 30
0.0
 11
10167.214
 21
5393.714
 31
0.0
  0
LINE
  5
C15
330
1E
100
AcDbEntity
  8
0
  6
Continuous
370
    13
100
AcDbLine
 10
2790.0
 20
4985.815999999999
 30
0.0
 11
2790.0
 21
5223.816000000002
 31
0.0
  0
LINE
  5
C16
330
1E
100
AcDbEntity
  8
0
  6
Continuous
370
    13
100
AcDbLine
 10
2790.0
 20
5573.816000000001
 30
0.0
 11
2790.0
 21
5725.816
 31
0.0
  0
LINE
  5
C17
330
1E
100
AcDbEntity
  8
0
  6
Continuous
370
    13
100
AcDbLine
 10
4785.0
 20
5573.816000000001
 30
0.0
 11
4785.0
 21
5725.816
 31
0.0
  0
LINE
  5
C18
330
1E
100
AcDbEntity
  8
0
  6
Continuous
370
    13
100
AcDbLine
 10
4781.999999999999
 20
5320.815999999997
 30
0.0
 11
4785.0
 21
5323.816000000001
 31
0.0
  0
LINE
  5
C19
330
1E
100
AcDbEntity
  8
0
  6
Continuous
370
    13
100
AcDbLine
 10
4781.999999999999
 20
5226.816
 30
0.0
 11
4785.0
 21
5223.816000000002
 31
0.0
  0
LINE
  5
C1A
330
1E
100
AcDbEntity
  8
0
  6
Continuous
370
    13
100
AcDbLine
 10
6187.5
 20
6067.471000000002
 30
0.0
 11
6307.5
 21
6067.471000000002
 31
0.0
  0
LINE
  5
C1B
330
1E
100
AcDbEntity
  8
0
  6
Continuous
370
    13
100
AcDbLine
 10
6307.5
 20
5746.076000000001
 30
0.0
 11
6307.5
 21
6083.471000000001
 31
0.0
  0
LINE
  5
C1C
330
1E
100
AcDbEntity
  8
0
  6
Continuous
370
    13
100
AcDbLine
 10
6187.5
 20
5746.076000000001
 30
0.0
 11
6187.5
 21
6083.471000000001
 31
0.0
  0
LINE
  5
C1D
330
1E
100
AcDbEntity
  8
0
  6
Continuous
370
    13
100
AcDbLine
 10
6283.5
 20
6061.0352
 30
0.0
 11
6307.5
 21
6067.465999999997
 31
0.0
  0
LINE
  5
C1E
330
1E
100
AcDbEntity
  8
0
  6
Continuous
370
    13
100
AcDbLine
 10
6307.5
 20
6067.465999999997
 30
0.0
 11
6283.5
 21
6073.896600000001
 31
0.0
  0
LINE
  5
C1F
330
1E
100
AcDbEntity
  8
0
  6
Continuous
370
    13
100
AcDbLine
 10
6211.5
 20
6073.896600000001
 30
0.0
 11
6187.5
 21
6067.465999999997
 31
0.0
  0
LINE
  5
C20
330
1E
100
AcDbEntity
  8
0
  6
Continuous
370
    13
100
AcDbLine
 10
6187.5
 20
6067.465999999997
 30
0.0
 11
6211.5
 21
6061.0352
 31
0.0
  0
TEXT
  5
C21
330
1E
100
AcDbEntity
  8
0
  6
Continuous
370
    13
100
AcDbText
 10
6184.926510325386
 20
6079.470999999998
 30
0.0
 40
64.0
  1
120
 41
0.875
  7
BIGFONT
100
AcDbText
  0
LINE
  5
C22
330
1E
100
AcDbEntity
  8
0
  6
Continuous
370
    13
100
AcDbLine
 10
6247.5
 20
5345.214
 30
0.0
 11
6247.5
 21
5442.213999999999
 31
0.0
  0
LINE
  5
C23
330
1E
100
AcDbEntity
  8
0
  6
Continuous
370
    13
100
AcDbLine
 10
6247.5
 20
5345.214
 30
0.0
 11
6297.5
 21
5345.214
 31
0.0
  0
LINE
  5
C24
330
1E
100
AcDbEntity
  8
0
  6
Continuous
370
    13
100
AcDbLine
 10
6297.5
 20
5345.214
 30
0.0
 11
6297.5
 21
5442.213999999999
 31
0.0
  0
LINE
  5
C25
330
1E
100
AcDbEntity
  8
0
  6
Continuous
370
    13
100
AcDbLine
 10
6247.5
 20
5442.213999999999
 30
0.0
 11
6297.5
 21
5442.213999999999
 31
0.0
  0
LINE
  5
C26
330
1E
100
AcDbEntity
  8
0
  6
Continuous
370
    13
100
AcDbLine
 10
6261.186000000002
 20
5393.714
 30
0.0
 11
6272.5
 21
5405.028
 31
0.0
  0
LINE
  5
C27
330
1E
100
AcDbEntity
  8
0
  6
Continuous
370
    13
100
AcDbLine
 10
6272.5
 20
5382.399999999999
 30
0.0
 11
6283.813999999999
 21
5393.714
 31
0.0
  0
ARC
  5
C28
330
1E
100
AcDbEntity
  8
0
  6
Continuous
370
    13
100
AcDbCircle
 10
6278.157
 20
5399.371
 30
0.0
 40
8.0
100
AcDbArc
 50
315.0000000000092
 51
135.0000000000092
  0
ARC
  5
C29
330
1E
100
AcDbEntity
  8
0
  6
Continuous
370
    13
100
AcDbCircle
 10
6266.843000000001
 20
5388.056999999999
 30
0.0
 40
8.0
100
AcDbArc
 50
135.0000000000092
 51
315.0000000000092
  0
LINE
  5
C2A
330
1E
100
AcDbEntity
  8
0
  6
Continuous
370
    13
100
AcDbLine
 10
6224.053
 20
5393.714
 30
0.0
 11
6323.055
 21
5393.714
 31
0.0
  0
LINE
  5
C2B
330
1E
100
AcDbEntity
  8
0
  6
Continuous
370
    13
100
AcDbLine
 10
6272.5
 20
5323.937000000001
 30
0.0
 11
6272.5
 21
5464.351000000001
 31
0.0
  0
LINE
  5
C2C
330
1E
100
AcDbEntity
  8
0
  6
Continuous
370
    13
100
AcDbLine
 10
6537.506000000002
 20
5026.244000000001
 30
0.0
 11
6634.308999999998
 21
5020.065
 31
0.0
  0
LINE
  5
C2D
330
1E
100
AcDbEntity
  8
0
  6
Continuous
370
    13
100
AcDbLine
 10
6634.308999999998
 20
5020.065
 30
0.0
 11
6637.494
 21
5069.963999999998
 31
0.0
  0
LINE
  5
C2E
330
1E
100
AcDbEntity
  8
0
  6
Continuous
370
    13
100
AcDbLine
 10
6540.691000000002
 20
5076.143
 30
0.0
 11
6637.494
 21
5069.963999999998
 31
0.0
  0
LINE
  5
C2F
330
1E
100
AcDbEntity
  8
0
  6
Continuous
370
    13
100
AcDbLine
 10
6537.506000000002
 20
5026.244000000001
 30
0.0
 11
6540.691000000002
 21
5076.143
 31
0.0
  0
LINE
  5
C30
330
1E
100
AcDbEntity
  8
0
  6
Continuous
370
    13
100
AcDbLine
 10
6576.208999999998
 20
5048.824999999999
 30
0.0
 11
6586.779000000003
 21
5036.813
 31
0.0
  0
LINE
  5
C31
330
1E
100
AcDbEntity
  8
0
  6
Continuous
370
    13
100
AcDbLine
 10
6588.220999999997
 20
5059.395000000001
 30
0.0
 11
6598.791000000002
 21
5047.382999999999
 31
0.0
  0
ARC
  5
C32
330
1E
100
AcDbEntity
  8
0
  6
Continuous
370
    13
100
AcDbCircle
 10
6582.215000000001
 20
5054.109999999997
 30
0.0
 40
8.0
100
AcDbArc
 50
41.34627099995372
 51
221.3462700000346
  0
ARC
  5
C33
330
1E
100
AcDbEntity
  8
0
  6
Continuous
370
    13
100
AcDbCircle
 10
6592.785000000001
 20
5042.098
 30
0.0
 40
8.0
100
AcDbArc
 50
221.3462700000346
 51
41.34627099995372
  0
LINE
  5
C34
330
1E
100
AcDbEntity
  8
0
  6
Continuous
370
    13
100
AcDbLine
 10
6584.414000000004
 20
4999.755
 30
0.0
 11
6590.720000000001
 21
5098.555999999998
 31
0.0
  0
LINE
  5
C35
330
1E
100
AcDbEntity
  8
0
  6
Continuous
370
    13
100
AcDbLine
 10
6517.006000000001
 20
5052.603
 30
0.0
 11
6657.135000000002
 21
5043.658999999999
 31
0.0
  0
LINE
  5
C36
330
1E
100
AcDbEntity
  8
0
  6
Continuous
370
    13
100
AcDbLine
 10
6258.484000000001
 20
5323.713999999998
 30
0.0
 11
6261.236000000001
 21
5323.713999999998
 31
0.0
  0
LINE
  5
C37
330
1E
100
AcDbEntity
  8
0
  6
Continuous
370
    13
100
AcDbLine
 10
6307.5
 20
4473.714
 30
0.0
 11
6737.5
 21
4473.714
 31
0.0
  0
LINE
  5
C38
330
1E
100
AcDbEntity
  8
0
  6
Continuous
370
    13
100
AcDbLine
 10
6713.5
 20
4467.275199999999
 30
0.0
 11
6737.5
 21
4473.705999999999
 31
0.0
  0
LINE
  5
C39
330
1E
100
AcDbEntity
  8
0
  6
Continuous
370
    13
100
AcDbLine
 10
6737.5
 20
4473.705999999999
 30
0.0
 11
6713.5
 21
4480.136599999998
 31
0.0
  0
LINE
  5
C3A
330
1E
100
AcDbEntity
  8
0
  6
Continuous
370
    13
100
AcDbLine
 10
6331.500000000001
 20
4480.136599999998
 30
0.0
 11
6307.5
 21
4473.705999999999
 31
0.0
  0
LINE
  5
C3B
330
1E
100
AcDbEntity
  8
0
  6
Continuous
370
    13
100
AcDbLine
 10
6307.5
 20
4473.705999999999
 30
0.0
 11
6331.500000000001
 21
4467.275199999999
 31
0.0
  0
TEXT
  5
C3C
330
1E
100
AcDbEntity
  8
0
  6
Continuous
370
    13
100
AcDbText
 10
6438.500000000001
 20
4485.713999999997
 30
0.0
 40
64.0
  1
430
 41
0.875
  7
BIGFONT
100
AcDbText
  0
LINE
  5
C3D
330
1E
100
AcDbEntity
  8
0
  6
Continuous
370
    13
100
AcDbLine
 10
6187.5
 20
4323.713999999998
 30
0.0
 11
6737.5
 21
4323.713999999998
 31
0.0
  0
LINE
  5
C3E
330
1E
100
AcDbEntity
  8
0
  6
Continuous
370
    13
100
AcDbLine
 10
6737.5
 20
4953.713999999997
 30
0.0
 11
6737.5
 21
4307.713999999999
 31
0.0
  0
LINE
  5
C3F
330
1E
100
AcDbEntity
  8
0
  6
Continuous
370
    13
100
AcDbLine
 10
6187.5
 20
4953.713999999997
 30
0.0
 11
6187.5
 21
4307.713999999999
 31
0.0
  0
LINE
  5
C40
330
1E
100
AcDbEntity
  8
0
  6
Continuous
370
    13
100
AcDbLine
 10
6713.5
 20
4317.2752
 30
0.0
 11
6737.5
 21
4323.706
 31
0.0
  0
LINE
  5
C41
330
1E
100
AcDbEntity
  8
0
  6
Continuous
370
    13
100
AcDbLine
 10
6737.5
 20
4323.706
 30
0.0
 11
6713.5
 21
4330.136599999998
 31
0.0
  0
LINE
  5
C42
330
1E
100
AcDbEntity
  8
0
  6
Continuous
370
    13
100
AcDbLine
 10
6211.5
 20
4330.136599999998
 30
0.0
 11
6187.5
 21
4323.706
 31
0.0
  0
LINE
  5
C43
330
1E
100
AcDbEntity
  8
0
  6
Continuous
370
    13
100
AcDbLine
 10
6187.5
 20
4323.706
 30
0.0
 11
6211.5
 21
4317.2752
 31
0.0
  0
TEXT
  5
C44
330
1E
100
AcDbEntity
  8
0
  6
Continuous
370
    13
100
AcDbText
 10
6378.5
 20
4335.713999999999
 30
0.0
 40
64.0
  1
５５０
 41
0.875
  7
BIGFONT
100
AcDbText
  0
LINE
  5
C45
330
1E
100
AcDbEntity
  8
0
  6
Continuous
370
    13
100
AcDbLine
 10
5687.5
 20
5098.714000000001
 30
0.0
 11
5687.5
 21
5723.714000000001
 31
0.0
  0
LINE
  5
C46
330
1E
100
AcDbEntity
  8
0
  6
Continuous
370
    13
100
AcDbLine
 10
5693.930599999999
 20
5699.706
 30
0.0
 11
5687.5
 21
5723.705999999999
 31
0.0
  0
LINE
  5
C47
330
1E
100
AcDbEntity
  8
0
  6
Continuous
370
    13
100
AcDbLine
 10
5687.5
 20
5723.705999999999
 30
0.0
 11
5681.069199999998
 21
5699.706
 31
0.0
  0
LINE
  5
C48
330
1E
100
AcDbEntity
  8
0
  6
Continuous
370
    13
100
AcDbLine
 10
5681.069199999998
 20
5122.706
 30
0.0
 11
5687.5
 21
5098.705999999999
 31
0.0
  0
LINE
  5
C49
330
1E
100
AcDbEntity
  8
0
  6
Continuous
370
    13
100
AcDbLine
 10
5687.5
 20
5098.705999999999
 30
0.0
 11
5693.930599999999
 21
5122.706
 31
0.0
  0
TEXT
  5
C4A
330
1E
100
AcDbEntity
  8
0
  6
Continuous
370
    13
100
AcDbText
 10
5675.5
 20
5327.213999999997
 30
0.0
 40
64.0
  1
625
 50
90.0
 41
0.875
  7
BIGFONT
100
AcDbText
  0
LINE
  5
C4B
330
1E
100
AcDbEntity
  8
0
  6
Continuous
370
    13
100
AcDbLine
 10
5537.5
 20
4973.714000000001
 30
0.0
 11
5537.5
 21
5723.714000000001
 31
0.0
  0
LINE
  5
C4C
330
1E
100
AcDbEntity
  8
0
  6
Continuous
370
    13
100
AcDbLine
 10
6176.5
 20
5723.714000000001
 30
0.0
 11
5521.5
 21
5723.714000000001
 31
0.0
  0
LINE
  5
C4D
330
1E
100
AcDbEntity
  8
0
  6
Continuous
370
    13
100
AcDbLine
 10
6167.5
 20
4973.714000000001
 30
0.0
 11
5521.5
 21
4973.714000000001
 31
0.0
  0
LINE
  5
C4E
330
1E
100
AcDbEntity
  8
0
  6
Continuous
370
    13
100
AcDbLine
 10
5543.930599999999
 20
5699.706
 30
0.0
 11
5537.5
 21
5723.705999999999
 31
0.0
  0
LINE
  5
C4F
330
1E
100
AcDbEntity
  8
0
  6
Continuous
370
    13
100
AcDbLine
 10
5537.5
 20
5723.705999999999
 30
0.0
 11
5531.069199999998
 21
5699.706
 31
0.0
  0
LINE
  5
C50
330
1E
100
AcDbEntity
  8
0
  6
Continuous
370
    13
100
AcDbLine
 10
5531.069199999998
 20
4997.706
 30
0.0
 11
5537.5
 21
4973.705999999999
 31
0.0
  0
LINE
  5
C51
330
1E
100
AcDbEntity
  8
0
  6
Continuous
370
    13
100
AcDbLine
 10
5537.5
 20
4973.705999999999
 30
0.0
 11
5543.930599999999
 21
4997.706
 31
0.0
  0
TEXT
  5
C52
330
1E
100
AcDbEntity
  8
0
  6
Continuous
370
    13
100
AcDbText
 10
5525.5
 20
5264.713999999997
 30
0.0
 40
64.0
  1
750
 50
90.0
 41
0.875
  7
BIGFONT
100
AcDbText
  0
LINE
  5
C53
330
1E
100
AcDbEntity
  8
0
  6
Continuous
370
    13
100
AcDbLine
 10
6687.5
 20
4623.713999999998
 30
0.0
 11
6737.5
 21
4623.713999999998
 31
0.0
  0
LINE
  5
C54
330
1E
100
AcDbEntity
  8
0
  6
Continuous
370
    13
100
AcDbLine
 10
6737.5
 20
4623.713999999998
 30
0.0
 11
6737.5
 21
4623.713999999998
 31
0.0
  0
LINE
  5
C55
330
1E
100
AcDbEntity
  8
0
  6
Continuous
370
    13
100
AcDbLine
 10
6851.734652152278
 20
4623.713999999998
 30
0.0
 11
6737.5
 21
4623.713999999998
 31
0.0
  0
LINE
  5
C56
330
1E
100
AcDbEntity
  8
0
  6
Continuous
370
    13
100
AcDbLine
 10
6761.499999999999
 20
4630.1366
 30
0.0
 11
6737.5
 21
4623.706
 31
0.0
  0
LINE
  5
C57
330
1E
100
AcDbEntity
  8
0
  6
Continuous
370
    13
100
AcDbLine
 10
6737.5
 20
4623.706
 30
0.0
 11
6761.499999999999
 21
4617.2752
 31
0.0
  0
LINE
  5
C58
330
1E
100
AcDbEntity
  8
0
  6
Continuous
370
    13
100
AcDbLine
 10
6687.5
 20
4623.713999999998
 30
0.0
 11
6639.499999999999
 21
4623.713999999998
 31
0.0
  0
LINE
  5
C59
330
1E
100
AcDbEntity
  8
0
  6
Continuous
370
    13
100
AcDbLine
 10
6663.5
 20
4617.2752
 30
0.0
 11
6687.5
 21
4623.706
 31
0.0
  0
LINE
  5
C5A
330
1E
100
AcDbEntity
  8
0
  6
Continuous
370
    13
100
AcDbLine
 10
6687.5
 20
4623.706
 30
0.0
 11
6663.5
 21
4630.1366
 31
0.0
  0
TEXT
  5
C5B
330
1E
100
AcDbEntity
  8
0
  6
Continuous
370
    13
100
AcDbText
 10
6752.138783913998
 20
4635.714
 30
0.0
 40
64.0
  1
50
 41
0.875
  7
BIGFONT
100
AcDbText
  0
LINE
  5
C5C
330
1E
100
AcDbEntity
  8
0
  6
Continuous
 62
     7
370
    13
100
AcDbLine
 10
6187.5
 20
5323.713999999998
 30
0.0
 11
6307.5
 21
5323.713999999998
 31
0.0
  0
LINE
  5
C5D
330
1E
100
AcDbEntity
  8
0
  6
Continuous
 62
     7
370
    13
100
AcDbLine
 10
6687.5
 20
4973.714000000001
 30
0.0
 11
6687.5
 21
5077.587999999998
 31
0.0
  0
LINE
  5
C5E
330
1E
100
AcDbEntity
  8
0
  6
Continuous
 62
     7
370
    13
100
AcDbLine
 10
6187.5
 20
5223.714000000001
 30
0.0
 11
6307.5
 21
5223.714000000001
 31
0.0
  0
LINE
  5
C5F
330
1E
100
AcDbEntity
  8
0
  6
Continuous
370
    13
100
AcDbLine
 10
8139.961000000004
 20
4321.352
 30
0.0
 11
10134.961
 21
4321.352
 31
0.0
  0
LINE
  5
C60
330
1E
100
AcDbEntity
  8
0
  6
Continuous
370
    13
100
AcDbLine
 10
10134.961
 20
4965.714
 30
0.0
 11
10134.961
 21
4305.352000000001
 31
0.0
  0
LINE
  5
C61
330
1E
100
AcDbEntity
  8
0
  6
Continuous
370
    13
100
AcDbLine
 10
8139.961000000004
 20
4965.714
 30
0.0
 11
8139.961000000004
 21
4305.352000000001
 31
0.0
  0
LINE
  5
C62
330
1E
100
AcDbEntity
  8
0
  6
Continuous
370
    13
100
AcDbLine
 10
10110.96
 20
4314.9152
 30
0.0
 11
10134.96
 21
4321.345999999999
 31
0.0
  0
LINE
  5
C63
330
1E
100
AcDbEntity
  8
0
  6
Continuous
370
    13
100
AcDbLine
 10
10134.96
 20
4321.345999999999
 30
0.0
 11
10110.96
 21
4327.776599999999
 31
0.0
  0
LINE
  5
C64
330
1E
100
AcDbEntity
  8
0
  6
Continuous
370
    13
100
AcDbLine
 10
8163.959999999999
 20
4327.776599999999
 30
0.0
 11
8139.96
 21
4321.345999999999
 31
0.0
  0
LINE
  5
C65
330
1E
100
AcDbEntity
  8
0
  6
Continuous
370
    13
100
AcDbLine
 10
8139.96
 20
4321.345999999999
 30
0.0
 11
8163.959999999999
 21
4314.9152
 31
0.0
  0
TEXT
  5
C66
330
1E
100
AcDbEntity
  8
0
  6
Continuous
370
    13
100
AcDbText
 10
9025.460999999999
 20
4333.351999999996
 30
0.0
 40
64.0
  1
1995
 41
0.875
  7
BIGFONT
100
AcDbText
  0
LINE
  5
C67
330
1E
100
AcDbEntity
  8
0
  6
Continuous
 62
     7
370
    13
100
AcDbLine
 10
6187.5
 20
4973.714000000001
 30
0.0
 11
6187.5
 21
5714.713999999999
 31
0.0
  0
LINE
  5
C68
330
1E
100
AcDbEntity
  8
0
  6
Continuous
 62
     7
370
    13
100
AcDbLine
 10
6187.5
 20
4973.714000000001
 30
0.0
 11
6737.5
 21
4973.714000000001
 31
0.0
  0
LINE
  5
C69
330
1E
100
AcDbEntity
  8
0
  6
Continuous
 62
     7
370
    13
100
AcDbLine
 10
6737.5
 20
4973.714000000001
 30
0.0
 11
6737.5
 21
5074.714
 31
0.0
  0
LINE
  5
C6A
330
1E
100
AcDbEntity
  8
0
  6
Continuous
 62
     7
370
    13
100
AcDbLine
 10
6196.5
 20
5723.714000000001
 30
0.0
 11
6298.5
 21
5723.714000000001
 31
0.0
  0
LINE
  5
C6B
330
1E
100
AcDbEntity
  8
0
  6
Continuous
 62
     7
370
    13
100
AcDbLine
 10
6357.421999999999
 20
5095.927999999999
 30
0.0
 11
6737.5
 21
5074.714
 31
0.0
  0
LINE
  5
C6C
330
1E
100
AcDbEntity
  8
0
  6
Continuous
 62
     7
370
    13
100
AcDbLine
 10
6307.5
 20
5148.714
 30
0.0
 11
6307.5
 21
5714.713999999999
 31
0.0
  0
LINE
  5
C6D
330
1E
100
AcDbEntity
  8
0
  6
Continuous
 62
     7
370
    13
100
AcDbLine
 10
6307.5
 20
5148.714
 30
0.0
 11
6357.421999999999
 21
5095.927999999999
 31
0.0
  0
LINE
  5
C6E
330
1E
100
AcDbEntity
  8
0
  6
Continuous
 62
     7
370
    13
100
AcDbLine
 10
6187.5
 20
5714.713999999999
 30
0.0
 11
6196.5
 21
5723.714000000001
 31
0.0
  0
LINE
  5
C6F
330
1E
100
AcDbEntity
  8
0
  6
Continuous
 62
     7
370
    13
100
AcDbLine
 10
6298.5
 20
5723.714000000001
 30
0.0
 11
6307.5
 21
5714.713999999999
 31
0.0
  0
LINE
  5
C70
330
1E
100
AcDbEntity
  8
0
  6
Continuous
370
    13
100
AcDbLine
 10
6307.5
 20
5286.180999999999
 30
0.0
 11
6357.5
 21
5286.180999999999
 31
0.0
  0
LINE
  5
C71
330
1E
100
AcDbEntity
  8
0
  6
Continuous
370
    13
100
AcDbLine
 10
6357.5
 20
5118.714
 30
0.0
 11
6357.5
 21
5302.181000000001
 31
0.0
  0
LINE
  5
C72
330
1E
100
AcDbEntity
  8
0
  6
Continuous
370
    13
100
AcDbLine
 10
6307.5
 20
5168.714
 30
0.0
 11
6307.5
 21
5302.181000000001
 31
0.0
  0
LINE
  5
C73
330
1E
100
AcDbEntity
  8
0
  6
Continuous
370
    13
100
AcDbLine
 10
6333.5
 20
5279.735200000001
 30
0.0
 11
6357.5
 21
5286.165999999998
 31
0.0
  0
LINE
  5
C74
330
1E
100
AcDbEntity
  8
0
  6
Continuous
370
    13
100
AcDbLine
 10
6357.5
 20
5286.165999999998
 30
0.0
 11
6333.5
 21
5292.5966
 31
0.0
  0
LINE
  5
C75
330
1E
100
AcDbEntity
  8
0
  6
Continuous
370
    13
100
AcDbLine
 10
6331.500000000001
 20
5292.5966
 30
0.0
 11
6307.5
 21
5286.165999999998
 31
0.0
  0
LINE
  5
C76
330
1E
100
AcDbEntity
  8
0
  6
Continuous
370
    13
100
AcDbLine
 10
6307.5
 20
5286.165999999998
 30
0.0
 11
6331.500000000001
 21
5279.735200000001
 31
0.0
  0
TEXT
  5
C77
330
1E
100
AcDbEntity
  8
0
  6
Continuous
370
    13
100
AcDbText
 10
6276.5
 20
5210.181000000001
 30
0.0
 40
64.0
  1
50
 41
0.875
  7
BIGFONT
100
AcDbText
  0
LINE
  5
C78
330
1E
100
AcDbEntity
  8
0
  6
Continuous
370
    13
100
AcDbLine
 10
6511.233
 20
5098.714000000001
 30
0.0
 11
6511.233
 21
5148.714
 31
0.0
  0
LINE
  5
C79
330
1E
100
AcDbEntity
  8
0
  6
Continuous
370
    13
100
AcDbLine
 10
6327.5
 20
5148.714
 30
0.0
 11
6527.232999999999
 21
5148.714
 31
0.0
  0
LINE
  5
C7A
330
1E
100
AcDbEntity
  8
0
  6
Continuous
370
    13
100
AcDbLine
 10
6377.5
 20
5098.714000000001
 30
0.0
 11
6527.232999999999
 21
5098.714000000001
 31
0.0
  0
LINE
  5
C7B
330
1E
100
AcDbEntity
  8
0
  6
Continuous
370
    13
100
AcDbLine
 10
6517.6506
 20
5124.706
 30
0.0
 11
6511.220000000001
 21
5148.706
 31
0.0
  0
LINE
  5
C7C
330
1E
100
AcDbEntity
  8
0
  6
Continuous
370
    13
100
AcDbLine
 10
6511.220000000001
 20
5148.706
 30
0.0
 11
6504.789199999999
 21
5124.706
 31
0.0
  0
LINE
  5
C7D
330
1E
100
AcDbEntity
  8
0
  6
Continuous
370
    13
100
AcDbLine
 10
6504.789199999999
 20
5122.706
 30
0.0
 11
6511.220000000001
 21
5098.705999999999
 31
0.0
  0
LINE
  5
C7E
330
1E
100
AcDbEntity
  8
0
  6
Continuous
370
    13
100
AcDbLine
 10
6511.220000000001
 20
5098.705999999999
 30
0.0
 11
6517.6506
 21
5122.706
 31
0.0
  0
TEXT
  5
C7F
330
1E
100
AcDbEntity
  8
0
  6
Continuous
370
    13
100
AcDbText
 10
6499.233000000001
 20
5067.713999999999
 30
0.0
 40
64.0
  1
50
 50
90.0
 41
0.875
  7
BIGFONT
100
AcDbText
  0
LINE
  5
C80
330
1E
100
AcDbEntity
  8
0
  6
Continuous
370
    13
100
AcDbLine
 10
7010.707999999998
 20
4973.714000000001
 30
0.0
 11
7010.707999999998
 21
5074.706
 31
0.0
  0
LINE
  5
C81
330
1E
100
AcDbEntity
  8
0
  6
Continuous
370
    13
100
AcDbLine
 10
6757.5
 20
5074.706
 30
0.0
 11
7026.708000000002
 21
5074.706
 31
0.0
  0
LINE
  5
C82
330
1E
100
AcDbEntity
  8
0
  6
Continuous
370
    13
100
AcDbLine
 10
6757.5
 20
4973.714000000001
 30
0.0
 11
7026.708000000002
 21
4973.714000000001
 31
0.0
  0
LINE
  5
C83
330
1E
100
AcDbEntity
  8
0
  6
Continuous
370
    13
100
AcDbLine
 10
7017.130600000005
 20
5050.706
 30
0.0
 11
7010.699999999997
 21
5074.706
 31
0.0
  0
LINE
  5
C84
330
1E
100
AcDbEntity
  8
0
  6
Continuous
370
    13
100
AcDbLine
 10
7010.699999999997
 20
5074.706
 30
0.0
 11
7004.269199999999
 21
5050.706
 31
0.0
  0
LINE
  5
C85
330
1E
100
AcDbEntity
  8
0
  6
Continuous
370
    13
100
AcDbLine
 10
7004.269199999999
 20
4997.706
 30
0.0
 11
7010.699999999997
 21
4973.705999999999
 31
0.0
  0
LINE
  5
C86
330
1E
100
AcDbEntity
  8
0
  6
Continuous
370
    13
100
AcDbLine
 10
7010.699999999997
 20
4973.705999999999
 30
0.0
 11
7017.130600000005
 21
4997.706
 31
0.0
  0
TEXT
  5
C87
330
1E
100
AcDbEntity
  8
0
  6
Continuous
370
    13
100
AcDbText
 10
6998.708000000002
 20
4982.835244787549
 30
0.0
 40
64.0
  1
90
 50
90.0
 41
0.875
  7
BIGFONT
100
AcDbText
  0
LINE
  5
C88
330
1E
100
AcDbEntity
  8
3
  6
Continuous
 62
     7
370
    13
100
AcDbLine
 10
8733.220000000001
 20
42.26600000000019
 30
0.0
 11
8733.220000000001
 21
1042.266
 31
0.0
  0
LINE
  5
C89
330
1E
100
AcDbEntity
  8
3
  6
Continuous
 62
     7
370
    13
100
AcDbLine
 10
8733.220000000001
 20
42.26600000000019
 30
0.0
 11
8733.220000000001
 21
1042.266
 31
0.0
  0
LINE
  5
C8A
330
1E
100
AcDbEntity
  8
3
  6
Continuous
 62
     7
370
    13
100
AcDbLine
 10
8733.220000000001
 20
42.26600000000019
 30
0.0
 11
8733.220000000001
 21
1042.266
 31
0.0
  0
LINE
  5
C8B
330
1E
100
AcDbEntity
  8
0
  6
Continuous
 62
     7
370
    13
100
AcDbLine
 10
8139.961000000004
 20
5321.351999999999
 30
0.0
 11
8139.961000000004
 21
5571.351999999999
 31
0.0
  0
LINE
  5
C8C
330
1E
100
AcDbEntity
  8
0
  6
Continuous
 62
     7
370
    13
100
AcDbLine
 10
8142.960999999999
 20
5226.714
 30
0.0
 11
8142.960999999999
 21
5318.352
 31
0.0
  0
LINE
  5
C8D
330
1E
100
AcDbEntity
  8
0
  6
Continuous
 62
     7
370
    13
100
AcDbLine
 10
10134.961
 20
5321.351999999999
 30
0.0
 11
10134.961
 21
5571.351999999999
 31
0.0
  0
LINE
  5
C8E
330
1E
100
AcDbEntity
  8
0
  6
Continuous
 62
     7
370
    13
100
AcDbLine
 10
10131.961
 20
5226.714
 30
0.0
 11
10131.961
 21
5318.352
 31
0.0
  0
LINE
  5
C8F
330
1E
100
AcDbEntity
  8
0
  6
Continuous
370
    13
100
AcDbLine
 10
2790.0
 20
5323.816000000001
 30
0.0
 11
2790.0
 21
5573.816000000001
 31
0.0
  0
LINE
  5
C90
330
1E
100
AcDbEntity
  8
0
  6
Continuous
370
    13
100
AcDbLine
 10
2793.0
 20
5226.816
 30
0.0
 11
2793.0
 21
5320.815999999997
 31
0.0
  0
LINE
  5
C91
330
1E
100
AcDbEntity
  8
0
  6
Continuous
370
    13
100
AcDbLine
 10
4785.0
 20
5323.816000000001
 30
0.0
 11
4785.0
 21
5573.816000000001
 31
0.0
  0
LINE
  5
C92
330
1E
100
AcDbEntity
  8
0
  6
Continuous
370
    13
100
AcDbLine
 10
4781.999999999999
 20
5226.816
 30
0.0
 11
4781.999999999999
 21
5320.815999999997
 31
0.0
  0
TEXT
  5
C93
330
1E
100
AcDbEntity
  8
0
  6
Continuous
 62
     7
370
    13
100
AcDbText
 10
3648.499963658593
 20
6154.835000000002
 30
0.0
 40
100.0
  1
背面
  7
BIGFONT
100
AcDbText
  0
TEXT
  5
C94
330
1E
100
AcDbEntity
  8
0
  6
Continuous
 62
     7
370
    13
100
AcDbText
 10
2867.610999999999
 20
7214.161
 30
0.0
 40
200.0
  1
ＫＬウォール３型．一般部構造図
  7
BIGFONT
100
AcDbText
  0
TEXT
  5
C95
330
1E
100
AcDbEntity
  8
0
  6
Continuous
 62
     7
370
    13
100
AcDbText
 10
6419.914000000002
 20
7210.873999999998
 30
0.0
 40
130.0
  1
（Ｈ＝７５０）
  7
BIGFONT
100
AcDbText
  0
LINE
  5
C96
330
1E
100
AcDbEntity
  8
0
  6
Continuous
370
    13
100
AcDbLine
 10
2746.059000000001
 20
7154.204999999999
 30
0.0
 11
8343.629999999997
 21
7154.204999999999
 31
0.0
  0
TEXT
  5
C97
330
1E
100
AcDbEntity
  8
0
  6
Continuous
 62
     7
370
    13
100
AcDbText
 10
7601.580999999999
 20
7215.692
 30
0.0
 40
110.0
  1
Ｓ＝１：２０
  7
BIGFONT
100
AcDbText
  0
TEXT
  5
C98
330
1E
100
AcDbEntity
  8
0
  6
Continuous
 62
     7
370
    13
100
AcDbText
 10
3546.782
 20
6389.0
 30
0.0
 40
120.0
  1
たて壁
  7
BIGFONT
100
AcDbText
  0
TEXT
  5
C99
330
1E
100
AcDbEntity
  8
0
  6
Continuous
 62
     7
370
    13
100
AcDbText
 10
1388.501
 20
6382.618
 30
0.0
 40
120.0
  1
断面図
  7
BIGFONT
100
AcDbText
  0
TEXT
  5
C9A
330
1E
100
AcDbEntity
  8
0
  6
Continuous
 62
     7
370
    13
100
AcDbText
 10
1329.084999999999
 20
6675.835999999998
 30
0.0
 40
150.0
  1
配筋図
  7
BIGFONT
100
AcDbText
  0
TEXT
  5
C9B
330
1E
100
AcDbEntity
  8
0
  6
Continuous
 62
     7
370
    13
100
AcDbText
 10
6639.606999999999
 20
6692.060999999998
 30
0.0
 40
150.0
  1
製品図
  7
BIGFONT
100
AcDbText
  0
LINE
  5
C9C
330
1E
100
AcDbEntity
  8
0
  6
Continuous
370
    13
100
AcDbLine
 10
3515.55
 20
6129.834999999999
 30
0.0
 11
4015.55
 21
6129.834999999999
 31
0.0
  0
LINE
  5
C9D
330
1E
100
AcDbEntity
  8
0
  6
Continuous
370
    13
100
AcDbLine
 10
3501.485999999999
 20
6364.0
 30
0.0
 11
4026.928000000001
 21
6364.0
 31
0.0
  0
LINE
  5
C9E
330
1E
100
AcDbEntity
  8
0
  6
Continuous
370
    13
100
AcDbLine
 10
1337.456999999999
 20
6364.0
 30
0.0
 11
1862.898999999999
 21
6364.0
 31
0.0
  0
LINE
  5
C9F
330
1E
100
AcDbEntity
  8
0
  6
Continuous
370
    13
100
AcDbLine
 10
6589.682
 20
6658.234000000001
 30
0.0
 11
7230.633999999998
 21
6658.234000000001
 31
0.0
  0
LINE
  5
CA0
330
1E
100
AcDbEntity
  8
0
  6
Continuous
370
    13
100
AcDbLine
 10
1286.738000000001
 20
6658.234000000001
 30
0.0
 11
1927.689999999999
 21
6658.234000000001
 31
0.0
  0
LINE
  5
CA1
330
1E
100
AcDbEntity
  8
0
  6
Continuous
370
    13
100
AcDbLine
 10
6302.780000000002
 20
5719.434
 30
0.0
 11
6424.407999999999
 21
5886.056
 31
0.0
  0
LINE
  5
CA2
330
1E
100
AcDbEntity
  8
0
  6
Continuous
370
    13
100
AcDbLine
 10
6311.735999999997
 20
5742.602200000001
 30
0.0
 11
6302.780000000002
 21
5719.425999999998
 31
0.0
  0
LINE
  5
CA3
330
1E
100
AcDbEntity
  8
0
  6
Continuous
370
    13
100
AcDbLine
 10
6302.780000000002
 20
5719.425999999998
 30
0.0
 11
6322.124199999998
 21
5735.019199999999
 31
0.0
  0
LINE
  5
CA4
330
1E
100
AcDbEntity
  8
0
  6
Continuous
370
    13
100
AcDbLine
 10
6424.407999999999
 20
5886.056
 30
0.0
 11
6738.999789024671
 21
5886.056
 31
0.0
  0
TEXT
  5
CA5
330
1E
100
AcDbEntity
  8
0
  6
Continuous
370
    13
100
AcDbText
 10
6424.407999999999
 20
5898.055999999997
 30
0.0
 40
64.0
  1
９　面取り
 41
0.875
  7
BIGFONT
100
AcDbText
  0
TEXT
  5
CA6
330
1E
100
AcDbEntity
  8
0
  6
Continuous
370
    13
100
AcDbText
 10
6474.823999999997
 20
5930.598999999997
 30
0.0
 40
50.0
  1
ｃ
  7
BIGFONT
100
AcDbText
  0
LINE
  5
CA7
330
1E
100
AcDbEntity
  8
0
  6
Continuous
370
    13
100
AcDbLine
 10
6191.408
 20
5718.622
 30
0.0
 11
6078.763999999999
 21
5886.056
 31
0.0
  0
LINE
  5
CA8
330
1E
100
AcDbEntity
  8
0
  6
Continuous
370
    13
100
AcDbLine
 10
6172.667399999999
 20
5734.9292
 30
0.0
 11
6191.400000000001
 21
5718.606
 31
0.0
  0
LINE
  5
CA9
330
1E
100
AcDbEntity
  8
0
  6
Continuous
370
    13
100
AcDbLine
 10
6191.400000000001
 20
5718.606
 30
0.0
 11
6183.338800000001
 21
5742.1086
 31
0.0
  0
LINE
  5
CAA
330
1E
100
AcDbEntity
  8
0
  6
Continuous
370
    13
100
AcDbLine
 10
6078.763999999999
 20
5886.056
 30
0.0
 11
5765.919077670398
 21
5886.056
 31
0.0
  0
TEXT
  5
CAB
330
1E
100
AcDbEntity
  8
0
  6
Continuous
370
    13
100
AcDbText
 10
5768.102765938405
 20
5898.055999999997
 30
0.0
 40
64.0
  1
９　面取り
 41
0.875
  7
BIGFONT
100
AcDbText
  0
TEXT
  5
CAC
330
1E
100
AcDbEntity
  8
0
  6
Continuous
370
    13
100
AcDbText
 10
5815.828765938404
 20
5930.602999999997
 30
0.0
 40
50.0
  1
ｃ
  7
BIGFONT
100
AcDbText
  0
TEXT
  5
CAD
330
1E
100
AcDbEntity
  8
0
  6
Continuous
370
    13
100
AcDbText
 10
6838.871999999999
 20
5182.399000000001
 30
0.0
 40
60.0
  1
（４－継手フランジ）
 41
0.9333332999999999
  7
BIGFONT
100
AcDbText
  0
LINE
  5
CAE
330
1E
100
AcDbEntity
  8
0
  6
Continuous
370
    13
100
AcDbLine
 10
6587.572
 20
4773.714
 30
0.0
 11
6737.5
 21
4773.714
 31
0.0
  0
LINE
  5
CAF
330
1E
100
AcDbEntity
  8
0
  6
Continuous
370
    13
100
AcDbLine
 10
6737.5
 20
4778.415999999999
 30
0.0
 11
6737.5
 21
4757.713999999999
 31
0.0
  0
LINE
  5
CB0
330
1E
100
AcDbEntity
  8
0
  6
Continuous
370
    13
100
AcDbLine
 10
6587.572
 20
4953.713999999997
 30
0.0
 11
6587.572
 21
4757.713999999999
 31
0.0
  0
LINE
  5
CB1
330
1E
100
AcDbEntity
  8
0
  6
Continuous
370
    13
100
AcDbLine
 10
6713.5
 20
4767.2752
 30
0.0
 11
6737.5
 21
4773.705999999999
 31
0.0
  0
LINE
  5
CB2
330
1E
100
AcDbEntity
  8
0
  6
Continuous
370
    13
100
AcDbLine
 10
6737.5
 20
4773.705999999999
 30
0.0
 11
6713.5
 21
4780.136599999997
 31
0.0
  0
LINE
  5
CB3
330
1E
100
AcDbEntity
  8
0
  6
Continuous
370
    13
100
AcDbLine
 10
6611.560000000001
 20
4780.136599999997
 30
0.0
 11
6587.559999999998
 21
4773.705999999999
 31
0.0
  0
LINE
  5
CB4
330
1E
100
AcDbEntity
  8
0
  6
Continuous
370
    13
100
AcDbLine
 10
6587.559999999998
 20
4773.705999999999
 30
0.0
 11
6611.560000000001
 21
4767.2752
 31
0.0
  0
TEXT
  5
CB5
330
1E
100
AcDbEntity
  8
0
  6
Continuous
370
    13
100
AcDbText
 10
6599.448500607993
 20
4785.713999999997
 30
0.0
 40
64.0
  1
150
 41
0.875
  7
BIGFONT
100
AcDbText
  0
LINE
  5
CB6
330
1E
100
AcDbEntity
  8
0
  6
Continuous
370
    13
100
AcDbLine
 10
6187.5
 20
4623.713999999998
 30
0.0
 11
6688.900000000001
 21
4623.713999999998
 31
0.0
  0
LINE
  5
CB7
330
1E
100
AcDbEntity
  8
0
  6
Continuous
370
    13
100
AcDbLine
 10
6688.900000000001
 20
4753.713999999997
 30
0.0
 11
6688.900000000001
 21
4607.713999999996
 31
0.0
  0
LINE
  5
CB8
330
1E
100
AcDbEntity
  8
0
  6
Continuous
370
    13
100
AcDbLine
 10
6187.5
 20
4640.547
 30
0.0
 11
6187.5
 21
4607.713999999996
 31
0.0
  0
LINE
  5
CB9
330
1E
100
AcDbEntity
  8
0
  6
Continuous
370
    13
100
AcDbLine
 10
6664.900000000002
 20
4617.2752
 30
0.0
 11
6688.900000000001
 21
4623.706
 31
0.0
  0
LINE
  5
CBA
330
1E
100
AcDbEntity
  8
0
  6
Continuous
370
    13
100
AcDbLine
 10
6688.900000000001
 20
4623.706
 30
0.0
 11
6664.900000000002
 21
4630.1366
 31
0.0
  0
LINE
  5
CBB
330
1E
100
AcDbEntity
  8
0
  6
Continuous
370
    13
100
AcDbLine
 10
6211.5
 20
4630.1366
 30
0.0
 11
6187.5
 21
4623.706
 31
0.0
  0
LINE
  5
CBC
330
1E
100
AcDbEntity
  8
0
  6
Continuous
370
    13
100
AcDbLine
 10
6187.5
 20
4623.706
 30
0.0
 11
6211.5
 21
4617.2752
 31
0.0
  0
TEXT
  5
CBD
330
1E
100
AcDbEntity
  8
0
  6
Continuous
370
    13
100
AcDbText
 10
6354.200000000001
 20
4635.714
 30
0.0
 40
64.0
  1
500
 41
0.875
  7
BIGFONT
100
AcDbText
  0
LINE
  5
CBE
330
1E
100
AcDbEntity
  8
0
  6
Continuous
370
    13
100
AcDbLine
 10
5877.044999999998
 20
5099.346
 30
0.0
 11
6167.196
 21
5099.346
 31
0.0
  0
LINE
  5
CBF
330
1E
100
AcDbEntity
  8
0
  6
Continuous
370
    13
100
AcDbLine
 10
6687.707000000002
 20
4855.873
 30
0.0
 11
6687.707000000002
 21
4954.689000000001
 31
0.0
  0
LINE
  5
CC0
330
1E
100
AcDbEntity
  8
0
  6
Continuous
370
    13
100
AcDbLine
 10
5687.5
 20
4973.714000000001
 30
0.0
 11
5687.5
 21
5099.346
 31
0.0
  0
LINE
  5
CC1
330
1E
100
AcDbEntity
  8
0
  6
Continuous
370
    13
100
AcDbLine
 10
5740.496
 20
5099.346
 30
0.0
 11
5671.5
 21
5099.346
 31
0.0
  0
LINE
  5
CC2
330
1E
100
AcDbEntity
  8
0
  6
Continuous
370
    13
100
AcDbLine
 10
5708.497
 20
4973.714000000001
 30
0.0
 11
5671.5
 21
4973.714000000001
 31
0.0
  0
LINE
  5
CC3
330
1E
100
AcDbEntity
  8
0
  6
Continuous
370
    13
100
AcDbLine
 10
5693.930599999999
 20
5075.346
 30
0.0
 11
5687.5
 21
5099.346
 31
0.0
  0
LINE
  5
CC4
330
1E
100
AcDbEntity
  8
0
  6
Continuous
370
    13
100
AcDbLine
 10
5687.5
 20
5099.346
 30
0.0
 11
5681.069199999998
 21
5075.346
 31
0.0
  0
LINE
  5
CC5
330
1E
100
AcDbEntity
  8
0
  6
Continuous
370
    13
100
AcDbLine
 10
5681.069199999998
 20
4997.706
 30
0.0
 11
5687.5
 21
4973.705999999999
 31
0.0
  0
LINE
  5
CC6
330
1E
100
AcDbEntity
  8
0
  6
Continuous
370
    13
100
AcDbLine
 10
5687.5
 20
4973.705999999999
 30
0.0
 11
5693.930599999999
 21
4997.706
 31
0.0
  0
TEXT
  5
CC7
330
1E
100
AcDbEntity
  8
0
  6
Continuous
370
    13
100
AcDbText
 10
5675.5
 20
4973.714000000001
 30
0.0
 40
64.0
  1
125
 50
90.0
 41
0.875
  7
BIGFONT
100
AcDbText
  0
LINE
  5
CC8
330
1E
100
AcDbEntity
  8
0
  6
Continuous
370
    13
100
AcDbLine
 10
5987.083999999999
 20
5393.709
 30
0.0
 11
5987.083999999999
 21
5723.714000000001
 31
0.0
  0
LINE
  5
CC9
330
1E
100
AcDbEntity
  8
0
  6
Continuous
370
    13
100
AcDbLine
 10
6008.822
 20
5723.714000000001
 30
0.0
 11
5971.083999999999
 21
5723.714000000001
 31
0.0
  0
LINE
  5
CCA
330
1E
100
AcDbEntity
  8
0
  6
Continuous
370
    13
100
AcDbLine
 10
6167.5
 20
5393.709
 30
0.0
 11
5971.083999999999
 21
5393.709
 31
0.0
  0
LINE
  5
CCB
330
1E
100
AcDbEntity
  8
0
  6
Continuous
370
    13
100
AcDbLine
 10
5993.510600000002
 20
5699.706
 30
0.0
 11
5987.080000000002
 21
5723.705999999999
 31
0.0
  0
LINE
  5
CCC
330
1E
100
AcDbEntity
  8
0
  6
Continuous
370
    13
100
AcDbLine
 10
5987.080000000002
 20
5723.705999999999
 30
0.0
 11
5980.6492
 21
5699.706
 31
0.0
  0
LINE
  5
CCD
330
1E
100
AcDbEntity
  8
0
  6
Continuous
370
    13
100
AcDbLine
 10
5980.6492
 20
5417.706
 30
0.0
 11
5987.080000000002
 21
5393.705999999999
 31
0.0
  0
LINE
  5
CCE
330
1E
100
AcDbEntity
  8
0
  6
Continuous
370
    13
100
AcDbLine
 10
5987.080000000002
 20
5393.705999999999
 30
0.0
 11
5993.510600000002
 21
5417.706
 31
0.0
  0
TEXT
  5
CCF
330
1E
100
AcDbEntity
  8
0
  6
Continuous
370
    13
100
AcDbText
 10
5975.084000000002
 20
5474.7114
 30
0.0
 40
64.0
  1
330
 50
90.0
 41
0.875
  7
BIGFONT
100
AcDbText
  0
LINE
  5
CD0
330
1E
100
AcDbEntity
  8
0
  6
Continuous
370
    13
100
AcDbLine
 10
10131.961
 20
4773.714
 30
0.0
 11
10134.961
 21
4773.714
 31
0.0
  0
LINE
  5
CD1
330
1E
100
AcDbEntity
  8
0
  6
Continuous
370
    13
100
AcDbLine
 10
10134.961
 20
4849.757
 30
0.0
 11
10134.961
 21
4757.713999999999
 31
0.0
  0
LINE
  5
CD2
330
1E
100
AcDbEntity
  8
0
  6
Continuous
370
    13
100
AcDbLine
 10
10131.961
 20
4954.390999999999
 30
0.0
 11
10131.961
 21
4757.713999999999
 31
0.0
  0
LINE
  5
CD3
330
1E
100
AcDbEntity
  8
0
  6
Continuous
370
    13
100
AcDbLine
 10
10182.961
 20
4773.714
 30
0.0
 11
10134.961
 21
4773.714
 31
0.0
  0
LINE
  5
CD4
330
1E
100
AcDbEntity
  8
0
  6
Continuous
370
    13
100
AcDbLine
 10
10158.96
 20
4780.136599999997
 30
0.0
 11
10134.96
 21
4773.705999999999
 31
0.0
  0
LINE
  5
CD5
330
1E
100
AcDbEntity
  8
0
  6
Continuous
370
    13
100
AcDbLine
 10
10134.96
 20
4773.705999999999
 30
0.0
 11
10158.96
 21
4767.2752
 31
0.0
  0
LINE
  5
CD6
330
1E
100
AcDbEntity
  8
0
  6
Continuous
370
    13
100
AcDbLine
 10
10131.961
 20
4773.714
 30
0.0
 11
10083.961
 21
4773.714
 31
0.0
  0
LINE
  5
CD7
330
1E
100
AcDbEntity
  8
0
  6
Continuous
370
    13
100
AcDbLine
 10
10107.96
 20
4767.2752
 30
0.0
 11
10131.96
 21
4773.705999999999
 31
0.0
  0
LINE
  5
CD8
330
1E
100
AcDbEntity
  8
0
  6
Continuous
370
    13
100
AcDbLine
 10
10131.96
 20
4773.705999999999
 30
0.0
 11
10107.96
 21
4780.136599999997
 31
0.0
  0
LINE
  5
CD9
330
1E
100
AcDbEntity
  8
0
  6
Continuous
370
    13
100
AcDbLine
 10
10083.961
 20
4773.714
 30
0.0
 11
10019.961
 21
4773.714
 31
0.0
  0
TEXT
  5
CDA
330
1E
100
AcDbEntity
  8
0
  6
Continuous
370
    13
100
AcDbText
 10
10019.961
 20
4785.713999999997
 30
0.0
 40
64.0
  1
3
 41
0.875
  7
BIGFONT
100
AcDbText
  0
LINE
  5
CDB
330
1E
100
AcDbEntity
  8
0
  6
Continuous
370
    13
100
AcDbLine
 10
8139.961000000004
 20
4773.714
 30
0.0
 11
8142.960999999999
 21
4773.714
 31
0.0
  0
LINE
  5
CDC
330
1E
100
AcDbEntity
  8
0
  6
Continuous
370
    13
100
AcDbLine
 10
8142.960999999999
 20
4956.546999999999
 30
0.0
 11
8142.960999999999
 21
4757.713999999999
 31
0.0
  0
LINE
  5
CDD
330
1E
100
AcDbEntity
  8
0
  6
Continuous
370
    13
100
AcDbLine
 10
8139.961000000004
 20
4773.714
 30
0.0
 11
8139.961000000004
 21
4757.713999999999
 31
0.0
  0
LINE
  5
CDE
330
1E
100
AcDbEntity
  8
0
  6
Continuous
370
    13
100
AcDbLine
 10
8190.960999999999
 20
4773.714
 30
0.0
 11
8142.960999999999
 21
4773.714
 31
0.0
  0
LINE
  5
CDF
330
1E
100
AcDbEntity
  8
0
  6
Continuous
370
    13
100
AcDbLine
 10
8166.959999999999
 20
4780.136599999997
 30
0.0
 11
8142.96
 21
4773.705999999999
 31
0.0
  0
LINE
  5
CE0
330
1E
100
AcDbEntity
  8
0
  6
Continuous
370
    13
100
AcDbLine
 10
8142.96
 20
4773.705999999999
 30
0.0
 11
8166.959999999999
 21
4767.2752
 31
0.0
  0
LINE
  5
CE1
330
1E
100
AcDbEntity
  8
0
  6
Continuous
370
    13
100
AcDbLine
 10
8139.961000000004
 20
4773.714
 30
0.0
 11
8091.960999999999
 21
4773.714
 31
0.0
  0
LINE
  5
CE2
330
1E
100
AcDbEntity
  8
0
  6
Continuous
370
    13
100
AcDbLine
 10
8115.959999999999
 20
4767.2752
 30
0.0
 11
8139.96
 21
4773.705999999999
 31
0.0
  0
LINE
  5
CE3
330
1E
100
AcDbEntity
  8
0
  6
Continuous
370
    13
100
AcDbLine
 10
8139.96
 20
4773.705999999999
 30
0.0
 11
8115.959999999999
 21
4780.136599999997
 31
0.0
  0
LINE
  5
CE4
330
1E
100
AcDbEntity
  8
0
  6
Continuous
370
    13
100
AcDbLine
 10
8190.960999999999
 20
4773.714
 30
0.0
 11
8254.961000000003
 21
4773.714
 31
0.0
  0
TEXT
  5
CE5
330
1E
100
AcDbEntity
  8
0
  6
Continuous
370
    13
100
AcDbText
 10
8198.960999999995
 20
4785.713999999997
 30
0.0
 40
64.0
  1
3
 41
0.875
  7
BIGFONT
100
AcDbText
  0
LINE
  5
CE6
330
1E
100
AcDbEntity
  8
0
  6
Continuous
 62
     7
370
    13
100
AcDbLine
 10
6307.514999999999
 20
5116.581000000001
 30
0.0
 11
6307.523999999998
 21
5099.524
 31
0.0
  0
LINE
  5
CE7
330
1E
100
AcDbEntity
  8
0
  6
Continuous
 62
     7
370
    13
100
AcDbLine
 10
6307.523999999998
 20
5099.524
 30
0.0
 11
6327.525000000001
 21
5098.220999999998
 31
0.0
  0
LINE
  5
CE8
330
1E
100
AcDbEntity
  8
0
  6
Continuous
370
    13
100
AcDbLine
 10
6187.5
 20
4473.7
 30
0.0
 11
6307.5
 21
4473.7
 31
0.0
  0
LINE
  5
CE9
330
1E
100
AcDbEntity
  8
0
  6
Continuous
370
    13
100
AcDbLine
 10
6307.5
 20
4567.897000000002
 30
0.0
 11
6307.5
 21
4457.699999999999
 31
0.0
  0
LINE
  5
CEA
330
1E
100
AcDbEntity
  8
0
  6
Continuous
370
    13
100
AcDbLine
 10
6187.5
 20
4481.958999999998
 30
0.0
 11
6187.5
 21
4457.699999999999
 31
0.0
  0
LINE
  5
CEB
330
1E
100
AcDbEntity
  8
0
  6
Continuous
370
    13
100
AcDbLine
 10
6283.5
 20
4467.2552
 30
0.0
 11
6307.5
 21
4473.685999999998
 31
0.0
  0
LINE
  5
CEC
330
1E
100
AcDbEntity
  8
0
  6
Continuous
370
    13
100
AcDbLine
 10
6307.5
 20
4473.685999999998
 30
0.0
 11
6283.5
 21
4480.1166
 31
0.0
  0
LINE
  5
CED
330
1E
100
AcDbEntity
  8
0
  6
Continuous
370
    13
100
AcDbLine
 10
6211.5
 20
4480.1166
 30
0.0
 11
6187.5
 21
4473.685999999998
 31
0.0
  0
LINE
  5
CEE
330
1E
100
AcDbEntity
  8
0
  6
Continuous
370
    13
100
AcDbLine
 10
6187.5
 20
4473.685999999998
 30
0.0
 11
6211.5
 21
4467.2552
 31
0.0
  0
TEXT
  5
CEF
330
1E
100
AcDbEntity
  8
0
  6
Continuous
370
    13
100
AcDbText
 10
6199.051284521985
 20
4485.699999999996
 30
0.0
 40
64.0
  1
120
 41
0.875
  7
BIGFONT
100
AcDbText
  0
LINE
  5
CF0
330
1E
100
AcDbEntity
  8
0
  6
Continuous
370
    13
100
AcDbLine
 10
6307.5
 20
4681.559
 30
0.0
 11
6307.5
 21
4953.186999999998
 31
0.0
  0
LINE
  5
CF1
330
1E
100
AcDbEntity
  8
0
  6
Continuous
370
    13
100
AcDbLine
 10
6594.544000000002
 20
5052.209000000002
 30
0.0
 11
6777.545999999998
 21
5254.102
 31
0.0
  0
LINE
  5
CF2
330
1E
100
AcDbEntity
  8
0
  6
Continuous
370
    13
100
AcDbLine
 10
6605.893400000001
 20
5074.3068
 30
0.0
 11
6594.540000000001
 21
5052.206
 31
0.0
  0
LINE
  5
CF3
330
1E
100
AcDbEntity
  8
0
  6
Continuous
370
    13
100
AcDbLine
 10
6594.540000000001
 20
5052.206
 30
0.0
 11
6615.422800000001
 21
5065.669200000001
 31
0.0
  0
LINE
  5
CF4
330
1E
100
AcDbEntity
  8
0
  6
Continuous
370
    13
100
AcDbLine
 10
6777.545999999998
 20
5254.102
 30
0.0
 11
7677.351244427722
 21
5254.102
 31
0.0
  0
TEXT
  5
CF5
330
1E
100
AcDbEntity
  8
0
  6
Continuous
370
    13
100
AcDbText
 10
6777.545999999998
 20
5266.102000000001
 30
0.0
 40
64.0
  1
ボルト接合（Ｗ１／２×３８）
 41
0.875
  7
BIGFONT
100
AcDbText
  0
LINE
  5
CF6
330
1E
100
AcDbEntity
  8
0
  6
Continuous
370
    13
100
AcDbLine
 10
2790.0
 20
5723.816000000002
 30
0.0
 11
4785.0
 21
5723.816000000002
 31
0.0
  0
LINE
  5
CF7
330
1E
100
AcDbEntity
  8
0
  6
Continuous
370
    13
100
AcDbLine
 10
2802.0
 20
4973.815999999999
 30
0.0
 11
4773.0
 21
4973.815999999999
 31
0.0
  0
LINE
  5
CF8
330
1E
100
AcDbEntity
  8
0
  6
Continuous
370
    13
100
AcDbLine
 10
2790.0
 20
4985.815999999999
 30
0.0
 11
2802.0
 21
4973.815999999999
 31
0.0
  0
LINE
  5
CF9
330
1E
100
AcDbEntity
  8
0
  6
Continuous
370
    13
100
AcDbLine
 10
4773.0
 20
4973.815999999999
 30
0.0
 11
4785.0
 21
4985.815999999999
 31
0.0
  0
LINE
  5
CFA
330
1E
100
AcDbEntity
  8
0
  6
Continuous
370
    13
100
AcDbLine
 10
2793.0
 20
5438.816000000002
 30
0.0
 11
2833.0
 21
5438.816000000002
 31
0.0
  0
LINE
  5
CFB
330
1E
100
AcDbEntity
  8
0
  6
Continuous
370
    13
100
AcDbLine
 10
2793.0
 20
5348.816000000002
 30
0.0
 11
2793.0
 21
5438.816000000002
 31
0.0
  0
LINE
  5
CFC
330
1E
100
AcDbEntity
  8
0
  6
Continuous
370
    13
100
AcDbLine
 10
2793.0
 20
5348.816000000002
 30
0.0
 11
2833.0
 21
5348.816000000002
 31
0.0
  0
LINE
  5
CFD
330
1E
100
AcDbEntity
  8
0
  6
Continuous
 62
     1
370
    25
100
AcDbLine
 10
2803.000000000002
 20
5338.816000000002
 30
0.0
 11
3003.0
 21
5338.816000000002
 31
0.0
  0
LINE
  5
CFE
330
1E
100
AcDbEntity
  8
0
  6
Continuous
 62
     1
370
    25
100
AcDbLine
 10
2803.000000000002
 20
5448.816000000001
 30
0.0
 11
3003.0
 21
5448.816000000001
 31
0.0
  0
LINE
  5
CFF
330
1E
100
AcDbEntity
  8
0
  6
HIDDEN
370
    13
100
AcDbLine
 10
2735.879000000001
 20
5393.977
 30
0.0
 11
2880.469000000001
 21
5393.977
 31
0.0
  0
LINE
  5
D00
330
1E
100
AcDbEntity
  8
0
  6
Continuous
370
    13
100
AcDbLine
 10
4742.0
 20
5349.137999999999
 30
0.0
 11
4781.999999999999
 21
5349.137999999999
 31
0.0
  0
LINE
  5
D01
330
1E
100
AcDbEntity
  8
0
  6
Continuous
370
    13
100
AcDbLine
 10
4781.999999999999
 20
5349.137999999999
 30
0.0
 11
4781.999999999999
 21
5439.137999999999
 31
0.0
  0
LINE
  5
D02
330
1E
100
AcDbEntity
  8
0
  6
Continuous
370
    13
100
AcDbLine
 10
4742.0
 20
5439.137999999999
 30
0.0
 11
4781.999999999999
 21
5439.137999999999
 31
0.0
  0
LINE
  5
D03
330
1E
100
AcDbEntity
  8
0
  6
Continuous
370
    13
100
AcDbLine
 10
4572.0
 20
5339.138000000001
 30
0.0
 11
4772.0
 21
5339.138000000001
 31
0.0
  0
LINE
  5
D04
330
1E
100
AcDbEntity
  8
0
  6
HIDDEN
370
    13
100
AcDbLine
 10
4694.530999999999
 20
5393.977
 30
0.0
 11
4839.120999999999
 21
5393.977
 31
0.0
  0
LINE
  5
D05
330
1E
100
AcDbEntity
  8
0
  6
Continuous
 62
     1
370
    25
100
AcDbLine
 10
3037.5
 20
5018.816
 30
0.0
 11
3037.5
 21
5669.816
 31
0.0
  0
LINE
  5
D06
330
1E
100
AcDbEntity
  8
0
  6
Continuous
 62
     1
370
    25
100
AcDbLine
 10
3337.500000000002
 20
5018.816
 30
0.0
 11
3337.500000000002
 21
5669.816
 31
0.0
  0
LINE
  5
D07
330
1E
100
AcDbEntity
  8
0
  6
Continuous
 62
     1
370
    25
100
AcDbLine
 10
3637.5
 20
5018.816
 30
0.0
 11
3637.5
 21
5669.816
 31
0.0
  0
LINE
  5
D08
330
1E
100
AcDbEntity
  8
0
  6
Continuous
 62
     1
370
    25
100
AcDbLine
 10
3937.499999999999
 20
5018.816
 30
0.0
 11
3937.499999999999
 21
5669.816
 31
0.0
  0
LINE
  5
D09
330
1E
100
AcDbEntity
  8
0
  6
Continuous
 62
     1
370
    25
100
AcDbLine
 10
4237.499999999999
 20
5018.816
 30
0.0
 11
4237.499999999999
 21
5669.816
 31
0.0
  0
LINE
  5
D0A
330
1E
100
AcDbEntity
  8
0
  6
Continuous
 62
     1
370
    25
100
AcDbLine
 10
4537.5
 20
5018.816
 30
0.0
 11
4537.5
 21
5669.816
 31
0.0
  0
LINE
  5
D0B
330
1E
100
AcDbEntity
  8
0
  6
Continuous
 62
     1
370
    25
100
AcDbLine
 10
2842.500000000002
 20
5669.816
 30
0.0
 11
4732.5
 21
5669.816
 31
0.0
  0
CIRCLE
  5
D0C
330
1E
100
AcDbEntity
  8
0
  6
Continuous
 62
     7
370
    13
100
AcDbCircle
 10
4911.945
 20
5327.868999999999
 30
0.0
 40
55.0
  0
CIRCLE
  5
D0D
330
1E
100
AcDbEntity
  8
0
  6
Continuous
 62
     7
370
    13
100
AcDbCircle
 10
2474.460000000001
 20
5286.728999999998
 30
0.0
 40
55.0
  0
CIRCLE
  5
D0E
330
1E
100
AcDbEntity
  8
0
  6
Continuous
 62
     7
370
    13
100
AcDbCircle
 10
2473.450000000003
 20
5659.465
 30
0.0
 40
55.0
  0
TEXT
  5
D0F
330
1E
100
AcDbEntity
  8
0
  6
Continuous
370
    13
100
AcDbText
 10
4864.268
 20
5290.739999999999
 30
0.0
 40
72.0
  1
Ｓ
  7
BIGFONT
100
AcDbText
  0
TEXT
  5
D10
330
1E
100
AcDbEntity
  8
0
  6
Continuous
370
    13
100
AcDbText
 10
2422.783000000001
 20
5249.600000000001
 30
0.0
 40
72.0
  1
Ｓ
  7
BIGFONT
100
AcDbText
  0
TEXT
  5
D11
330
1E
100
AcDbEntity
  8
0
  6
Continuous
370
    13
100
AcDbText
 10
2419.772999999999
 20
5622.336
 30
0.0
 40
72.0
  1
Ｓ
  7
BIGFONT
100
AcDbText
  0
TEXT
  5
D12
330
1E
100
AcDbEntity
  8
0
  6
Continuous
370
    13
100
AcDbText
 10
4920.419999999999
 20
5296.495
 30
0.0
 40
40.0
  1
１
  7
BIGFONT
100
AcDbText
  0
TEXT
  5
D13
330
1E
100
AcDbEntity
  8
0
  6
Continuous
370
    13
100
AcDbText
 10
2482.637999999999
 20
5254.647999999999
 30
0.0
 40
40.0
  1
２
  7
BIGFONT
100
AcDbText
  0
TEXT
  5
D14
330
1E
100
AcDbEntity
  8
0
  6
Continuous
370
    13
100
AcDbText
 10
2478.477000000001
 20
5627.311999999999
 30
0.0
 40
40.0
  1
３
  7
BIGFONT
100
AcDbText
  0
LINE
  5
D15
330
1E
100
AcDbEntity
  8
0
  6
Continuous
370
    13
100
AcDbLine
 10
2388.614
 20
5604.510000000001
 30
0.0
 11
2842.500000000002
 21
5604.510000000001
 31
0.0
  0
LINE
  5
D16
330
1E
100
AcDbEntity
  8
0
  6
Continuous
370
    13
100
AcDbLine
 10
2818.5
 20
5598.075200000001
 30
0.0
 11
2842.500000000002
 21
5604.506
 31
0.0
  0
LINE
  5
D17
330
1E
100
AcDbEntity
  8
0
  6
Continuous
370
    13
100
AcDbLine
 10
2842.500000000002
 20
5604.506
 30
0.0
 11
2818.5
 21
5610.936599999999
 31
0.0
  0
TEXT
  5
D18
330
1E
100
AcDbEntity
  8
0
  6
Continuous
370
    13
100
AcDbText
 10
5010.313999999999
 20
5293.749
 30
0.0
 40
64.0
  1
D10
  7
BIGFONT
100
AcDbText
  0
TEXT
  5
D19
330
1E
100
AcDbEntity
  8
0
  6
Continuous
370
    13
100
AcDbText
 10
2579.308000000001
 20
5245.617999999999
 30
0.0
 40
64.0
  1
D10
  7
BIGFONT
100
AcDbText
  0
TEXT
  5
D1A
330
1E
100
AcDbEntity
  8
0
  6
Continuous
370
    13
100
AcDbText
 10
2577.196
 20
5623.866
 30
0.0
 40
64.0
  1
D10
  7
BIGFONT
100
AcDbText
  0
LINE
  5
D1B
330
1E
100
AcDbEntity
  8
0
  6
Continuous
370
    13
100
AcDbLine
 10
3337.500000000002
 20
5273.096
 30
0.0
 11
3037.5
 21
5273.096
 31
0.0
  0
LINE
  5
D1C
330
1E
100
AcDbEntity
  8
0
  6
Continuous
370
    13
100
AcDbLine
 10
3061.5
 20
5279.516600000001
 30
0.0
 11
3037.5
 21
5273.086000000001
 31
0.0
  0
LINE
  5
D1D
330
1E
100
AcDbEntity
  8
0
  6
Continuous
370
    13
100
AcDbLine
 10
3037.5
 20
5273.086000000001
 30
0.0
 11
3061.5
 21
5266.655199999999
 31
0.0
  0
LINE
  5
D1E
330
1E
100
AcDbEntity
  8
0
  6
Continuous
370
    13
100
AcDbLine
 10
3637.5
 20
5273.096
 30
0.0
 11
3335.953000000002
 21
5273.096
 31
0.0
  0
LINE
  5
D1F
330
1E
100
AcDbEntity
  8
0
  6
Continuous
370
    13
100
AcDbLine
 10
3359.96
 20
5279.516600000001
 30
0.0
 11
3335.96
 21
5273.086000000001
 31
0.0
  0
LINE
  5
D20
330
1E
100
AcDbEntity
  8
0
  6
Continuous
370
    13
100
AcDbLine
 10
3335.96
 20
5273.086000000001
 30
0.0
 11
3359.96
 21
5266.655199999999
 31
0.0
  0
LINE
  5
D21
330
1E
100
AcDbEntity
  8
0
  6
Continuous
370
    13
100
AcDbLine
 10
3937.499999999999
 20
5273.096
 30
0.0
 11
3637.5
 21
5273.096
 31
0.0
  0
LINE
  5
D22
330
1E
100
AcDbEntity
  8
0
  6
Continuous
370
    13
100
AcDbLine
 10
3661.5
 20
5279.516600000001
 30
0.0
 11
3637.5
 21
5273.086000000001
 31
0.0
  0
LINE
  5
D23
330
1E
100
AcDbEntity
  8
0
  6
Continuous
370
    13
100
AcDbLine
 10
3637.5
 20
5273.086000000001
 30
0.0
 11
3661.5
 21
5266.655199999999
 31
0.0
  0
LINE
  5
D24
330
1E
100
AcDbEntity
  8
0
  6
Continuous
370
    13
100
AcDbLine
 10
4237.499999999999
 20
5273.096
 30
0.0
 11
3937.499999999999
 21
5273.096
 31
0.0
  0
LINE
  5
D25
330
1E
100
AcDbEntity
  8
0
  6
Continuous
370
    13
100
AcDbLine
 10
3961.5
 20
5279.516600000001
 30
0.0
 11
3937.499999999999
 21
5273.086000000001
 31
0.0
  0
LINE
  5
D26
330
1E
100
AcDbEntity
  8
0
  6
Continuous
370
    13
100
AcDbLine
 10
3937.499999999999
 20
5273.086000000001
 30
0.0
 11
3961.5
 21
5266.655199999999
 31
0.0
  0
LINE
  5
D27
330
1E
100
AcDbEntity
  8
0
  6
Continuous
370
    13
100
AcDbLine
 10
4537.5
 20
5273.096
 30
0.0
 11
4235.962999999999
 21
5273.096
 31
0.0
  0
LINE
  5
D28
330
1E
100
AcDbEntity
  8
0
  6
Continuous
370
    13
100
AcDbLine
 10
4259.979999999999
 20
5279.516600000001
 30
0.0
 11
4235.979999999997
 21
5273.086000000001
 31
0.0
  0
LINE
  5
D29
330
1E
100
AcDbEntity
  8
0
  6
Continuous
370
    13
100
AcDbLine
 10
4235.979999999997
 20
5273.086000000001
 30
0.0
 11
4259.979999999999
 21
5266.655199999999
 31
0.0
  0
LINE
  5
D2A
330
1E
100
AcDbEntity
  8
0
  6
Continuous
370
    13
100
AcDbLine
 10
3047.5
 20
5108.672999999999
 30
0.0
 11
2852.5
 21
5108.672999999999
 31
0.0
  0
LINE
  5
D2B
330
1E
100
AcDbEntity
  8
0
  6
Continuous
370
    13
100
AcDbLine
 10
2876.5
 20
5115.096600000001
 30
0.0
 11
2852.5
 21
5108.666
 31
0.0
  0
LINE
  5
D2C
330
1E
100
AcDbEntity
  8
0
  6
Continuous
370
    13
100
AcDbLine
 10
2852.5
 20
5108.666
 30
0.0
 11
2876.5
 21
5102.2352
 31
0.0
  0
LINE
  5
D2D
330
1E
100
AcDbEntity
  8
0
  6
Continuous
370
    13
100
AcDbLine
 10
3347.5
 20
5108.672999999999
 30
0.0
 11
3047.444
 21
5108.672999999999
 31
0.0
  0
LINE
  5
D2E
330
1E
100
AcDbEntity
  8
0
  6
Continuous
370
    13
100
AcDbLine
 10
3071.459999999999
 20
5115.096600000001
 30
0.0
 11
3047.459999999999
 21
5108.666
 31
0.0
  0
LINE
  5
D2F
330
1E
100
AcDbEntity
  8
0
  6
Continuous
370
    13
100
AcDbLine
 10
3047.459999999999
 20
5108.666
 30
0.0
 11
3071.459999999999
 21
5102.2352
 31
0.0
  0
LINE
  5
D30
330
1E
100
AcDbEntity
  8
0
  6
Continuous
370
    13
100
AcDbLine
 10
3647.5
 20
5108.672999999999
 30
0.0
 11
3347.5
 21
5108.672999999999
 31
0.0
  0
LINE
  5
D31
330
1E
100
AcDbEntity
  8
0
  6
Continuous
370
    13
100
AcDbLine
 10
3371.500000000001
 20
5115.096600000001
 30
0.0
 11
3347.5
 21
5108.666
 31
0.0
  0
LINE
  5
D32
330
1E
100
AcDbEntity
  8
0
  6
Continuous
370
    13
100
AcDbLine
 10
3347.5
 20
5108.666
 30
0.0
 11
3371.500000000001
 21
5102.2352
 31
0.0
  0
LINE
  5
D33
330
1E
100
AcDbEntity
  8
0
  6
Continuous
370
    13
100
AcDbLine
 10
3927.5
 20
5108.672999999999
 30
0.0
 11
3647.5
 21
5108.672999999999
 31
0.0
  0
LINE
  5
D34
330
1E
100
AcDbEntity
  8
0
  6
Continuous
370
    13
100
AcDbLine
 10
3671.5
 20
5115.096600000001
 30
0.0
 11
3647.5
 21
5108.666
 31
0.0
  0
LINE
  5
D35
330
1E
100
AcDbEntity
  8
0
  6
Continuous
370
    13
100
AcDbLine
 10
3647.5
 20
5108.666
 30
0.0
 11
3671.5
 21
5102.2352
 31
0.0
  0
LINE
  5
D36
330
1E
100
AcDbEntity
  8
0
  6
Continuous
370
    13
100
AcDbLine
 10
4227.5
 20
5108.672999999999
 30
0.0
 11
3927.5
 21
5108.672999999999
 31
0.0
  0
LINE
  5
D37
330
1E
100
AcDbEntity
  8
0
  6
Continuous
370
    13
100
AcDbLine
 10
3951.5
 20
5115.096600000001
 30
0.0
 11
3927.5
 21
5108.666
 31
0.0
  0
LINE
  5
D38
330
1E
100
AcDbEntity
  8
0
  6
Continuous
370
    13
100
AcDbLine
 10
3927.5
 20
5108.666
 30
0.0
 11
3951.5
 21
5102.2352
 31
0.0
  0
LINE
  5
D39
330
1E
100
AcDbEntity
  8
0
  6
Continuous
370
    13
100
AcDbLine
 10
4527.499999999999
 20
5108.672999999999
 30
0.0
 11
4227.257000000001
 21
5108.672999999999
 31
0.0
  0
LINE
  5
D3A
330
1E
100
AcDbEntity
  8
0
  6
Continuous
370
    13
100
AcDbLine
 10
4251.260000000001
 20
5115.096600000001
 30
0.0
 11
4227.26
 21
5108.666
 31
0.0
  0
LINE
  5
D3B
330
1E
100
AcDbEntity
  8
0
  6
Continuous
370
    13
100
AcDbLine
 10
4227.26
 20
5108.666
 30
0.0
 11
4251.260000000001
 21
5102.2352
 31
0.0
  0
LINE
  5
D3C
330
1E
100
AcDbEntity
  8
0
  6
Continuous
370
    13
100
AcDbLine
 10
4722.5
 20
5108.672999999999
 30
0.0
 11
4527.499999999999
 21
5108.672999999999
 31
0.0
  0
LINE
  5
D3D
330
1E
100
AcDbEntity
  8
0
  6
Continuous
370
    13
100
AcDbLine
 10
4551.499999999999
 20
5115.096600000001
 30
0.0
 11
4527.499999999999
 21
5108.666
 31
0.0
  0
LINE
  5
D3E
330
1E
100
AcDbEntity
  8
0
  6
Continuous
370
    13
100
AcDbLine
 10
4527.499999999999
 20
5108.666
 30
0.0
 11
4551.499999999999
 21
5102.2352
 31
0.0
  0
LINE
  5
D3F
330
1E
100
AcDbEntity
  8
0
  6
Continuous
370
    13
100
AcDbLine
 10
5191.932000000001
 20
5108.672999999999
 30
0.0
 11
4722.5
 21
5108.672999999999
 31
0.0
  0
LINE
  5
D40
330
1E
100
AcDbEntity
  8
0
  6
Continuous
370
    13
100
AcDbLine
 10
4746.5
 20
5115.096600000001
 30
0.0
 11
4722.5
 21
5108.666
 31
0.0
  0
LINE
  5
D41
330
1E
100
AcDbEntity
  8
0
  6
Continuous
370
    13
100
AcDbLine
 10
4722.5
 20
5108.666
 30
0.0
 11
4746.5
 21
5102.2352
 31
0.0
  0
CIRCLE
  5
D42
330
1E
100
AcDbEntity
  8
0
  6
Continuous
 62
     7
370
    13
100
AcDbCircle
 10
4912.25
 20
5168.827999999998
 30
0.0
 40
55.0
  0
LINE
  5
D43
330
1E
100
AcDbEntity
  8
0
  6
Continuous
370
    13
100
AcDbLine
 10
2842.500000000002
 20
5604.510000000001
 30
0.0
 11
4732.5
 21
5604.510000000001
 31
0.0
  0
LINE
  5
D44
330
1E
100
AcDbEntity
  8
0
  6
Continuous
370
    13
100
AcDbLine
 10
4708.499999999999
 20
5598.075200000001
 30
0.0
 11
4732.5
 21
5604.506
 31
0.0
  0
LINE
  5
D45
330
1E
100
AcDbEntity
  8
0
  6
Continuous
370
    13
100
AcDbLine
 10
4732.5
 20
5604.506
 30
0.0
 11
4708.499999999999
 21
5610.936599999999
 31
0.0
  0
LINE
  5
D46
330
1E
100
AcDbEntity
  8
0
  6
Continuous
370
    13
100
AcDbLine
 10
2389.126999999999
 20
5231.808
 30
0.0
 11
2843.012999999999
 21
5231.808
 31
0.0
  0
LINE
  5
D47
330
1E
100
AcDbEntity
  8
0
  6
Continuous
370
    13
100
AcDbLine
 10
2819.019999999999
 20
5225.375199999998
 30
0.0
 11
2843.020000000003
 21
5231.806
 31
0.0
  0
LINE
  5
D48
330
1E
100
AcDbEntity
  8
0
  6
Continuous
370
    13
100
AcDbLine
 10
2843.020000000003
 20
5231.806
 30
0.0
 11
2819.019999999999
 21
5238.2366
 31
0.0
  0
LINE
  5
D49
330
1E
100
AcDbEntity
  8
0
  6
Continuous
370
    13
100
AcDbLine
 10
2843.012999999999
 20
5231.808
 30
0.0
 11
4733.012999999998
 21
5231.808
 31
0.0
  0
LINE
  5
D4A
330
1E
100
AcDbEntity
  8
0
  6
Continuous
370
    13
100
AcDbLine
 10
4709.019999999998
 20
5225.375199999998
 30
0.0
 11
4733.02
 21
5231.806
 31
0.0
  0
LINE
  5
D4B
330
1E
100
AcDbEntity
  8
0
  6
Continuous
370
    13
100
AcDbLine
 10
4733.02
 20
5231.806
 30
0.0
 11
4709.019999999998
 21
5238.2366
 31
0.0
  0
LINE
  5
D4C
330
1E
100
AcDbEntity
  8
0
  6
Continuous
370
    13
100
AcDbLine
 10
4785.0
 20
4985.815999999999
 30
0.0
 11
4785.0
 21
5223.816000000002
 31
0.0
  0
LINE
  5
D4D
330
1E
100
AcDbEntity
  8
0
  6
Continuous
 62
     1
370
    25
100
AcDbLine
 10
2842.500000000002
 20
5559.816000000001
 30
0.0
 11
4732.5
 21
5559.816000000001
 31
0.0
  0
LINE
  5
D4E
330
1E
100
AcDbEntity
  8
0
  6
Continuous
 62
     1
370
    25
100
AcDbLine
 10
2842.500000000002
 20
5309.816000000001
 30
0.0
 11
4732.5
 21
5309.816000000001
 31
0.0
  0
LINE
  5
D4F
330
1E
100
AcDbEntity
  8
0
  6
Continuous
 62
     7
370
    13
100
AcDbLine
 10
2842.500000000002
 20
5059.815999999997
 30
0.0
 11
4732.5
 21
5059.815999999997
 31
0.0
  0
LINE
  5
D50
330
1E
100
AcDbEntity
  8
0
  6
Continuous
370
    13
100
AcDbLine
 10
5192.510999999999
 20
5273.096
 30
0.0
 11
4537.227999999998
 21
5273.096
 31
0.0
  0
LINE
  5
D51
330
1E
100
AcDbEntity
  8
0
  6
Continuous
370
    13
100
AcDbLine
 10
4561.24
 20
5279.516600000001
 30
0.0
 11
4537.239999999997
 21
5273.086000000001
 31
0.0
  0
LINE
  5
D52
330
1E
100
AcDbEntity
  8
0
  6
Continuous
370
    13
100
AcDbLine
 10
4537.239999999997
 20
5273.086000000001
 30
0.0
 11
4561.24
 21
5266.655199999999
 31
0.0
  0
LINE
  5
D53
330
1E
100
AcDbEntity
  8
0
  6
Continuous
370
    13
100
AcDbLine
 10
3493.001
 20
5509.816000000001
 30
0.0
 11
3493.001
 21
5669.816
 31
0.0
  0
LINE
  5
D54
330
1E
100
AcDbEntity
  8
0
  6
Continuous
370
    13
100
AcDbLine
 10
3499.4508
 20
5645.806000000002
 30
0.0
 11
3493.019999999999
 21
5669.805999999999
 31
0.0
  0
LINE
  5
D55
330
1E
100
AcDbEntity
  8
0
  6
Continuous
370
    13
100
AcDbLine
 10
3493.019999999999
 20
5669.805999999999
 30
0.0
 11
3486.589399999999
 21
5645.806000000002
 31
0.0
  0
LINE
  5
D56
330
1E
100
AcDbEntity
  8
0
  6
Continuous
370
    13
100
AcDbLine
 10
3493.001
 20
5059.815999999997
 30
0.0
 11
3493.001
 21
5309.816000000001
 31
0.0
  0
LINE
  5
D57
330
1E
100
AcDbEntity
  8
0
  6
Continuous
370
    13
100
AcDbLine
 10
3499.4508
 20
5285.806
 30
0.0
 11
3493.019999999999
 21
5309.805999999999
 31
0.0
  0
LINE
  5
D58
330
1E
100
AcDbEntity
  8
0
  6
Continuous
370
    13
100
AcDbLine
 10
3493.019999999999
 20
5309.805999999999
 30
0.0
 11
3486.589399999999
 21
5285.806
 31
0.0
  0
CIRCLE
  5
D59
330
1E
100
AcDbEntity
  8
0
  6
Continuous
 62
     7
370
    13
100
AcDbCircle
 10
3604.379999999998
 20
4828.666999999999
 30
0.0
 40
55.0
  0
TEXT
  5
D5A
330
1E
100
AcDbEntity
  8
0
  6
Continuous
370
    13
100
AcDbText
 10
3550.702999999999
 20
4791.538
 30
0.0
 40
72.0
  1
Ｓ
  7
BIGFONT
100
AcDbText
  0
TEXT
  5
D5B
330
1E
100
AcDbEntity
  8
0
  6
Continuous
370
    13
100
AcDbText
 10
3604.315999999999
 20
4796.888
 30
0.0
 40
40.0
  1
７
  7
BIGFONT
100
AcDbText
  0
TEXT
  5
D5C
330
1E
100
AcDbEntity
  8
0
  6
Continuous
370
    13
100
AcDbText
 10
3703.366
 20
4797.501999999998
 30
0.0
 40
64.0
  1
D10
  7
BIGFONT
100
AcDbText
  0
LINE
  5
D5D
330
1E
100
AcDbEntity
  8
0
  6
Continuous
370
    13
100
AcDbLine
 10
3493.001
 20
4773.714
 30
0.0
 11
3900.511999999999
 21
4773.714
 31
0.0
  0
TEXT
  5
D5E
330
1E
100
AcDbEntity
  8
0
  6
Continuous
370
    13
100
AcDbText
 10
4918.749
 20
5137.315000000001
 30
0.0
 40
40.0
  1
６
  7
BIGFONT
100
AcDbText
  0
LINE
  5
D5F
330
1E
100
AcDbEntity
  8
0
  6
Continuous
370
    13
100
AcDbLine
 10
1134.329
 20
1235.226
 30
0.0
 11
1134.329
 21
3230.226
 31
0.0
  0
LINE
  5
D60
330
1E
100
AcDbEntity
  8
0
  6
Continuous
370
    13
100
AcDbLine
 10
1134.329
 20
1235.226
 30
0.0
 11
1634.328999999999
 21
1235.226
 31
0.0
  0
LINE
  5
D61
330
1E
100
AcDbEntity
  8
0
  6
Continuous
370
    13
100
AcDbLine
 10
1634.328999999999
 20
1235.226
 30
0.0
 11
1637.329
 21
1238.225999999999
 31
0.0
  0
LINE
  5
D62
330
1E
100
AcDbEntity
  8
0
  6
Continuous
370
    13
100
AcDbLine
 10
1637.329
 20
1238.225999999999
 30
0.0
 11
1684.328999999999
 21
1238.225999999999
 31
0.0
  0
LINE
  5
D63
330
1E
100
AcDbEntity
  8
0
  6
Continuous
370
    13
100
AcDbLine
 10
1684.328999999999
 20
1238.225999999999
 30
0.0
 11
1684.328999999999
 21
3227.226
 31
0.0
  0
LINE
  5
D64
330
1E
100
AcDbEntity
  8
0
  6
Continuous
370
    13
100
AcDbLine
 10
1637.329
 20
3227.226
 30
0.0
 11
1684.328999999999
 21
3227.226
 31
0.0
  0
LINE
  5
D65
330
1E
100
AcDbEntity
  8
0
  6
Continuous
370
    13
100
AcDbLine
 10
1634.328999999999
 20
3230.226
 30
0.0
 11
1637.329
 21
3227.226
 31
0.0
  0
LINE
  5
D66
330
1E
100
AcDbEntity
  8
0
  6
Continuous
370
    13
100
AcDbLine
 10
1134.329
 20
3230.226
 30
0.0
 11
1634.328999999999
 21
3230.226
 31
0.0
  0
LINE
  5
D67
330
1E
100
AcDbEntity
  8
0
  6
Continuous
370
    13
100
AcDbLine
 10
1579.329000000001
 20
3187.225999999999
 30
0.0
 11
1579.329000000001
 21
3227.226
 31
0.0
  0
LINE
  5
D68
330
1E
100
AcDbEntity
  8
0
  6
Continuous
370
    13
100
AcDbLine
 10
1489.329000000001
 20
3227.226
 30
0.0
 11
1579.329000000001
 21
3227.226
 31
0.0
  0
LINE
  5
D69
330
1E
100
AcDbEntity
  8
0
  6
Continuous
370
    13
100
AcDbLine
 10
1489.329000000001
 20
3187.225999999999
 30
0.0
 11
1489.329000000001
 21
3227.226
 31
0.0
  0
LINE
  5
D6A
330
1E
100
AcDbEntity
  8
0
  6
Continuous
 62
     1
370
    25
100
AcDbLine
 10
1479.329000000001
 20
3017.226
 30
0.0
 11
1479.329000000001
 21
3217.226
 31
0.0
  0
LINE
  5
D6B
330
1E
100
AcDbEntity
  8
0
  6
Continuous
 62
     1
370
    25
100
AcDbLine
 10
1589.329000000001
 20
3017.226
 30
0.0
 11
1589.329000000001
 21
3217.226
 31
0.0
  0
LINE
  5
D6C
330
1E
100
AcDbEntity
  8
0
  6
HIDDEN
370
    13
100
AcDbLine
 10
1534.329
 20
3135.292
 30
0.0
 11
1534.329
 21
3279.881999999999
 31
0.0
  0
TEXT
  5
D6D
330
1E
100
AcDbEntity
  8
0
  6
Continuous
 62
     7
370
    13
100
AcDbText
 10
765.3609999999989
 20
2523.942232942575
 30
0.0
 40
100.0
  1
上面
 50
90.0
  7
BIGFONT
100
AcDbText
  0
TEXT
  5
D6E
330
1E
100
AcDbEntity
  8
0
  6
Continuous
 62
     7
370
    13
100
AcDbText
 10
763.8749999999999
 20
1737.562232942576
 30
0.0
 40
100.0
  1
下面
 50
90.0
  7
BIGFONT
100
AcDbText
  0
TEXT
  5
D6F
330
1E
100
AcDbEntity
  8
0
  6
Continuous
 62
     7
370
    13
100
AcDbText
 10
523.4670000000005
 20
2108.343232942575
 30
0.0
 40
120.0
  1
底版
 50
90.0
  7
BIGFONT
100
AcDbText
  0
LINE
  5
D70
330
1E
100
AcDbEntity
  8
0
  6
Continuous
370
    13
100
AcDbLine
 10
782.6319999999996
 20
2368.980000000001
 30
0.0
 11
782.6319999999996
 21
2868.98
 31
0.0
  0
LINE
  5
D71
330
1E
100
AcDbEntity
  8
0
  6
Continuous
370
    13
100
AcDbLine
 10
782.6319999999996
 20
1585.050000000001
 30
0.0
 11
782.6319999999996
 21
2085.049999999999
 31
0.0
  0
LINE
  5
D72
330
1E
100
AcDbEntity
  8
0
  6
Continuous
370
    13
100
AcDbLine
 10
548.4670000000023
 20
1961.196999999999
 30
0.0
 11
548.4670000000023
 21
2486.639
 31
0.0
  0
CIRCLE
  5
D73
330
1E
100
AcDbEntity
  8
0
  6
Continuous
 62
     7
370
    13
100
AcDbCircle
 10
968.041000000001
 20
3514.726
 30
0.0
 40
55.0
  0
TEXT
  5
D74
330
1E
100
AcDbEntity
  8
0
  6
Continuous
370
    13
100
AcDbText
 10
914.3639999999995
 20
3477.597
 30
0.0
 40
72.0
  1
Ｓ
  7
BIGFONT
100
AcDbText
  0
TEXT
  5
D75
330
1E
100
AcDbEntity
  8
0
  6
Continuous
370
    13
100
AcDbText
 10
974.1800000000038
 20
3482.538999999999
 30
0.0
 40
40.0
  1
４
  7
BIGFONT
100
AcDbText
  0
TEXT
  5
D76
330
1E
100
AcDbEntity
  8
0
  6
Continuous
370
    13
100
AcDbText
 10
1073.972000000001
 20
3473.559
 30
0.0
 40
64.0
  1
D10
  7
BIGFONT
100
AcDbText
  0
CIRCLE
  5
D77
330
1E
100
AcDbEntity
  8
0
  6
Continuous
 62
     7
370
    13
100
AcDbCircle
 10
1497.441000000001
 20
3514.440999999999
 30
0.0
 40
55.0
  0
CIRCLE
  5
D78
330
1E
100
AcDbEntity
  8
0
  6
Continuous
 62
     7
370
    13
100
AcDbCircle
 10
981.7369999999991
 20
987.6140000000019
 30
0.0
 40
55.0
  0
TEXT
  5
D79
330
1E
100
AcDbEntity
  8
0
  6
Continuous
370
    13
100
AcDbText
 10
1443.763999999999
 20
3477.312
 30
0.0
 40
72.0
  1
Ｓ
  7
BIGFONT
100
AcDbText
  0
TEXT
  5
D7A
330
1E
100
AcDbEntity
  8
0
  6
Continuous
370
    13
100
AcDbText
 10
928.0600000000013
 20
950.4849999999999
 30
0.0
 40
72.0
  1
Ｓ
  7
BIGFONT
100
AcDbText
  0
TEXT
  5
D7B
330
1E
100
AcDbEntity
  8
0
  6
Continuous
370
    13
100
AcDbText
 10
1504.073999999999
 20
3482.092999999998
 30
0.0
 40
40.0
  1
５
  7
BIGFONT
100
AcDbText
  0
TEXT
  5
D7C
330
1E
100
AcDbEntity
  8
0
  6
Continuous
370
    13
100
AcDbText
 10
985.6460000000007
 20
955.3780000000001
 30
0.0
 40
40.0
  1
６
  7
BIGFONT
100
AcDbText
  0
LINE
  5
D7D
330
1E
100
AcDbEntity
  8
0
  6
Continuous
370
    13
100
AcDbLine
 10
881.2580000000016
 20
932.726
 30
0.0
 11
1285.135
 21
932.726
 31
0.0
  0
TEXT
  5
D7E
330
1E
100
AcDbEntity
  8
0
  6
Continuous
370
    13
100
AcDbText
 10
1603.068000000003
 20
3482.277
 30
0.0
 40
64.0
  1
D10
  7
BIGFONT
100
AcDbText
  0
TEXT
  5
D7F
330
1E
100
AcDbEntity
  8
0
  6
Continuous
370
    13
100
AcDbText
 10
1073.102999999999
 20
951.5410000000002
 30
0.0
 40
64.0
  1
D10
  7
BIGFONT
100
AcDbText
  0
LINE
  5
D80
330
1E
100
AcDbEntity
  8
0
  6
Continuous
 62
     1
370
    25
100
AcDbLine
 10
1209.329000000001
 20
3182.726000000001
 30
0.0
 11
1432.531999999999
 21
3182.726000000001
 31
0.0
  0
LINE
  5
D81
330
1E
100
AcDbEntity
  8
0
  6
Continuous
 62
     1
370
    25
100
AcDbLine
 10
1209.329000000001
 20
2987.725999999999
 30
0.0
 11
1629.329
 21
2987.725999999999
 31
0.0
  0
LINE
  5
D82
330
1E
100
AcDbEntity
  8
0
  6
Continuous
 62
     1
370
    25
100
AcDbLine
 10
1209.329000000001
 20
2687.726
 30
0.0
 11
1629.329
 21
2687.726
 31
0.0
  0
LINE
  5
D83
330
1E
100
AcDbEntity
  8
0
  6
Continuous
 62
     1
370
    25
100
AcDbLine
 10
1209.329000000001
 20
2387.725999999999
 30
0.0
 11
1629.329
 21
2387.725999999999
 31
0.0
  0
LINE
  5
D84
330
1E
100
AcDbEntity
  8
0
  6
Continuous
 62
     1
370
    25
100
AcDbLine
 10
1209.329000000001
 20
1287.726
 30
0.0
 11
1419.329000000001
 21
1287.726
 31
0.0
  0
LINE
  5
D85
330
1E
100
AcDbEntity
  8
0
  6
DASHED
 62
     1
370
    25
100
AcDbLine
 10
1209.329000000001
 20
1297.726
 30
0.0
 11
1419.329000000001
 21
1297.726
 31
0.0
  0
LINE
  5
D86
330
1E
100
AcDbEntity
  8
0
  6
Continuous
 62
     1
370
    25
100
AcDbLine
 10
1209.329000000001
 20
1482.726
 30
0.0
 11
1419.329000000001
 21
1482.726
 31
0.0
  0
LINE
  5
D87
330
1E
100
AcDbEntity
  8
0
  6
DASHED
 62
     1
370
    25
100
AcDbLine
 10
1209.329000000001
 20
1492.726000000002
 30
0.0
 11
1419.329000000001
 21
1492.726000000002
 31
0.0
  0
LINE
  5
D88
330
1E
100
AcDbEntity
  8
0
  6
Continuous
 62
     1
370
    25
100
AcDbLine
 10
1209.329000000001
 20
1782.726000000002
 30
0.0
 11
1419.329000000001
 21
1782.726000000002
 31
0.0
  0
LINE
  5
D89
330
1E
100
AcDbEntity
  8
0
  6
DASHED
 62
     1
370
    25
100
AcDbLine
 10
1209.329000000001
 20
1792.726
 30
0.0
 11
1419.329000000001
 21
1792.726
 31
0.0
  0
LINE
  5
D8A
330
1E
100
AcDbEntity
  8
0
  6
Continuous
 62
     1
370
    25
100
AcDbLine
 10
1209.329000000001
 20
2082.725999999999
 30
0.0
 11
1419.329000000001
 21
2082.725999999999
 31
0.0
  0
LINE
  5
D8B
330
1E
100
AcDbEntity
  8
0
  6
DASHED
 62
     1
370
    25
100
AcDbLine
 10
1209.329000000001
 20
2092.725999999999
 30
0.0
 11
1419.329000000001
 21
2092.725999999999
 31
0.0
  0
LINE
  5
D8C
330
1E
100
AcDbEntity
  8
0
  6
Continuous
370
    13
100
AcDbLine
 10
881.2580000000016
 20
3459.784999999999
 30
0.0
 11
1285.135
 21
3459.784999999999
 31
0.0
  0
LINE
  5
D8D
330
1E
100
AcDbEntity
  8
0
  6
Continuous
 62
     1
370
    25
100
AcDbLine
 10
1241.329000000001
 20
1287.726
 30
0.0
 11
1241.329000000001
 21
2232.725999999999
 31
0.0
  0
LINE
  5
D8E
330
1E
100
AcDbEntity
  8
0
  6
Continuous
 62
     1
370
    25
100
AcDbLine
 10
1209.329000000001
 20
2232.725999999999
 30
0.0
 11
1209.329000000001
 21
3182.726000000001
 31
0.0
  0
CIRCLE
  5
D8F
330
1E
100
AcDbEntity
  8
0
  6
Continuous
 62
     7
370
    13
100
AcDbCircle
 10
1480.516000000001
 20
986.5689999999997
 30
0.0
 40
55.0
  0
CIRCLE
  5
D90
330
1E
100
AcDbEntity
  8
0
  6
Continuous
 62
     7
370
    13
100
AcDbCircle
 10
1431.240000000001
 20
788.6860000000017
 30
0.0
 40
55.0
  0
TEXT
  5
D91
330
1E
100
AcDbEntity
  8
0
  6
Continuous
370
    13
100
AcDbText
 10
1428.839
 20
949.4400000000002
 30
0.0
 40
72.0
  1
Ｓ
  7
BIGFONT
100
AcDbText
  0
TEXT
  5
D92
330
1E
100
AcDbEntity
  8
0
  6
Continuous
370
    13
100
AcDbText
 10
1379.563
 20
751.5570000000019
 30
0.0
 40
72.0
  1
Ｓ
  7
BIGFONT
100
AcDbText
  0
TEXT
  5
D93
330
1E
100
AcDbEntity
  8
0
  6
Continuous
370
    13
100
AcDbText
 10
1488.990999999998
 20
955.1949999999997
 30
0.0
 40
40.0
  1
１
  7
BIGFONT
100
AcDbText
  0
TEXT
  5
D94
330
1E
100
AcDbEntity
  8
0
  6
Continuous
370
    13
100
AcDbText
 10
1439.418000000001
 20
756.6050000000001
 30
0.0
 40
40.0
  1
２
  7
BIGFONT
100
AcDbText
  0
TEXT
  5
D95
330
1E
100
AcDbEntity
  8
0
  6
Continuous
370
    13
100
AcDbText
 10
1585.634999999996
 20
952.4490000000016
 30
0.0
 40
64.0
  1
D10
  7
BIGFONT
100
AcDbText
  0
TEXT
  5
D96
330
1E
100
AcDbEntity
  8
0
  6
Continuous
370
    13
100
AcDbText
 10
1536.087999999996
 20
747.5749999999997
 30
0.0
 40
64.0
  1
D10
  7
BIGFONT
100
AcDbText
  0
LINE
  5
D97
330
1E
100
AcDbEntity
  8
0
  6
Continuous
370
    13
100
AcDbLine
 10
1333.451000000001
 20
732.964
 30
0.0
 11
1737.327999999999
 21
732.964
 31
0.0
  0
LINE
  5
D98
330
1E
100
AcDbEntity
  8
0
  6
Continuous
370
    13
100
AcDbLine
 10
1374.864999999998
 20
1782.726000000002
 30
0.0
 11
1374.864999999998
 21
2082.725999999999
 31
0.0
  0
LINE
  5
D99
330
1E
100
AcDbEntity
  8
0
  6
Continuous
370
    13
100
AcDbLine
 10
1381.310800000001
 20
2058.726
 30
0.0
 11
1374.880000000001
 21
2082.725999999999
 31
0.0
  0
LINE
  5
D9A
330
1E
100
AcDbEntity
  8
0
  6
Continuous
370
    13
100
AcDbLine
 10
1374.880000000001
 20
2082.725999999999
 30
0.0
 11
1368.449400000001
 21
2058.726
 31
0.0
  0
LINE
  5
D9B
330
1E
100
AcDbEntity
  8
0
  6
Continuous
370
    13
100
AcDbLine
 10
1374.864999999998
 20
1482.726
 30
0.0
 11
1374.864999999998
 21
1782.726000000002
 31
0.0
  0
LINE
  5
D9C
330
1E
100
AcDbEntity
  8
0
  6
Continuous
370
    13
100
AcDbLine
 10
1381.310800000001
 20
1758.726000000002
 30
0.0
 11
1374.880000000001
 21
1782.726000000002
 31
0.0
  0
LINE
  5
D9D
330
1E
100
AcDbEntity
  8
0
  6
Continuous
370
    13
100
AcDbLine
 10
1374.880000000001
 20
1782.726000000002
 30
0.0
 11
1368.449400000001
 21
1758.726000000002
 31
0.0
  0
LINE
  5
D9E
330
1E
100
AcDbEntity
  8
0
  6
Continuous
370
    13
100
AcDbLine
 10
1374.864999999998
 20
932.726
 30
0.0
 11
1374.864999999998
 21
1483.132000000002
 31
0.0
  0
LINE
  5
D9F
330
1E
100
AcDbEntity
  8
0
  6
Continuous
370
    13
100
AcDbLine
 10
1381.310800000001
 20
1459.146
 30
0.0
 11
1374.880000000001
 21
1483.146
 31
0.0
  0
LINE
  5
DA0
330
1E
100
AcDbEntity
  8
0
  6
Continuous
370
    13
100
AcDbLine
 10
1374.880000000001
 20
1483.146
 30
0.0
 11
1368.449400000001
 21
1459.146
 31
0.0
  0
LINE
  5
DA1
330
1E
100
AcDbEntity
  8
0
  6
Continuous
370
    13
100
AcDbLine
 10
1333.451000000001
 20
732.964
 30
0.0
 11
1333.451000000001
 21
1287.726
 31
0.0
  0
LINE
  5
DA2
330
1E
100
AcDbEntity
  8
0
  6
Continuous
370
    13
100
AcDbLine
 10
1339.890799999999
 20
1263.726000000001
 30
0.0
 11
1333.460000000001
 21
1287.726
 31
0.0
  0
LINE
  5
DA3
330
1E
100
AcDbEntity
  8
0
  6
Continuous
370
    13
100
AcDbLine
 10
1333.460000000001
 20
1287.726
 30
0.0
 11
1327.029399999998
 21
1263.726000000001
 31
0.0
  0
LINE
  5
DA4
330
1E
100
AcDbEntity
  8
0
  6
Continuous
370
    13
100
AcDbLine
 10
1285.135
 20
1792.726
 30
0.0
 11
1285.135
 21
2092.725999999999
 31
0.0
  0
LINE
  5
DA5
330
1E
100
AcDbEntity
  8
0
  6
Continuous
370
    13
100
AcDbLine
 10
1291.570800000001
 20
2068.725999999999
 30
0.0
 11
1285.139999999999
 21
2092.725999999999
 31
0.0
  0
LINE
  5
DA6
330
1E
100
AcDbEntity
  8
0
  6
Continuous
370
    13
100
AcDbLine
 10
1285.139999999999
 20
2092.725999999999
 30
0.0
 11
1278.709400000001
 21
2068.725999999999
 31
0.0
  0
LINE
  5
DA7
330
1E
100
AcDbEntity
  8
0
  6
Continuous
370
    13
100
AcDbLine
 10
1285.135
 20
1492.726000000002
 30
0.0
 11
1285.135
 21
1792.726
 31
0.0
  0
LINE
  5
DA8
330
1E
100
AcDbEntity
  8
0
  6
Continuous
370
    13
100
AcDbLine
 10
1291.570800000001
 20
1768.726
 30
0.0
 11
1285.139999999999
 21
1792.726
 31
0.0
  0
LINE
  5
DA9
330
1E
100
AcDbEntity
  8
0
  6
Continuous
370
    13
100
AcDbLine
 10
1285.139999999999
 20
1792.726
 30
0.0
 11
1278.709400000001
 21
1768.726
 31
0.0
  0
LINE
  5
DAA
330
1E
100
AcDbEntity
  8
0
  6
Continuous
370
    13
100
AcDbLine
 10
1285.135
 20
2687.726
 30
0.0
 11
1285.135
 21
2387.725999999999
 31
0.0
  0
LINE
  5
DAB
330
1E
100
AcDbEntity
  8
0
  6
Continuous
370
    13
100
AcDbLine
 10
1278.709400000001
 20
2411.726
 30
0.0
 11
1285.139999999999
 21
2387.725999999999
 31
0.0
  0
LINE
  5
DAC
330
1E
100
AcDbEntity
  8
0
  6
Continuous
370
    13
100
AcDbLine
 10
1285.139999999999
 20
2387.725999999999
 30
0.0
 11
1291.570800000001
 21
2411.726
 31
0.0
  0
LINE
  5
DAD
330
1E
100
AcDbEntity
  8
0
  6
Continuous
370
    13
100
AcDbLine
 10
1285.135
 20
2987.725999999999
 30
0.0
 11
1285.135
 21
2687.726
 31
0.0
  0
LINE
  5
DAE
330
1E
100
AcDbEntity
  8
0
  6
Continuous
370
    13
100
AcDbLine
 10
1278.709400000001
 20
2711.726
 30
0.0
 11
1285.139999999999
 21
2687.726
 31
0.0
  0
LINE
  5
DAF
330
1E
100
AcDbEntity
  8
0
  6
Continuous
370
    13
100
AcDbLine
 10
1285.139999999999
 20
2687.726
 30
0.0
 11
1291.570800000001
 21
2711.726
 31
0.0
  0
LINE
  5
DB0
330
1E
100
AcDbEntity
  8
0
  6
Continuous
370
    13
100
AcDbLine
 10
2184.329000000003
 20
2235.053999999999
 30
0.0
 11
2184.329000000003
 21
2988.168
 31
0.0
  0
LINE
  5
DB1
330
1E
100
AcDbEntity
  8
0
  6
Continuous
370
    13
100
AcDbLine
 10
2190.770799999999
 20
2964.186
 30
0.0
 11
2184.34
 21
2988.186000000001
 31
0.0
  0
LINE
  5
DB2
330
1E
100
AcDbEntity
  8
0
  6
Continuous
370
    13
100
AcDbLine
 10
2184.34
 20
2988.186000000001
 30
0.0
 11
2177.909399999998
 21
2964.186
 31
0.0
  0
LINE
  5
DB3
330
1E
100
AcDbEntity
  8
0
  6
Continuous
370
    13
100
AcDbLine
 10
2034.329000000002
 20
2231.600999999999
 30
0.0
 11
2034.329000000002
 21
1483.22
 31
0.0
  0
LINE
  5
DB4
330
1E
100
AcDbEntity
  8
0
  6
Continuous
370
    13
100
AcDbLine
 10
2027.9094
 20
1507.226
 30
0.0
 11
2034.34
 21
1483.226
 31
0.0
  0
LINE
  5
DB5
330
1E
100
AcDbEntity
  8
0
  6
Continuous
370
    13
100
AcDbLine
 10
2034.34
 20
1483.226
 30
0.0
 11
2040.770799999998
 21
1507.226
 31
0.0
  0
TEXT
  5
DB6
330
1E
100
AcDbEntity
  8
0
  6
Continuous
370
    13
100
AcDbText
 10
2021.796
 20
1556.68914910149
 30
0.0
 40
64.0
  1
5×300＝1500
 50
90.0
  7
BIGFONT
100
AcDbText
  0
TEXT
  5
DB7
330
1E
100
AcDbEntity
  8
0
  6
Continuous
370
    13
100
AcDbText
 10
2172.193
 20
2224.7775892277
 30
0.0
 40
64.0
  1
5×300=1500
 50
90.0
  7
BIGFONT
100
AcDbText
  0
LINE
  5
DB8
330
1E
100
AcDbEntity
  8
0
  6
Continuous
 62
     1
370
    25
100
AcDbLine
 10
1359.329000000001
 20
2232.725999999999
 30
0.0
 11
1359.329000000001
 21
3182.726000000001
 31
0.0
  0
CIRCLE
  5
DB9
330
1E
100
AcDbEntity
  8
0
  6
Continuous
 62
     7
370
    13
100
AcDbCircle
 10
1822.613999999999
 20
1749.753
 30
0.0
 40
55.0
  0
TEXT
  5
DBA
330
1E
100
AcDbEntity
  8
0
  6
Continuous
370
    13
100
AcDbText
 10
1859.742999999998
 20
1703.076000000002
 30
0.0
 40
72.0
  1
Ｓ
 50
90.0
  7
BIGFONT
100
AcDbText
  0
LINE
  5
DBB
330
1E
100
AcDbEntity
  8
0
  6
Continuous
370
    13
100
AcDbLine
 10
1877.437
 20
1638.664999999999
 30
0.0
 11
1877.437
 21
2042.542
 31
0.0
  0
TEXT
  5
DBC
330
1E
100
AcDbEntity
  8
0
  6
Continuous
370
    13
100
AcDbText
 10
1859.027
 20
1863.637
 30
0.0
 40
64.0
  1
D10
 50
90.0
  7
BIGFONT
100
AcDbText
  0
LINE
  5
DBD
330
1E
100
AcDbEntity
  8
0
  6
Continuous
 62
     1
370
    25
100
AcDbLine
 10
1629.329
 20
2232.725999999999
 30
0.0
 11
1629.329
 21
3182.726000000001
 31
0.0
  0
LINE
  5
DBE
330
1E
100
AcDbEntity
  8
0
  6
Continuous
370
    13
100
AcDbLine
 10
1359.329000000001
 20
2536.704
 30
0.0
 11
1209.329000000001
 21
2536.704
 31
0.0
  0
LINE
  5
DBF
330
1E
100
AcDbEntity
  8
0
  6
Continuous
370
    13
100
AcDbLine
 10
1233.34
 20
2543.1368
 30
0.0
 11
1209.34
 21
2536.706000000001
 31
0.0
  0
LINE
  5
DC0
330
1E
100
AcDbEntity
  8
0
  6
Continuous
370
    13
100
AcDbLine
 10
1209.34
 20
2536.706000000001
 30
0.0
 11
1233.34
 21
2530.275399999999
 31
0.0
  0
LINE
  5
DC1
330
1E
100
AcDbEntity
  8
0
  6
Continuous
370
    13
100
AcDbLine
 10
1877.437
 20
1638.664999999999
 30
0.0
 11
1241.329000000001
 21
1638.664999999999
 31
0.0
  0
LINE
  5
DC2
330
1E
100
AcDbEntity
  8
0
  6
Continuous
370
    13
100
AcDbLine
 10
1265.34
 20
1645.0968
 30
0.0
 11
1241.34
 21
1638.666
 31
0.0
  0
LINE
  5
DC3
330
1E
100
AcDbEntity
  8
0
  6
Continuous
370
    13
100
AcDbLine
 10
1241.34
 20
1638.666
 30
0.0
 11
1265.34
 21
1632.235400000002
 31
0.0
  0
LINE
  5
DC4
330
1E
100
AcDbEntity
  8
0
  6
Continuous
370
    13
100
AcDbLine
 10
1374.864999999998
 20
932.726
 30
0.0
 11
1778.741999999998
 21
932.726
 31
0.0
  0
TEXT
  5
DC5
330
1E
100
AcDbEntity
  8
0
  6
Continuous
370
    13
100
AcDbText
 10
1855.054
 20
1758.927
 30
0.0
 40
40.0
  1
７
 50
90.0
  7
BIGFONT
100
AcDbText
  0
CIRCLE
  5
DC6
330
1E
100
AcDbEntity
  8
0
  6
Continuous
 62
     7
370
    13
100
AcDbCircle
 10
1822.613999999999
 20
2647.762999999999
 30
0.0
 40
55.0
  0
TEXT
  5
DC7
330
1E
100
AcDbEntity
  8
0
  6
Continuous
370
    13
100
AcDbText
 10
1859.742999999998
 20
2601.086
 30
0.0
 40
72.0
  1
Ｓ
 50
90.0
  7
BIGFONT
100
AcDbText
  0
LINE
  5
DC8
330
1E
100
AcDbEntity
  8
0
  6
Continuous
370
    13
100
AcDbLine
 10
1877.437
 20
2536.675000000001
 30
0.0
 11
1877.437
 21
2940.552
 31
0.0
  0
TEXT
  5
DC9
330
1E
100
AcDbEntity
  8
0
  6
Continuous
370
    13
100
AcDbText
 10
1859.027
 20
2761.647
 30
0.0
 40
64.0
  1
D10
 50
90.0
  7
BIGFONT
100
AcDbText
  0
TEXT
  5
DCA
330
1E
100
AcDbEntity
  8
0
  6
Continuous
370
    13
100
AcDbText
 10
1855.054
 20
2656.937
 30
0.0
 40
40.0
  1
７
 50
90.0
  7
BIGFONT
100
AcDbText
  0
LINE
  5
DCB
330
1E
100
AcDbEntity
  8
0
  6
Continuous
370
    13
100
AcDbLine
 10
2005.509000000002
 20
4998.104999999998
 30
0.0
 11
2008.362000000003
 21
5043.8318
 31
0.0
  0
LINE
  5
DCC
330
1E
100
AcDbEntity
  8
0
  6
Continuous
370
    13
100
AcDbLine
 10
1707.8012
 20
5062.583599999999
 30
0.0
 11
2024.331000000002
 21
5042.835600000001
 31
0.0
  0
LINE
  5
DCD
330
1E
100
AcDbEntity
  8
0
  6
Continuous
370
    13
100
AcDbLine
 10
1704.9562
 20
5016.8566
 30
0.0
 11
2021.477999999999
 21
4997.1086
 31
0.0
  0
LINE
  5
DCE
330
1E
100
AcDbEntity
  8
0
  6
Continuous
370
    13
100
AcDbLine
 10
2011.350799999998
 20
5091.738799999999
 30
0.0
 11
2008.362000000003
 21
5043.8318
 31
0.0
  0
LINE
  5
DCF
330
1E
100
AcDbEntity
  8
0
  6
Continuous
370
    13
100
AcDbLine
 10
2003.4562
 20
5068.1798
 30
0.0
 11
2008.380000000003
 21
5043.826
 31
0.0
  0
LINE
  5
DD0
330
1E
100
AcDbEntity
  8
0
  6
Continuous
370
    13
100
AcDbLine
 10
2008.380000000003
 20
5043.826
 30
0.0
 11
2016.292799999999
 21
5067.378800000001
 31
0.0
  0
LINE
  5
DD1
330
1E
100
AcDbEntity
  8
0
  6
Continuous
370
    13
100
AcDbLine
 10
2005.509000000002
 20
4998.104999999998
 30
0.0
 11
2002.520199999999
 21
4950.198
 31
0.0
  0
LINE
  5
DD2
330
1E
100
AcDbEntity
  8
0
  6
Continuous
370
    13
100
AcDbLine
 10
2010.444000000001
 20
4973.732
 30
0.0
 11
2005.519999999998
 21
4998.086
 31
0.0
  0
LINE
  5
DD3
330
1E
100
AcDbEntity
  8
0
  6
Continuous
370
    13
100
AcDbLine
 10
2005.519999999998
 20
4998.086
 30
0.0
 11
1997.607400000001
 21
4974.533000000001
 31
0.0
  0
TEXT
  5
DD4
330
1E
100
AcDbEntity
  8
0
  6
Continuous
370
    13
100
AcDbText
 10
1996.3852
 20
5052.042539957498
 30
0.0
 40
64.0
  1
45
 50
86.43
 41
0.875
  7
BIGFONT
100
AcDbText
  0
LINE
  5
DD5
330
1E
100
AcDbEntity
  8
0
  6
Continuous
370
    13
100
AcDbLine
 10
1137.5
 20
4973.714000000001
 30
0.0
 11
1687.5
 21
4973.714000000001
 31
0.0
  0
LINE
  5
DD6
330
1E
100
AcDbEntity
  8
0
  6
Continuous
370
    13
100
AcDbLine
 10
1687.5
 20
4973.714000000001
 30
0.0
 11
1687.5
 21
5063.714
 31
0.0
  0
LINE
  5
DD7
330
1E
100
AcDbEntity
  8
0
  6
Continuous
370
    13
100
AcDbLine
 10
1137.5
 20
4973.714000000001
 30
0.0
 11
1137.5
 21
5723.714000000001
 31
0.0
  0
LINE
  5
DD8
330
1E
100
AcDbEntity
  8
0
  6
Continuous
370
    13
100
AcDbLine
 10
1137.5
 20
5723.714000000001
 30
0.0
 11
1257.500000000002
 21
5723.714000000001
 31
0.0
  0
LINE
  5
DD9
330
1E
100
AcDbEntity
  8
0
  6
Continuous
370
    13
100
AcDbLine
 10
1257.500000000002
 20
5148.714
 30
0.0
 11
1257.500000000002
 21
5723.714000000001
 31
0.0
  0
LINE
  5
DDA
330
1E
100
AcDbEntity
  8
0
  6
Continuous
370
    13
100
AcDbLine
 10
1307.423000000001
 20
5095.939999999998
 30
0.0
 11
1687.5
 21
5063.714
 31
0.0
  0
LINE
  5
DDB
330
1E
100
AcDbEntity
  8
0
  6
Continuous
370
    13
100
AcDbLine
 10
1257.500000000002
 20
5148.714
 30
0.0
 11
1307.423000000001
 21
5095.939999999998
 31
0.0
  0
LINE
  5
DDC
330
1E
100
AcDbEntity
  8
0
  6
Continuous
 62
     1
370
    25
100
AcDbLine
 10
1212.500000000002
 20
5051.714
 30
0.0
 11
1212.500000000002
 21
5683.714
 31
0.0
  0
LINE
  5
DDD
330
1E
100
AcDbEntity
  8
0
  6
Continuous
 62
     1
370
    25
100
AcDbLine
 10
1213.835999999999
 20
5066.088000000002
 30
0.0
 11
1647.5
 21
5030.882000000001
 31
0.0
  0
POINT
  5
DDE
330
1E
100
AcDbEntity
  8
0
  6
Continuous
 62
     1
370
    25
100
AcDbPoint
 10
1205.0
 20
5307.714
 30
0.0
  0
POINT
  5
DDF
330
1E
100
AcDbEntity
  8
0
  6
Continuous
 62
     1
370
    25
100
AcDbPoint
 10
1205.0
 20
5670.714
 30
0.0
  0
POINT
  5
DE0
330
1E
100
AcDbEntity
  8
0
  6
Continuous
 62
     7
370
    13
100
AcDbPoint
 10
1363.476
 20
5050.274
 30
0.0
  0
POINT
  5
DE1
330
1E
100
AcDbEntity
  8
0
  6
Continuous
 62
     1
370
    25
100
AcDbPoint
 10
1632.500000000002
 20
5024.632999999997
 30
0.0
  0
LINE
  5
DE2
330
1E
100
AcDbEntity
  8
0
  6
Continuous
 62
     1
370
    25
100
AcDbLine
 10
1242.5
 20
5021.714
 30
0.0
 11
1322.5
 21
5021.714
 31
0.0
  0
LINE
  5
DE3
330
1E
100
AcDbEntity
  8
0
  6
Continuous
 62
     7
370
    13
100
AcDbLine
 10
1212.500000000002
 20
5096.263
 30
0.0
 11
1212.500000000002
 21
5176.262999999999
 31
0.0
  0
ARC
  5
DE4
330
1E
100
AcDbEntity
  8
0
  6
Continuous
 62
     1
370
    25
100
AcDbCircle
 10
1242.5
 20
5096.263
 30
0.0
 40
30.0
100
AcDbArc
 50
180.0
 51
266.8203800000476
  0
ARC
  5
DE5
330
1E
100
AcDbEntity
  8
0
  6
Continuous
 62
     1
370
    25
100
AcDbCircle
 10
1242.5
 20
5051.714
 30
0.0
 40
30.0
100
AcDbArc
 50
180.0
 51
270.0
  0
LINE
  5
DE6
330
1E
100
AcDbEntity
  8
0
  6
Continuous
 62
     7
370
    13
100
AcDbLine
 10
1212.500000000002
 20
5162.128000000001
 30
0.0
 11
1212.500000000002
 21
5210.128
 31
0.0
  0
LINE
  5
DE7
330
1E
100
AcDbEntity
  8
0
  6
Continuous
 62
     1
370
    25
100
AcDbLine
 10
1318.448
 20
5021.714
 30
0.0
 11
1366.447999999996
 21
5021.714
 31
0.0
  0
LINE
  5
DE8
330
1E
100
AcDbEntity
  8
0
  6
Continuous
370
    13
100
AcDbLine
 10
1212.500000000002
 20
5986.756999999998
 30
0.0
 11
1257.500000000002
 21
5986.756999999998
 31
0.0
  0
LINE
  5
DE9
330
1E
100
AcDbEntity
  8
0
  6
Continuous
370
    13
100
AcDbLine
 10
1257.500000000002
 20
5743.714
 30
0.0
 11
1257.500000000002
 21
6002.757
 31
0.0
  0
LINE
  5
DEA
330
1E
100
AcDbEntity
  8
0
  6
Continuous
370
    13
100
AcDbLine
 10
1212.500000000002
 20
5743.714
 30
0.0
 11
1212.500000000002
 21
6002.757
 31
0.0
  0
LINE
  5
DEB
330
1E
100
AcDbEntity
  8
0
  6
Continuous
370
    13
100
AcDbLine
 10
1305.500000000002
 20
5986.756999999998
 30
0.0
 11
1257.500000000002
 21
5986.756999999998
 31
0.0
  0
LINE
  5
DEC
330
1E
100
AcDbEntity
  8
0
  6
Continuous
370
    13
100
AcDbLine
 10
1281.500000000002
 20
5993.176599999999
 30
0.0
 11
1257.500000000002
 21
5986.745999999997
 31
0.0
  0
LINE
  5
DED
330
1E
100
AcDbEntity
  8
0
  6
Continuous
370
    13
100
AcDbLine
 10
1257.500000000002
 20
5986.745999999997
 30
0.0
 11
1281.500000000002
 21
5980.3152
 31
0.0
  0
LINE
  5
DEE
330
1E
100
AcDbEntity
  8
0
  6
Continuous
370
    13
100
AcDbLine
 10
1212.500000000002
 20
5986.756999999998
 30
0.0
 11
1164.500000000002
 21
5986.756999999998
 31
0.0
  0
LINE
  5
DEF
330
1E
100
AcDbEntity
  8
0
  6
Continuous
370
    13
100
AcDbLine
 10
1188.500000000002
 20
5980.3152
 30
0.0
 11
1212.500000000002
 21
5986.745999999997
 31
0.0
  0
LINE
  5
DF0
330
1E
100
AcDbEntity
  8
0
  6
Continuous
370
    13
100
AcDbLine
 10
1212.500000000002
 20
5986.745999999997
 30
0.0
 11
1188.500000000002
 21
5993.176599999999
 31
0.0
  0
TEXT
  5
DF1
330
1E
100
AcDbEntity
  8
0
  6
Continuous
370
    13
100
AcDbText
 10
1179.000000000002
 20
5998.757000000003
 30
0.0
 40
64.0
  1
４５
 41
0.875
  7
BIGFONT
100
AcDbText
  0
LINE
  5
DF2
330
1E
100
AcDbEntity
  8
0
  6
Continuous
 62
     1
370
    25
100
AcDbLine
 10
1217.500000000002
 20
5133.711000000001
 30
0.0
 11
1323.448
 21
5021.714
 31
0.0
  0
CIRCLE
  5
DF3
330
1E
100
AcDbEntity
  8
0
  6
Continuous
 62
     7
370
    13
100
AcDbCircle
 10
565.5220000000008
 20
4659.556000000001
 30
0.0
 40
55.0
  0
TEXT
  5
DF4
330
1E
100
AcDbEntity
  8
0
  6
Continuous
370
    13
100
AcDbText
 10
517.2470000000012
 20
4623.253999999999
 30
0.0
 40
72.0
  1
Ｓ
  7
BIGFONT
100
AcDbText
  0
TEXT
  5
DF5
330
1E
100
AcDbEntity
  8
0
  6
Continuous
370
    13
100
AcDbText
 10
570.8600000000005
 20
4628.604000000001
 30
0.0
 40
40.0
  1
７
  7
BIGFONT
100
AcDbText
  0
LINE
  5
DF6
330
1E
100
AcDbEntity
  8
0
  6
Continuous
370
    13
100
AcDbLine
 10
466.0619999999998
 20
4604.556999999998
 30
0.0
 11
869.939000000002
 21
4604.556999999998
 31
0.0
  0
TEXT
  5
DF7
330
1E
100
AcDbEntity
  8
0
  6
Continuous
370
    13
100
AcDbText
 10
649.5079999999997
 20
4628.391
 30
0.0
 40
64.0
  1
D10
  7
BIGFONT
100
AcDbText
  0
CIRCLE
  5
DF8
330
1E
100
AcDbEntity
  8
0
  6
Continuous
 62
     7
370
    13
100
AcDbCircle
 10
1676.225
 20
5297.159999999998
 30
0.0
 40
55.0
  0
TEXT
  5
DF9
330
1E
100
AcDbEntity
  8
0
  6
Continuous
370
    13
100
AcDbText
 10
1622.547999999999
 20
5260.030999999997
 30
0.0
 40
72.0
  1
Ｓ
  7
BIGFONT
100
AcDbText
  0
TEXT
  5
DFA
330
1E
100
AcDbEntity
  8
0
  6
Continuous
370
    13
100
AcDbText
 10
1682.364000000001
 20
5264.973
 30
0.0
 40
40.0
  1
４
  7
BIGFONT
100
AcDbText
  0
LINE
  5
DFB
330
1E
100
AcDbEntity
  8
0
  6
Continuous
370
    13
100
AcDbLine
 10
1576.309999999999
 20
5242.173000000001
 30
0.0
 11
1980.187000000002
 21
5242.173000000001
 31
0.0
  0
TEXT
  5
DFC
330
1E
100
AcDbEntity
  8
0
  6
Continuous
370
    13
100
AcDbText
 10
1765.724
 20
5261.147
 30
0.0
 40
64.0
  1
D10
  7
BIGFONT
100
AcDbText
  0
CIRCLE
  5
DFD
330
1E
100
AcDbEntity
  8
0
  6
Continuous
 62
     7
370
    13
100
AcDbCircle
 10
1360.09
 20
5650.8
 30
0.0
 40
55.0
  0
TEXT
  5
DFE
330
1E
100
AcDbEntity
  8
0
  6
Continuous
370
    13
100
AcDbText
 10
1308.413
 20
5613.671000000001
 30
0.0
 40
72.0
  1
Ｓ
  7
BIGFONT
100
AcDbText
  0
TEXT
  5
DFF
330
1E
100
AcDbEntity
  8
0
  6
Continuous
370
    13
100
AcDbText
 10
1368.565
 20
5619.425999999998
 30
0.0
 40
40.0
  1
１
  7
BIGFONT
100
AcDbText
  0
TEXT
  5
E00
330
1E
100
AcDbEntity
  8
0
  6
Continuous
370
    13
100
AcDbText
 10
1461.103999999999
 20
5615.493999999999
 30
0.0
 40
64.0
  1
D10
  7
BIGFONT
100
AcDbText
  0
POINT
  5
E01
330
1E
100
AcDbEntity
  8
0
  6
Continuous
 62
     1
370
    25
100
AcDbPoint
 10
1244.500000000002
 20
5026.392
 30
0.0
  0
POINT
  5
E02
330
1E
100
AcDbEntity
  8
0
  6
Continuous
 62
     1
370
    25
100
AcDbPoint
 10
1217.546
 20
5070.923999999997
 30
0.0
  0
LINE
  5
E03
330
1E
100
AcDbEntity
  8
0
  6
Continuous
370
    13
100
AcDbLine
 10
869.939000000002
 20
4604.556999999998
 30
0.0
 11
1242.5
 21
5021.714
 31
0.0
  0
LINE
  5
E04
330
1E
100
AcDbEntity
  8
0
  6
Continuous
370
    13
100
AcDbLine
 10
1231.309799999999
 20
4999.521800000001
 30
0.0
 11
1242.5
 21
5021.706
 31
0.0
  0
LINE
  5
E05
330
1E
100
AcDbEntity
  8
0
  6
Continuous
370
    13
100
AcDbLine
 10
1242.5
 20
5021.706
 30
0.0
 11
1221.717000000001
 21
5008.089199999998
 31
0.0
  0
LINE
  5
E06
330
1E
100
AcDbEntity
  8
0
  6
Continuous
 62
     1
370
    25
100
AcDbLine
 10
1366.447999999996
 20
5021.714
 30
0.0
 11
1421.447999999998
 21
5021.714
 31
0.0
  0
LINE
  5
E07
330
1E
100
AcDbEntity
  8
0
  6
Continuous
370
    13
100
AcDbLine
 10
1212.500000000002
 20
4773.714
 30
0.0
 11
1417.5
 21
4773.714
 31
0.0
  0
LINE
  5
E08
330
1E
100
AcDbEntity
  8
0
  6
Continuous
370
    13
100
AcDbLine
 10
1417.5
 20
4953.713999999997
 30
0.0
 11
1417.5
 21
4757.713999999999
 31
0.0
  0
LINE
  5
E09
330
1E
100
AcDbEntity
  8
0
  6
Continuous
370
    13
100
AcDbLine
 10
1212.500000000002
 20
4838.025000000001
 30
0.0
 11
1212.500000000002
 21
4757.713999999999
 31
0.0
  0
LINE
  5
E0A
330
1E
100
AcDbEntity
  8
0
  6
Continuous
370
    13
100
AcDbLine
 10
1393.500000000002
 20
4767.2752
 30
0.0
 11
1417.5
 21
4773.705999999999
 31
0.0
  0
LINE
  5
E0B
330
1E
100
AcDbEntity
  8
0
  6
Continuous
370
    13
100
AcDbLine
 10
1417.5
 20
4773.705999999999
 30
0.0
 11
1393.500000000002
 21
4780.136599999997
 31
0.0
  0
LINE
  5
E0C
330
1E
100
AcDbEntity
  8
0
  6
Continuous
370
    13
100
AcDbLine
 10
1236.5
 20
4780.136599999997
 30
0.0
 11
1212.500000000002
 21
4773.705999999999
 31
0.0
  0
LINE
  5
E0D
330
1E
100
AcDbEntity
  8
0
  6
Continuous
370
    13
100
AcDbLine
 10
1212.500000000002
 20
4773.705999999999
 30
0.0
 11
1236.5
 21
4767.2752
 31
0.0
  0
TEXT
  5
E0E
330
1E
100
AcDbEntity
  8
0
  6
Continuous
370
    13
100
AcDbText
 10
1256.74789055914
 20
4785.713999999997
 30
0.0
 40
64.0
  1
210
 41
0.875
  7
BIGFONT
100
AcDbText
  0
LINE
  5
E0F
330
1E
100
AcDbEntity
  8
0
  6
Continuous
370
    13
100
AcDbLine
 10
869.939000000002
 20
4604.556999999998
 30
0.0
 11
1363.476
 21
5050.274
 31
0.0
  0
LINE
  5
E10
330
1E
100
AcDbEntity
  8
0
  6
Continuous
370
    13
100
AcDbLine
 10
1349.978800000001
 20
5029.4076
 30
0.0
 11
1363.48
 21
5050.265999999999
 31
0.0
  0
LINE
  5
E11
330
1E
100
AcDbEntity
  8
0
  6
Continuous
370
    13
100
AcDbLine
 10
1363.48
 20
5050.265999999999
 30
0.0
 11
1341.358399999999
 21
5038.9528
 31
0.0
  0
POINT
  5
E12
330
1E
100
AcDbEntity
  8
0
  6
Continuous
 62
     1
370
    25
100
AcDbPoint
 10
1205.0
 20
5560.714
 30
0.0
  0
LINE
  5
E13
330
1E
100
AcDbEntity
  8
0
  6
Continuous
370
    13
100
AcDbLine
 10
633.7460000000009
 20
4973.714000000001
 30
0.0
 11
633.7460000000009
 21
5018.816
 31
0.0
  0
LINE
  5
E14
330
1E
100
AcDbEntity
  8
0
  6
Continuous
370
    13
100
AcDbLine
 10
1117.5
 20
5018.816
 30
0.0
 11
617.746000000001
 21
5018.816
 31
0.0
  0
LINE
  5
E15
330
1E
100
AcDbEntity
  8
0
  6
Continuous
370
    13
100
AcDbLine
 10
1117.5
 20
4973.714000000001
 30
0.0
 11
617.746000000001
 21
4973.714000000001
 31
0.0
  0
LINE
  5
E16
330
1E
100
AcDbEntity
  8
0
  6
Continuous
370
    13
100
AcDbLine
 10
633.7460000000009
 20
5066.816
 30
0.0
 11
633.7460000000009
 21
5018.816
 31
0.0
  0
LINE
  5
E17
330
1E
100
AcDbEntity
  8
0
  6
Continuous
370
    13
100
AcDbLine
 10
627.3294000000005
 20
5042.805999999998
 30
0.0
 11
633.7600000000001
 21
5018.805999999998
 31
0.0
  0
LINE
  5
E18
330
1E
100
AcDbEntity
  8
0
  6
Continuous
370
    13
100
AcDbLine
 10
633.7600000000001
 20
5018.805999999998
 30
0.0
 11
640.1908000000003
 21
5042.805999999998
 31
0.0
  0
LINE
  5
E19
330
1E
100
AcDbEntity
  8
0
  6
Continuous
370
    13
100
AcDbLine
 10
633.7460000000009
 20
4973.714000000001
 30
0.0
 11
633.7460000000009
 21
4925.714
 31
0.0
  0
LINE
  5
E1A
330
1E
100
AcDbEntity
  8
0
  6
Continuous
370
    13
100
AcDbLine
 10
640.1908000000003
 20
4949.706
 30
0.0
 11
633.7600000000001
 21
4973.705999999999
 31
0.0
  0
LINE
  5
E1B
330
1E
100
AcDbEntity
  8
0
  6
Continuous
370
    13
100
AcDbLine
 10
633.7600000000001
 20
4973.705999999999
 30
0.0
 11
627.3294000000005
 21
4949.706
 31
0.0
  0
LINE
  5
E1C
330
1E
100
AcDbEntity
  8
0
  6
Continuous
370
    13
100
AcDbLine
 10
633.7460000000009
 20
4925.714
 30
0.0
 11
633.7460000000009
 21
4805.714
 31
0.0
  0
TEXT
  5
E1D
330
1E
100
AcDbEntity
  8
0
  6
Continuous
370
    13
100
AcDbText
 10
621.7459999999991
 20
4805.714
 30
0.0
 40
64.0
  1
45
 50
90.0
 41
0.875
  7
BIGFONT
100
AcDbText
  0
LINE
  5
E1E
330
1E
100
AcDbEntity
  8
0
  6
Continuous
370
    13
100
AcDbLine
 10
633.7460000000009
 20
5018.816
 30
0.0
 11
633.7460000000009
 21
5670.457
 31
0.0
  0
LINE
  5
E1F
330
1E
100
AcDbEntity
  8
0
  6
Continuous
370
    13
100
AcDbLine
 10
1117.5
 20
5670.457
 30
0.0
 11
617.746000000001
 21
5670.457
 31
0.0
  0
LINE
  5
E20
330
1E
100
AcDbEntity
  8
0
  6
Continuous
370
    13
100
AcDbLine
 10
640.1908000000003
 20
5646.446000000001
 30
0.0
 11
633.7600000000001
 21
5670.446
 31
0.0
  0
LINE
  5
E21
330
1E
100
AcDbEntity
  8
0
  6
Continuous
370
    13
100
AcDbLine
 10
633.7600000000001
 20
5670.446
 30
0.0
 11
627.3294000000005
 21
5646.446000000001
 31
0.0
  0
LINE
  5
E22
330
1E
100
AcDbEntity
  8
0
  6
Continuous
370
    13
100
AcDbLine
 10
627.3294000000005
 20
5042.805999999998
 30
0.0
 11
633.7600000000001
 21
5018.805999999998
 31
0.0
  0
LINE
  5
E23
330
1E
100
AcDbEntity
  8
0
  6
Continuous
370
    13
100
AcDbLine
 10
633.7600000000001
 20
5018.805999999998
 30
0.0
 11
640.1908000000003
 21
5042.805999999998
 31
0.0
  0
TEXT
  5
E24
330
1E
100
AcDbEntity
  8
0
  6
Continuous
370
    13
100
AcDbText
 10
621.7459999999991
 20
5260.6364
 30
0.0
 40
64.0
  1
651
 50
90.0
 41
0.875
  7
BIGFONT
100
AcDbText
  0
LINE
  5
E25
330
1E
100
AcDbEntity
  8
0
  6
Continuous
370
    13
100
AcDbLine
 10
633.7460000000009
 20
5670.457
 30
0.0
 11
633.7460000000009
 21
5723.714000000001
 31
0.0
  0
LINE
  5
E26
330
1E
100
AcDbEntity
  8
0
  6
Continuous
370
    13
100
AcDbLine
 10
1117.5
 20
5723.714000000001
 30
0.0
 11
617.746000000001
 21
5723.714000000001
 31
0.0
  0
LINE
  5
E27
330
1E
100
AcDbEntity
  8
0
  6
Continuous
370
    13
100
AcDbLine
 10
633.7460000000009
 20
5771.714
 30
0.0
 11
633.7460000000009
 21
5723.714000000001
 31
0.0
  0
LINE
  5
E28
330
1E
100
AcDbEntity
  8
0
  6
Continuous
370
    13
100
AcDbLine
 10
627.3294000000005
 20
5747.706
 30
0.0
 11
633.7600000000001
 21
5723.705999999999
 31
0.0
  0
LINE
  5
E29
330
1E
100
AcDbEntity
  8
0
  6
Continuous
370
    13
100
AcDbLine
 10
633.7600000000001
 20
5723.705999999999
 30
0.0
 11
640.1908000000003
 21
5747.706
 31
0.0
  0
LINE
  5
E2A
330
1E
100
AcDbEntity
  8
0
  6
Continuous
370
    13
100
AcDbLine
 10
633.7460000000009
 20
5670.457
 30
0.0
 11
633.7460000000009
 21
5622.456999999998
 31
0.0
  0
LINE
  5
E2B
330
1E
100
AcDbEntity
  8
0
  6
Continuous
370
    13
100
AcDbLine
 10
640.1908000000003
 20
5646.446000000001
 30
0.0
 11
633.7600000000001
 21
5670.446
 31
0.0
  0
LINE
  5
E2C
330
1E
100
AcDbEntity
  8
0
  6
Continuous
370
    13
100
AcDbLine
 10
633.7600000000001
 20
5670.446
 30
0.0
 11
627.3294000000005
 21
5646.446000000001
 31
0.0
  0
LINE
  5
E2D
330
1E
100
AcDbEntity
  8
0
  6
Continuous
370
    13
100
AcDbLine
 10
633.7460000000009
 20
5771.714
 30
0.0
 11
633.7460000000009
 21
5891.714
 31
0.0
  0
TEXT
  5
E2E
330
1E
100
AcDbEntity
  8
0
  6
Continuous
370
    13
100
AcDbText
 10
621.7459999999991
 20
5779.714
 30
0.0
 40
64.0
  1
54
 50
90.0
 41
0.875
  7
BIGFONT
100
AcDbText
  0
LINE
  5
E2F
330
1E
100
AcDbEntity
  8
0
  6
Continuous
370
    13
100
AcDbLine
 10
831.8240000000004
 20
5018.816
 30
0.0
 11
1025.952000000001
 21
5018.816
 31
0.0
  0
LINE
  5
E30
330
1E
100
AcDbEntity
  8
0
  6
Continuous
370
    13
100
AcDbLine
 10
2790.0
 20
5323.816000000001
 30
0.0
 11
2793.0
 21
5320.815999999997
 31
0.0
  0
LINE
  5
E31
330
1E
100
AcDbEntity
  8
0
  6
Continuous
370
    13
100
AcDbLine
 10
2790.0
 20
5223.816000000002
 30
0.0
 11
2793.0
 21
5226.816
 31
0.0
  0
LINE
  5
E32
330
1E
100
AcDbEntity
  8
0
  6
DASHED
 62
     1
370
    25
100
AcDbLine
 10
4722.5
 20
5018.298999999998
 30
0.0
 11
4722.5
 21
5202.868999999999
 31
0.0
  0
LINE
  5
E33
330
1E
100
AcDbEntity
  8
0
  6
DASHED
 62
     1
370
    25
100
AcDbLine
 10
4527.499999999999
 20
5018.298999999998
 30
0.0
 11
4527.499999999999
 21
5202.868999999999
 31
0.0
  0
LINE
  5
E34
330
1E
100
AcDbEntity
  8
0
  6
DASHED
 62
     1
370
    25
100
AcDbLine
 10
4227.5
 20
5018.298999999998
 30
0.0
 11
4227.5
 21
5202.868999999999
 31
0.0
  0
LINE
  5
E35
330
1E
100
AcDbEntity
  8
0
  6
DASHED
 62
     1
370
    25
100
AcDbLine
 10
3927.5
 20
5018.298999999998
 30
0.0
 11
3927.5
 21
5202.868999999999
 31
0.0
  0
LINE
  5
E36
330
1E
100
AcDbEntity
  8
0
  6
DASHED
 62
     1
370
    25
100
AcDbLine
 10
3647.5
 20
5018.298999999998
 30
0.0
 11
3647.5
 21
5202.868999999999
 31
0.0
  0
LINE
  5
E37
330
1E
100
AcDbEntity
  8
0
  6
DASHED
 62
     1
370
    25
100
AcDbLine
 10
3347.5
 20
5018.298999999998
 30
0.0
 11
3347.5
 21
5202.868999999999
 31
0.0
  0
LINE
  5
E38
330
1E
100
AcDbEntity
  8
0
  6
DASHED
 62
     1
370
    25
100
AcDbLine
 10
3047.5
 20
5018.298999999998
 30
0.0
 11
3047.5
 21
5202.868999999999
 31
0.0
  0
LINE
  5
E39
330
1E
100
AcDbEntity
  8
0
  6
DASHED
 62
     1
370
    25
100
AcDbLine
 10
2852.5
 20
5018.298999999998
 30
0.0
 11
2852.5
 21
5202.868999999999
 31
0.0
  0
CIRCLE
  5
E3A
330
1E
100
AcDbEntity
  8
0
  6
Continuous
 62
     7
370
    13
100
AcDbCircle
 10
1669.236000000001
 20
5491.336
 30
0.0
 40
55.0
  0
TEXT
  5
E3B
330
1E
100
AcDbEntity
  8
0
  6
Continuous
370
    13
100
AcDbText
 10
1615.559000000001
 20
5454.207000000002
 30
0.0
 40
72.0
  1
Ｓ
  7
BIGFONT
100
AcDbText
  0
TEXT
  5
E3C
330
1E
100
AcDbEntity
  8
0
  6
Continuous
370
    13
100
AcDbText
 10
1673.145000000004
 20
5459.100000000001
 30
0.0
 40
40.0
  1
６
  7
BIGFONT
100
AcDbText
  0
LINE
  5
E3D
330
1E
100
AcDbEntity
  8
0
  6
Continuous
370
    13
100
AcDbLine
 10
1574.581
 20
5435.602
 30
0.0
 11
1978.458
 21
5435.602
 31
0.0
  0
TEXT
  5
E3E
330
1E
100
AcDbEntity
  8
0
  6
Continuous
370
    13
100
AcDbText
 10
1760.602000000001
 20
5455.262999999999
 30
0.0
 40
64.0
  1
D10
  7
BIGFONT
100
AcDbText
  0
LINE
  5
E3F
330
1E
100
AcDbEntity
  8
0
  6
Continuous
370
    13
100
AcDbLine
 10
1574.581
 20
5435.602
 30
0.0
 11
1258.66
 21
5090.201
 31
0.0
  0
LINE
  5
E40
330
1E
100
AcDbEntity
  8
0
  6
Continuous
370
    13
100
AcDbLine
 10
1270.112800000001
 20
5112.2356
 30
0.0
 11
1258.66
 21
5090.186
 31
0.0
  0
LINE
  5
E41
330
1E
100
AcDbEntity
  8
0
  6
Continuous
370
    13
100
AcDbLine
 10
1258.66
 20
5090.186
 30
0.0
 11
1279.603399999998
 21
5103.555199999998
 31
0.0
  0
LINE
  5
E42
330
1E
100
AcDbEntity
  8
0
  6
Continuous
370
    13
100
AcDbLine
 10
1641.191
 20
5596.109000000001
 30
0.0
 11
1212.500000000002
 21
5596.109000000001
 31
0.0
  0
LINE
  5
E43
330
1E
100
AcDbEntity
  8
0
  6
Continuous
370
    13
100
AcDbLine
 10
1236.5
 20
5602.536600000001
 30
0.0
 11
1212.500000000002
 21
5596.105999999998
 31
0.0
  0
LINE
  5
E44
330
1E
100
AcDbEntity
  8
0
  6
Continuous
370
    13
100
AcDbLine
 10
1212.500000000002
 20
5596.105999999998
 30
0.0
 11
1236.5
 21
5589.675200000002
 31
0.0
  0
LINE
  5
E45
330
1E
100
AcDbEntity
  8
0
  6
Continuous
370
    13
100
AcDbLine
 10
1576.309999999999
 20
5242.937
 30
0.0
 11
1576.309999999999
 21
5036.011999999999
 31
0.0
  0
LINE
  5
E46
330
1E
100
AcDbEntity
  8
0
  6
Continuous
370
    13
100
AcDbLine
 10
1569.8894
 20
5060.005999999998
 30
0.0
 11
1576.32
 21
5036.005999999998
 31
0.0
  0
LINE
  5
E47
330
1E
100
AcDbEntity
  8
0
  6
Continuous
370
    13
100
AcDbLine
 10
1576.32
 20
5036.005999999998
 30
0.0
 11
1582.750800000001
 21
5060.005999999998
 31
0.0
  0
LINE
  5
E48
330
1E
100
AcDbEntity
  8
0
  6
Continuous
370
    13
100
AcDbLine
 10
1137.5
 20
4473.719
 30
0.0
 11
1211.222000000002
 21
4473.719
 31
0.0
  0
LINE
  5
E49
330
1E
100
AcDbEntity
  8
0
  6
Continuous
370
    13
100
AcDbLine
 10
1211.222000000002
 20
4953.713999999997
 30
0.0
 11
1211.222000000002
 21
4457.718999999999
 31
0.0
  0
LINE
  5
E4A
330
1E
100
AcDbEntity
  8
0
  6
Continuous
370
    13
100
AcDbLine
 10
1137.5
 20
4953.713999999997
 30
0.0
 11
1137.5
 21
4457.718999999999
 31
0.0
  0
LINE
  5
E4B
330
1E
100
AcDbEntity
  8
0
  6
Continuous
370
    13
100
AcDbLine
 10
1187.24
 20
4467.275199999999
 30
0.0
 11
1211.24
 21
4473.705999999999
 31
0.0
  0
LINE
  5
E4C
330
1E
100
AcDbEntity
  8
0
  6
Continuous
370
    13
100
AcDbLine
 10
1211.24
 20
4473.705999999999
 30
0.0
 11
1187.24
 21
4480.136599999998
 31
0.0
  0
LINE
  5
E4D
330
1E
100
AcDbEntity
  8
0
  6
Continuous
370
    13
100
AcDbLine
 10
1161.500000000001
 20
4480.136599999998
 30
0.0
 11
1137.5
 21
4473.705999999999
 31
0.0
  0
LINE
  5
E4E
330
1E
100
AcDbEntity
  8
0
  6
Continuous
370
    13
100
AcDbLine
 10
1137.5
 20
4473.705999999999
 30
0.0
 11
1161.500000000001
 21
4467.275199999999
 31
0.0
  0
TEXT
  5
E4F
330
1E
100
AcDbEntity
  8
0
  6
Continuous
370
    13
100
AcDbText
 10
1130.376674819063
 20
4485.718999999999
 30
0.0
 40
64.0
  1
75
 41
0.875
  7
BIGFONT
100
AcDbText
  0
LINE
  5
E50
330
1E
100
AcDbEntity
  8
0
  6
Continuous
370
    13
100
AcDbLine
 10
1211.222000000002
 20
4473.719
 30
0.0
 11
1632.703999999999
 21
4473.719
 31
0.0
  0
LINE
  5
E51
330
1E
100
AcDbEntity
  8
0
  6
Continuous
370
    13
100
AcDbLine
 10
1632.703999999999
 20
4953.713999999997
 30
0.0
 11
1632.703999999999
 21
4457.718999999999
 31
0.0
  0
LINE
  5
E52
330
1E
100
AcDbEntity
  8
0
  6
Continuous
370
    13
100
AcDbLine
 10
1608.720000000001
 20
4467.275199999999
 30
0.0
 11
1632.719999999997
 21
4473.705999999999
 31
0.0
  0
LINE
  5
E53
330
1E
100
AcDbEntity
  8
0
  6
Continuous
370
    13
100
AcDbLine
 10
1632.719999999997
 20
4473.705999999999
 30
0.0
 11
1608.720000000001
 21
4480.136599999998
 31
0.0
  0
LINE
  5
E54
330
1E
100
AcDbEntity
  8
0
  6
Continuous
370
    13
100
AcDbLine
 10
1235.24
 20
4480.136599999998
 30
0.0
 11
1211.24
 21
4473.705999999999
 31
0.0
  0
LINE
  5
E55
330
1E
100
AcDbEntity
  8
0
  6
Continuous
370
    13
100
AcDbLine
 10
1211.24
 20
4473.705999999999
 30
0.0
 11
1235.24
 21
4467.275199999999
 31
0.0
  0
TEXT
  5
E56
330
1E
100
AcDbEntity
  8
0
  6
Continuous
370
    13
100
AcDbText
 10
1337.963000000002
 20
4485.718999999999
 30
0.0
 40
64.0
  1
420
 41
0.875
  7
BIGFONT
100
AcDbText
  0
LINE
  5
E57
330
1E
100
AcDbEntity
  8
0
  6
Continuous
370
    13
100
AcDbLine
 10
1632.703999999999
 20
4473.719
 30
0.0
 11
1687.5
 21
4473.719
 31
0.0
  0
LINE
  5
E58
330
1E
100
AcDbEntity
  8
0
  6
Continuous
370
    13
100
AcDbLine
 10
1687.5
 20
4953.713999999997
 30
0.0
 11
1687.5
 21
4457.718999999999
 31
0.0
  0
LINE
  5
E59
330
1E
100
AcDbEntity
  8
0
  6
Continuous
370
    13
100
AcDbLine
 10
1663.5
 20
4467.275199999999
 30
0.0
 11
1687.5
 21
4473.705999999999
 31
0.0
  0
LINE
  5
E5A
330
1E
100
AcDbEntity
  8
0
  6
Continuous
370
    13
100
AcDbLine
 10
1687.5
 20
4473.705999999999
 30
0.0
 11
1663.5
 21
4480.136599999998
 31
0.0
  0
LINE
  5
E5B
330
1E
100
AcDbEntity
  8
0
  6
Continuous
370
    13
100
AcDbLine
 10
1656.719999999999
 20
4480.136599999998
 30
0.0
 11
1632.719999999997
 21
4473.705999999999
 31
0.0
  0
LINE
  5
E5C
330
1E
100
AcDbEntity
  8
0
  6
Continuous
370
    13
100
AcDbLine
 10
1632.719999999997
 20
4473.705999999999
 30
0.0
 11
1656.719999999999
 21
4467.275199999999
 31
0.0
  0
TEXT
  5
E5D
330
1E
100
AcDbEntity
  8
0
  6
Continuous
370
    13
100
AcDbText
 10
1604.101999999999
 20
4485.718999999999
 30
0.0
 40
64.0
  1
55
 41
0.875
  7
BIGFONT
100
AcDbText
  0
LINE
  5
E5E
330
1E
100
AcDbEntity
  8
0
  6
Continuous
370
    13
100
AcDbLine
 10
1211.222000000002
 20
4623.815999999997
 30
0.0
 11
1363.852999999997
 21
4623.815999999997
 31
0.0
  0
LINE
  5
E5F
330
1E
100
AcDbEntity
  8
0
  6
Continuous
370
    13
100
AcDbLine
 10
1363.852999999997
 20
4753.713999999997
 30
0.0
 11
1363.852999999997
 21
4607.815999999998
 31
0.0
  0
LINE
  5
E60
330
1E
100
AcDbEntity
  8
0
  6
Continuous
370
    13
100
AcDbLine
 10
1211.222000000002
 20
4640.604999999998
 30
0.0
 11
1211.222000000002
 21
4607.815999999998
 31
0.0
  0
LINE
  5
E61
330
1E
100
AcDbEntity
  8
0
  6
Continuous
370
    13
100
AcDbLine
 10
1339.859999999999
 20
4617.3752
 30
0.0
 11
1363.86
 21
4623.806
 31
0.0
  0
LINE
  5
E62
330
1E
100
AcDbEntity
  8
0
  6
Continuous
370
    13
100
AcDbLine
 10
1363.86
 20
4623.806
 30
0.0
 11
1339.859999999999
 21
4630.236599999999
 31
0.0
  0
LINE
  5
E63
330
1E
100
AcDbEntity
  8
0
  6
Continuous
370
    13
100
AcDbLine
 10
1235.24
 20
4630.236599999999
 30
0.0
 11
1211.24
 21
4623.806
 31
0.0
  0
LINE
  5
E64
330
1E
100
AcDbEntity
  8
0
  6
Continuous
370
    13
100
AcDbLine
 10
1211.24
 20
4623.806
 30
0.0
 11
1235.24
 21
4617.3752
 31
0.0
  0
TEXT
  5
E65
330
1E
100
AcDbEntity
  8
0
  6
Continuous
370
    13
100
AcDbText
 10
1227.568949638125
 20
4635.816
 30
0.0
 40
64.0
  1
150
 41
0.875
  7
BIGFONT
100
AcDbText
  0
LINE
  5
E66
330
1E
100
AcDbEntity
  8
0
  6
Continuous
370
    13
100
AcDbLine
 10
1363.852999999997
 20
4623.815999999997
 30
0.0
 11
1632.703999999999
 21
4623.815999999997
 31
0.0
  0
LINE
  5
E67
330
1E
100
AcDbEntity
  8
0
  6
Continuous
370
    13
100
AcDbLine
 10
1632.703999999999
 20
4648.949999999999
 30
0.0
 11
1632.703999999999
 21
4607.815999999998
 31
0.0
  0
LINE
  5
E68
330
1E
100
AcDbEntity
  8
0
  6
Continuous
370
    13
100
AcDbLine
 10
1608.720000000001
 20
4617.3752
 30
0.0
 11
1632.719999999997
 21
4623.806
 31
0.0
  0
LINE
  5
E69
330
1E
100
AcDbEntity
  8
0
  6
Continuous
370
    13
100
AcDbLine
 10
1632.719999999997
 20
4623.806
 30
0.0
 11
1608.720000000001
 21
4630.236599999999
 31
0.0
  0
LINE
  5
E6A
330
1E
100
AcDbEntity
  8
0
  6
Continuous
370
    13
100
AcDbLine
 10
1387.86
 20
4630.236599999999
 30
0.0
 11
1363.86
 21
4623.806
 31
0.0
  0
LINE
  5
E6B
330
1E
100
AcDbEntity
  8
0
  6
Continuous
370
    13
100
AcDbLine
 10
1363.86
 20
4623.806
 30
0.0
 11
1387.86
 21
4617.3752
 31
0.0
  0
TEXT
  5
E6C
330
1E
100
AcDbEntity
  8
0
  6
Continuous
370
    13
100
AcDbText
 10
1428.010815740072
 20
4635.816
 30
0.0
 40
64.0
  1
270
 41
0.875
  7
BIGFONT
100
AcDbText
  0
LINE
  5
E6D
330
1E
100
AcDbEntity
  8
0
  6
Continuous
 62
     7
370
    13
100
AcDbLine
 10
1363.852999999997
 20
4862.98
 30
0.0
 11
1363.852999999997
 21
4954.394
 31
0.0
  0
LINE
  5
E6E
330
1E
100
AcDbEntity
  8
0
  6
Continuous
370
    13
100
AcDbLine
 10
3493.001
 20
4773.714
 30
0.0
 11
3493.001
 21
5057.714
 31
0.0
  0
LINE
  5
E6F
330
1E
100
AcDbEntity
  8
0
  6
Continuous
370
    13
100
AcDbLine
 10
3499.4508
 20
5033.706
 30
0.0
 11
3493.019999999999
 21
5057.706
 31
0.0
  0
LINE
  5
E70
330
1E
100
AcDbEntity
  8
0
  6
Continuous
370
    13
100
AcDbLine
 10
3493.019999999999
 20
5057.706
 30
0.0
 11
3486.589399999999
 21
5033.706
 31
0.0
  0
LINE
  5
E71
330
1E
100
AcDbEntity
  8
0
  6
Continuous
370
    13
100
AcDbLine
 10
2790.0
 20
4473.719
 30
0.0
 11
2842.815000000001
 21
4473.719
 31
0.0
  0
LINE
  5
E72
330
1E
100
AcDbEntity
  8
0
  6
Continuous
370
    13
100
AcDbLine
 10
2842.815000000001
 20
4953.713999999997
 30
0.0
 11
2842.815000000001
 21
4457.718999999999
 31
0.0
  0
LINE
  5
E73
330
1E
100
AcDbEntity
  8
0
  6
Continuous
370
    13
100
AcDbLine
 10
2790.0
 20
4953.623999999997
 30
0.0
 11
2790.0
 21
4457.718999999999
 31
0.0
  0
LINE
  5
E74
330
1E
100
AcDbEntity
  8
0
  6
Continuous
370
    13
100
AcDbLine
 10
2890.815000000003
 20
4473.719
 30
0.0
 11
2842.815000000001
 21
4473.719
 31
0.0
  0
LINE
  5
E75
330
1E
100
AcDbEntity
  8
0
  6
Continuous
370
    13
100
AcDbLine
 10
2866.82
 20
4480.136599999998
 30
0.0
 11
2842.82
 21
4473.705999999999
 31
0.0
  0
LINE
  5
E76
330
1E
100
AcDbEntity
  8
0
  6
Continuous
370
    13
100
AcDbLine
 10
2842.82
 20
4473.705999999999
 30
0.0
 11
2866.82
 21
4467.275199999999
 31
0.0
  0
LINE
  5
E77
330
1E
100
AcDbEntity
  8
0
  6
Continuous
370
    13
100
AcDbLine
 10
2790.0
 20
4473.719
 30
0.0
 11
2742.0
 21
4473.719
 31
0.0
  0
LINE
  5
E78
330
1E
100
AcDbEntity
  8
0
  6
Continuous
370
    13
100
AcDbLine
 10
2766.000000000004
 20
4467.275199999999
 30
0.0
 11
2790.0
 21
4473.705999999999
 31
0.0
  0
LINE
  5
E79
330
1E
100
AcDbEntity
  8
0
  6
Continuous
370
    13
100
AcDbLine
 10
2790.0
 20
4473.705999999999
 30
0.0
 11
2766.000000000004
 21
4480.136599999998
 31
0.0
  0
LINE
  5
E7A
330
1E
100
AcDbEntity
  8
0
  6
Continuous
370
    13
100
AcDbLine
 10
2742.0
 20
4473.719
 30
0.0
 11
2538.0
 21
4473.719
 31
0.0
  0
TEXT
  5
E7B
330
1E
100
AcDbEntity
  8
0
  6
Continuous
370
    13
100
AcDbText
 10
2538.0
 20
4485.718999999999
 30
0.0
 40
64.0
  1
52.5
 41
0.875
  7
BIGFONT
100
AcDbText
  0
LINE
  5
E7C
330
1E
100
AcDbEntity
  8
0
  6
Continuous
370
    13
100
AcDbLine
 10
2842.815000000001
 20
4473.719
 30
0.0
 11
4733.637999999999
 21
4473.719
 31
0.0
  0
LINE
  5
E7D
330
1E
100
AcDbEntity
  8
0
  6
Continuous
370
    13
100
AcDbLine
 10
4733.637999999999
 20
4953.713999999997
 30
0.0
 11
4733.637999999999
 21
4457.718999999999
 31
0.0
  0
LINE
  5
E7E
330
1E
100
AcDbEntity
  8
0
  6
Continuous
370
    13
100
AcDbLine
 10
4709.639999999999
 20
4467.275199999999
 30
0.0
 11
4733.64
 21
4473.705999999999
 31
0.0
  0
LINE
  5
E7F
330
1E
100
AcDbEntity
  8
0
  6
Continuous
370
    13
100
AcDbLine
 10
4733.64
 20
4473.705999999999
 30
0.0
 11
4709.639999999999
 21
4480.136599999998
 31
0.0
  0
LINE
  5
E80
330
1E
100
AcDbEntity
  8
0
  6
Continuous
370
    13
100
AcDbLine
 10
2866.82
 20
4480.136599999998
 30
0.0
 11
2842.82
 21
4473.705999999999
 31
0.0
  0
LINE
  5
E81
330
1E
100
AcDbEntity
  8
0
  6
Continuous
370
    13
100
AcDbLine
 10
2842.82
 20
4473.705999999999
 30
0.0
 11
2866.82
 21
4467.275199999999
 31
0.0
  0
TEXT
  5
E82
330
1E
100
AcDbEntity
  8
0
  6
Continuous
370
    13
100
AcDbText
 10
3609.026599999999
 20
4485.718999999999
 30
0.0
 40
64.0
  1
1890
 41
0.875
  7
BIGFONT
100
AcDbText
  0
LINE
  5
E83
330
1E
100
AcDbEntity
  8
0
  6
Continuous
370
    13
100
AcDbLine
 10
4733.637999999999
 20
4473.719
 30
0.0
 11
4785.0
 21
4473.719
 31
0.0
  0
LINE
  5
E84
330
1E
100
AcDbEntity
  8
0
  6
Continuous
370
    13
100
AcDbLine
 10
4785.0
 20
4953.849
 30
0.0
 11
4785.0
 21
4457.718999999999
 31
0.0
  0
LINE
  5
E85
330
1E
100
AcDbEntity
  8
0
  6
Continuous
370
    13
100
AcDbLine
 10
4833.0
 20
4473.719
 30
0.0
 11
4785.0
 21
4473.719
 31
0.0
  0
LINE
  5
E86
330
1E
100
AcDbEntity
  8
0
  6
Continuous
370
    13
100
AcDbLine
 10
4809.0
 20
4480.136599999998
 30
0.0
 11
4785.0
 21
4473.705999999999
 31
0.0
  0
LINE
  5
E87
330
1E
100
AcDbEntity
  8
0
  6
Continuous
370
    13
100
AcDbLine
 10
4785.0
 20
4473.705999999999
 30
0.0
 11
4809.0
 21
4467.275199999999
 31
0.0
  0
LINE
  5
E88
330
1E
100
AcDbEntity
  8
0
  6
Continuous
370
    13
100
AcDbLine
 10
4733.637999999999
 20
4473.719
 30
0.0
 11
4685.637999999999
 21
4473.719
 31
0.0
  0
LINE
  5
E89
330
1E
100
AcDbEntity
  8
0
  6
Continuous
370
    13
100
AcDbLine
 10
4709.639999999999
 20
4467.275199999999
 30
0.0
 11
4733.64
 21
4473.705999999999
 31
0.0
  0
LINE
  5
E8A
330
1E
100
AcDbEntity
  8
0
  6
Continuous
370
    13
100
AcDbLine
 10
4733.64
 20
4473.705999999999
 30
0.0
 11
4709.639999999999
 21
4480.136599999998
 31
0.0
  0
LINE
  5
E8B
330
1E
100
AcDbEntity
  8
0
  6
Continuous
370
    13
100
AcDbLine
 10
4833.0
 20
4473.719
 30
0.0
 11
5065.0
 21
4473.719
 31
0.0
  0
TEXT
  5
E8C
330
1E
100
AcDbEntity
  8
0
  6
Continuous
370
    13
100
AcDbText
 10
4841.0
 20
4485.718999999999
 30
0.0
 40
64.0
  1
52.5
 41
0.875
  7
BIGFONT
100
AcDbText
  0
LINE
  5
E8D
330
1E
100
AcDbEntity
  8
0
  6
Continuous
370
    13
100
AcDbLine
 10
1134.329
 20
2232.725999999999
 30
0.0
 11
1203.156999999999
 21
2232.725999999999
 31
0.0
  0
LINE
  5
E8E
330
1E
100
AcDbEntity
  8
0
  6
CENTER
370
    13
100
AcDbLine
 10
1134.329
 20
2232.725999999999
 30
0.0
 11
1684.328999999999
 21
2232.725999999999
 31
0.0
  0
LINE
  5
E8F
330
1E
100
AcDbEntity
  8
0
  6
Continuous
 62
     7
370
    13
100
AcDbLine
 10
1684.328999999999
 20
2232.725999999999
 30
0.0
 11
1784.329000000002
 21
2232.725999999999
 31
0.0
  0
LINE
  5
E90
330
1E
100
AcDbEntity
  8
0
  6
Continuous
 62
     7
370
    13
100
AcDbLine
 10
1034.329000000001
 20
2232.725999999999
 30
0.0
 11
1134.329
 21
2232.725999999999
 31
0.0
  0
LINE
  5
E91
330
1E
100
AcDbEntity
  8
0
  6
Continuous
 62
     7
370
    13
100
AcDbLine
 10
1629.329
 20
2232.725999999999
 30
0.0
 11
1684.328999999999
 21
2232.725999999999
 31
0.0
  0
LINE
  5
E92
330
1E
100
AcDbEntity
  8
3
  6
Continuous
 62
     7
370
    13
100
AcDbLine
 10
8733.220000000001
 20
1042.266
 30
0.0
 11
10733.22
 21
1042.266
 31
0.0
  0
LINE
  5
E93
330
1E
100
AcDbEntity
  8
3
  6
Continuous
 62
     7
370
    13
100
AcDbLine
 10
10733.22
 20
42.26600000000019
 30
0.0
 11
10733.22
 21
1042.266
 31
0.0
  0
LINE
  5
E94
330
1E
100
AcDbEntity
  8
3
  6
Continuous
 62
     7
370
    13
100
AcDbLine
 10
8733.220000000001
 20
42.26600000000019
 30
0.0
 11
10733.22
 21
42.26600000000019
 31
0.0
  0
LINE
  5
E95
330
1E
100
AcDbEntity
  8
3
  6
Continuous
 62
     7
370
    13
100
AcDbLine
 10
8733.220000000001
 20
42.26600000000019
 30
0.0
 11
8733.220000000001
 21
1042.266
 31
0.0
  0
LINE
  5
E96
330
1E
100
AcDbEntity
  8
3
  6
Continuous
 62
     7
370
    13
100
AcDbLine
 10
8733.220000000001
 20
1042.266
 30
0.0
 11
10733.22
 21
1042.266
 31
0.0
  0
LINE
  5
E97
330
1E
100
AcDbEntity
  8
3
  6
Continuous
 62
     7
370
    13
100
AcDbLine
 10
10733.22
 20
42.26600000000019
 30
0.0
 11
10733.22
 21
1042.266
 31
0.0
  0
LINE
  5
E98
330
1E
100
AcDbEntity
  8
3
  6
Continuous
 62
     7
370
    13
100
AcDbLine
 10
8733.220000000001
 20
42.26600000000019
 30
0.0
 11
10733.22
 21
42.26600000000019
 31
0.0
  0
LINE
  5
E99
330
1E
100
AcDbEntity
  8
3
  6
Continuous
 62
     7
370
    13
100
AcDbLine
 10
8733.220000000001
 20
42.26600000000019
 30
0.0
 11
8733.220000000001
 21
1042.266
 31
0.0
  0
LINE
  5
E9A
330
1E
100
AcDbEntity
  8
3
  6
Continuous
370
    13
100
AcDbLine
 10
8733.220000000001
 20
842.2660000000018
 30
0.0
 11
10733.22
 21
842.2660000000018
 31
0.0
  0
LINE
  5
E9B
330
1E
100
AcDbEntity
  8
3
  6
Continuous
370
    13
100
AcDbLine
 10
8733.220000000001
 20
682.2660000000019
 30
0.0
 11
10733.22
 21
682.2660000000019
 31
0.0
  0
LINE
  5
E9C
330
1E
100
AcDbEntity
  8
3
  6
Continuous
370
    13
100
AcDbLine
 10
8733.220000000001
 20
522.2660000000018
 30
0.0
 11
10733.22
 21
522.2660000000018
 31
0.0
  0
LINE
  5
E9D
330
1E
100
AcDbEntity
  8
3
  6
Continuous
370
    13
100
AcDbLine
 10
8733.220000000001
 20
262.2660000000019
 30
0.0
 11
10733.22
 21
262.2660000000019
 31
0.0
  0
LINE
  5
E9E
330
1E
100
AcDbEntity
  8
3
  6
Continuous
370
    13
100
AcDbLine
 10
9273.220000000002
 20
262.2660000000019
 30
0.0
 11
9273.220000000002
 21
1042.266
 31
0.0
  0
LINE
  5
E9F
330
1E
100
AcDbEntity
  8
3
  6
Continuous
370
    13
100
AcDbLine
 10
9133.220000000001
 20
262.2660000000019
 30
0.0
 11
9133.220000000001
 21
522.2660000000018
 31
0.0
  0
LINE
  5
EA0
330
1E
100
AcDbEntity
  8
3
  6
Continuous
370
    13
100
AcDbLine
 10
8873.220000000001
 20
262.2660000000019
 30
0.0
 11
8873.220000000001
 21
522.2660000000018
 31
0.0
  0
LINE
  5
EA1
330
1E
100
AcDbEntity
  8
3
  6
Continuous
370
    13
100
AcDbLine
 10
9533.220000000001
 20
262.2660000000019
 30
0.0
 11
9533.220000000001
 21
522.2660000000018
 31
0.0
  0
LINE
  5
EA2
330
1E
100
AcDbEntity
  8
3
  6
Continuous
370
    13
100
AcDbLine
 10
9673.220000000002
 20
262.2660000000019
 30
0.0
 11
9673.220000000002
 21
522.2660000000018
 31
0.0
  0
LINE
  5
EA3
330
1E
100
AcDbEntity
  8
3
  6
Continuous
370
    13
100
AcDbLine
 10
9933.220000000002
 20
262.2660000000019
 30
0.0
 11
9933.220000000002
 21
522.2660000000018
 31
0.0
  0
LINE
  5
EA4
330
1E
100
AcDbEntity
  8
3
  6
Continuous
370
    13
100
AcDbLine
 10
10073.22
 20
262.2660000000019
 30
0.0
 11
10073.22
 21
522.2660000000018
 31
0.0
  0
LINE
  5
EA5
330
1E
100
AcDbEntity
  8
3
  6
Continuous
370
    13
100
AcDbLine
 10
10333.22
 20
262.2660000000019
 30
0.0
 11
10333.22
 21
522.2660000000018
 31
0.0
  0
LINE
  5
EA6
330
1E
100
AcDbEntity
  8
3
  6
Continuous
370
    13
100
AcDbLine
 10
10473.22
 20
262.2660000000019
 30
0.0
 11
10473.22
 21
522.2660000000018
 31
0.0
  0
LINE
  5
EA7
330
1E
100
AcDbEntity
  8
3
  6
Continuous
370
    13
100
AcDbLine
 10
9773.220000000002
 20
682.2660000000019
 30
0.0
 11
9773.220000000002
 21
842.2660000000018
 31
0.0
  0
LINE
  5
EA8
330
1E
100
AcDbEntity
  8
3
  6
Continuous
370
    13
100
AcDbLine
 10
10233.22
 20
682.2660000000019
 30
0.0
 11
10233.22
 21
842.2660000000018
 31
0.0
  0
TEXT
  5
EA9
330
1E
100
AcDbEntity
  8
3
  6
Continuous
370
    13
100
AcDbText
 10
8799.520000000001
 20
884.9860000000001
 30
0.0
 40
100.0
  1
図面名
  7
BIGFONT
100
AcDbText
  0
TEXT
  5
EAA
330
1E
100
AcDbEntity
  8
3
  6
Continuous
370
    13
100
AcDbText
 10
8809.119999999998
 20
717.7460000000019
 30
0.0
 40
80.0
  1
縮尺
  7
BIGFONT
100
AcDbText
  0
TEXT
  5
EAB
330
1E
100
AcDbEntity
  8
3
  6
Continuous
370
    13
100
AcDbText
 10
9817.840000000002
 20
719.666000000002
 30
0.0
 40
80.0
  1
図面番号
  7
BIGFONT
100
AcDbText
  0
TEXT
  5
EAC
330
1E
100
AcDbEntity
  8
3
  6
Continuous
370
    13
100
AcDbText
 10
8805.279999999999
 20
558.1859999999998
 30
0.0
 40
80.0
  1
設計年月日
  7
BIGFONT
100
AcDbText
  0
TEXT
  5
EAD
330
1E
100
AcDbEntity
  8
3
  6
Continuous
370
    13
100
AcDbText
 10
9447.02
 20
558.1859999999998
 30
0.0
 40
80.0
  1
平成　　年　　月　　日
  7
BIGFONT
100
AcDbText
  0
TEXT
  5
EAE
330
1E
100
AcDbEntity
  8
3
  6
Continuous
370
    13
100
AcDbText
 10
9176.845151186705
 20
83.5860000000016
 30
0.0
 40
120.0
  1
千葉窯業株式会社
  7
BIGFONT
100
AcDbText
  0
TEXT
  5
EAF
330
1E
100
AcDbEntity
  8
3
  6
Continuous
370
    13
100
AcDbText
 10
8766.860000000001
 20
487.0460000000016
 30
0.0
 40
80.0
  1
部長
 50
270.0
  7
BIGFONT
100
AcDbText
  0
TEXT
  5
EB0
330
1E
100
AcDbEntity
  8
3
  6
Continuous
370
    13
100
AcDbText
 10
9166.5
 20
487.0460000000016
 30
0.0
 40
80.0
  1
課長
 50
270.0
  7
BIGFONT
100
AcDbText
  0
TEXT
  5
EB1
330
1E
100
AcDbEntity
  8
3
  6
Continuous
370
    13
100
AcDbText
 10
9566.14
 20
487.0460000000016
 30
0.0
 40
80.0
  1
検図
 50
270.0
  7
BIGFONT
100
AcDbText
  0
TEXT
  5
EB2
330
1E
100
AcDbEntity
  8
3
  6
Continuous
370
    13
100
AcDbText
 10
9969.64
 20
487.0460000000016
 30
0.0
 40
80.0
  1
設計
 50
270.0
  7
BIGFONT
100
AcDbText
  0
TEXT
  5
EB3
330
1E
100
AcDbEntity
  8
3
  6
Continuous
370
    13
100
AcDbText
 10
10367.35999999997
 20
488.9660000000018
 30
0.0
 40
80.0
  1
製図
 50
270.0
  7
BIGFONT
100
AcDbText
  0
LINE
  5
EB4
330
1E
100
AcDbEntity
  8
3
  6
Continuous
 62
     7
370
    13
100
AcDbLine
 10
8733.220000000001
 20
1042.266
 30
0.0
 11
10733.22
 21
1042.266
 31
0.0
  0
LINE
  5
EB5
330
1E
100
AcDbEntity
  8
3
  6
Continuous
 62
     7
370
    13
100
AcDbLine
 10
10733.22
 20
42.26600000000019
 30
0.0
 11
10733.22
 21
1042.266
 31
0.0
  0
LINE
  5
EB6
330
1E
100
AcDbEntity
  8
3
  6
Continuous
 62
     7
370
    13
100
AcDbLine
 10
8733.220000000001
 20
42.26600000000019
 30
0.0
 11
10733.22
 21
42.26600000000019
 31
0.0
  0
LINE
  5
EB7
330
1E
100
AcDbEntity
  8
3
  6
Continuous
 62
     7
370
    13
100
AcDbLine
 10
8733.220000000001
 20
42.26600000000019
 30
0.0
 11
8733.220000000001
 21
1042.266
 31
0.0
  0
TEXT
  5
EB8
330
1E
100
AcDbEntity
  8
3
  6
Continuous
370
    13
100
AcDbText
 10
9734.059999999999
 20
558.0860000000018
 30
0.0
 40
75.99999999999996
  1
３
  7
BIGFONT
100
AcDbText
  0
TEXT
  5
EB9
330
1E
100
AcDbEntity
  8
3
  6
Continuous
370
    13
100
AcDbText
 10
10041.56
 20
557.826
 30
0.0
 40
75.99999999999996
  1
６
  7
BIGFONT
100
AcDbText
  0
TEXT
  5
EBA
330
1E
100
AcDbEntity
  8
3
  6
Continuous
370
    13
100
AcDbText
 10
10348.2
 20
557.5260000000001
 30
0.0
 40
75.99999999999996
  1
１
  7
BIGFONT
100
AcDbText
  0
TEXT
  5
EBB
330
1E
100
AcDbEntity
  8
3
  6
Continuous
370
    13
100
AcDbText
 10
9365.099999999998
 20
718.6259999999998
 30
0.0
 40
80.0
  1
１：２０
  7
BIGFONT
100
AcDbText
  0
TEXT
  5
EBC
330
1E
100
AcDbEntity
  8
3
  6
Continuous
370
    13
100
AcDbText
 10
10292.7
 20
718.3260000000001
 30
0.0
 40
80.0
  1
KL-301
  7
BIGFONT
100
AcDbText
  0
TEXT
  5
EBD
330
1E
100
AcDbEntity
  8
3
  6
Continuous
370
    13
100
AcDbText
 10
9334.68
 20
853.7060000000019
 30
0.0
 40
80.0
  1
一般部構造図
  7
BIGFONT
100
AcDbText
  0
TEXT
  5
EBE
330
1E
100
AcDbEntity
  8
3
  6
Continuous
370
    13
100
AcDbText
 10
9338.459999999999
 20
946.4460000000016
 30
0.0
 40
80.0
  1
ＫＬウォール３型
  7
BIGFONT
100
AcDbText
  0
TEXT
  5
EBF
330
1E
100
AcDbEntity
  8
3
  6
Continuous
370
    13
100
AcDbText
 10
9980.340000000001
 20
851.0460000000017
 30
0.0
 40
80.0
  1
(H = 750)
  7
BIGFONT
100
AcDbText
  0
LINE
  5
EC0
330
1E
100
AcDbEntity
  8
0
  6
Continuous
 62
     1
370
    25
100
AcDbLine
 10
0.0
 20
7695.451000000002
 30
0.0
 11
10775.0
 21
7695.451000000002
 31
0.0
  0
LINE
  5
EC1
330
1E
100
AcDbEntity
  8
0
  6
Continuous
 62
     1
370
    25
100
AcDbLine
 10
10775.0
 20
0.0
 30
0.0
 11
10775.0
 21
7695.451000000002
 31
0.0
  0
LINE
  5
EC2
330
1E
100
AcDbEntity
  8
0
  6
Continuous
 62
     1
370
    25
100
AcDbLine
 10
0.0
 20
0.0
 30
0.0
 11
0.0
 21
7695.451000000002
 31
0.0
  0
LINE
  5
EC3
330
1E
100
AcDbEntity
  8
0
  6
Continuous
 62
     1
370
    25
100
AcDbLine
 10
0.0
 20
0.0
 30
0.0
 11
10775.0
 21
0.0
 31
0.0
  0
TEXT
  5
EC4
330
1E
100
AcDbEntity
  8
2
  6
Continuous
370
    13
100
AcDbText
 10
3001.294
 20
2769.166
 30
0.0
 40
80.0
  1
径
  7
BIGFONT
100
AcDbText
  0
TEXT
  5
EC5
330
1E
100
AcDbEntity
  8
2
  6
Continuous
370
    13
100
AcDbText
 10
3242.542000000002
 20
2819.166
 30
0.0
 40
80.0
  1
長さ
  7
BIGFONT
100
AcDbText
  0
TEXT
  5
EC6
330
1E
100
AcDbEntity
  8
2
  6
Continuous
370
    13
100
AcDbText
 10
3558.559999999998
 20
2769.166
 30
0.0
 40
80.0
  1
本数
  7
BIGFONT
100
AcDbText
  0
TEXT
  5
EC7
330
1E
100
AcDbEntity
  8
2
  6
Continuous
370
    13
100
AcDbText
 10
3243.099999999998
 20
2742.5
 30
0.0
 40
60.0
  1
（ｍｍ）
  7
BIGFONT
100
AcDbText
  0
TEXT
  5
EC8
330
1E
100
AcDbEntity
  8
2
  6
Continuous
370
    13
100
AcDbText
 10
4307.616
 20
2736.318000000001
 30
0.0
 40
60.0
  1
（ｋｇ）
  7
BIGFONT
100
AcDbText
  0
LINE
  5
EC9
330
1E
100
AcDbEntity
  8
2
  6
Continuous
370
    13
100
AcDbLine
 10
2707.884000000004
 20
2599.166
 30
0.0
 11
4927.883999999998
 21
2599.166
 31
0.0
  0
LINE
  5
ECA
330
1E
100
AcDbEntity
  8
2
  6
Continuous
370
    13
100
AcDbLine
 10
2707.884000000004
 20
2479.165999999999
 30
0.0
 11
4927.883999999998
 21
2479.165999999999
 31
0.0
  0
LINE
  5
ECB
330
1E
100
AcDbEntity
  8
2
  6
Continuous
370
    13
100
AcDbLine
 10
2707.884000000004
 20
2359.166
 30
0.0
 11
4927.883999999998
 21
2359.166
 31
0.0
  0
LINE
  5
ECC
330
1E
100
AcDbEntity
  8
2
  6
Continuous
370
    13
100
AcDbLine
 10
2707.884000000004
 20
2239.166
 30
0.0
 11
4927.883999999998
 21
2239.166
 31
0.0
  0
LINE
  5
ECD
330
1E
100
AcDbEntity
  8
2
  6
Continuous
370
    13
100
AcDbLine
 10
2707.884000000004
 20
2119.166
 30
0.0
 11
4927.883999999998
 21
2119.166
 31
0.0
  0
LINE
  5
ECE
330
1E
100
AcDbEntity
  8
2
  6
Continuous
370
    13
100
AcDbLine
 10
2707.884000000004
 20
1999.166
 30
0.0
 11
4927.883999999998
 21
1999.166
 31
0.0
  0
LINE
  5
ECF
330
1E
100
AcDbEntity
  8
2
  6
Continuous
370
    13
100
AcDbLine
 10
2707.884000000004
 20
1879.165999999999
 30
0.0
 11
4927.883999999998
 21
1879.165999999999
 31
0.0
  0
LINE
  5
ED0
330
1E
100
AcDbEntity
  8
2
  6
Continuous
370
    13
100
AcDbLine
 10
2707.884000000004
 20
2719.166
 30
0.0
 11
2707.884000000004
 21
3119.166
 31
0.0
  0
LINE
  5
ED1
330
1E
100
AcDbEntity
  8
2
  6
Continuous
370
    13
100
AcDbLine
 10
2707.884000000004
 20
2719.166
 30
0.0
 11
4927.883999999998
 21
2719.166
 31
0.0
  0
TEXT
  5
ED2
330
1E
100
AcDbEntity
  8
2
  6
Continuous
370
    13
100
AcDbText
 10
2750.562
 20
1173.666
 30
0.0
 40
80.0
  1
コンクリート
 41
0.8
  7
BIGFONT
100
AcDbText
  0
TEXT
  5
ED3
330
1E
100
AcDbEntity
  8
2
  6
Continuous
370
    13
100
AcDbText
 10
2750.402000000002
 20
887.7699999999997
 30
0.0
 40
80.0
  1
継手フランジ
 41
0.8
  7
BIGFONT
100
AcDbText
  0
TEXT
  5
ED4
330
1E
100
AcDbEntity
  8
2
  6
Continuous
370
    13
100
AcDbText
 10
2782.310000000002
 20
1026.1
 30
0.0
 40
80.0
  1
ボ　ル　ト
  7
BIGFONT
100
AcDbText
  0
TEXT
  5
ED5
330
1E
100
AcDbEntity
  8
2
  6
Continuous
370
    13
100
AcDbText
 10
2728.972
 20
2769.422
 30
0.0
 40
80.0
  1
種別
  7
BIGFONT
100
AcDbText
  0
LINE
  5
ED6
330
1E
100
AcDbEntity
  8
2
  6
Continuous
370
    13
100
AcDbLine
 10
2707.884000000004
 20
3119.166
 30
0.0
 11
4927.883999999998
 21
3119.166
 31
0.0
  0
TEXT
  5
ED7
330
1E
100
AcDbEntity
  8
2
  6
Continuous
370
    13
100
AcDbText
 10
3773.506
 20
2826.52
 30
0.0
 40
80.0
  1
単位重量
  7
BIGFONT
100
AcDbText
  0
TEXT
  5
ED8
330
1E
100
AcDbEntity
  8
2
  6
Continuous
370
    13
100
AcDbText
 10
4677.751999999999
 20
2769.46
 30
0.0
 40
80.0
  1
摘要
  7
BIGFONT
100
AcDbText
  0
LINE
  5
ED9
330
1E
100
AcDbEntity
  8
2
  6
Continuous
370
    13
100
AcDbLine
 10
2707.884000000004
 20
2919.166
 30
0.0
 11
4927.883999999998
 21
2919.166
 31
0.0
  0
TEXT
  5
EDA
330
1E
100
AcDbEntity
  8
2
  6
Continuous
370
    13
100
AcDbText
 10
3813.052000000002
 20
2740.482
 30
0.0
 40
58.0
  1
（ｋｇ／ｍ）
 41
0.9655171999999998
  7
BIGFONT
100
AcDbText
  0
TEXT
  5
EDB
330
1E
100
AcDbEntity
  8
2
  6
Continuous
370
    13
100
AcDbText
 10
4294.243999999999
 20
2826.137999999999
 30
0.0
 40
80.0
  1
重量
  7
BIGFONT
100
AcDbText
  0
LINE
  5
EDC
330
1E
100
AcDbEntity
  8
2
  6
Continuous
370
    13
100
AcDbLine
 10
2707.884000000004
 20
1560.430000000001
 30
0.0
 11
4927.883999999998
 21
1560.430000000001
 31
0.0
  0
LINE
  5
EDD
330
1E
100
AcDbEntity
  8
2
  6
Continuous
370
    13
100
AcDbLine
 10
2707.884000000004
 20
1420.430000000002
 30
0.0
 11
4927.883999999998
 21
1420.430000000002
 31
0.0
  0
LINE
  5
EDE
330
1E
100
AcDbEntity
  8
2
  6
Continuous
370
    13
100
AcDbLine
 10
2707.884000000004
 20
1280.429999999998
 30
0.0
 11
4927.883999999998
 21
1280.429999999998
 31
0.0
  0
LINE
  5
EDF
330
1E
100
AcDbEntity
  8
2
  6
Continuous
370
    13
100
AcDbLine
 10
2707.884000000004
 20
1140.43
 30
0.0
 11
4927.883999999998
 21
1140.43
 31
0.0
  0
LINE
  5
EE0
330
1E
100
AcDbEntity
  8
2
  6
Continuous
370
    13
100
AcDbLine
 10
2707.884000000004
 20
1000.430000000001
 30
0.0
 11
4927.883999999998
 21
1000.430000000001
 31
0.0
  0
LINE
  5
EE1
330
1E
100
AcDbEntity
  8
2
  6
Continuous
370
    13
100
AcDbLine
 10
2707.884000000004
 20
860.4299999999996
 30
0.0
 11
4927.883999999998
 21
860.4299999999996
 31
0.0
  0
LINE
  5
EE2
330
1E
100
AcDbEntity
  8
2
  6
Continuous
370
    13
100
AcDbLine
 10
4477.884
 20
860.4299999999996
 30
0.0
 11
4477.884
 21
1560.430000000001
 31
0.0
  0
LINE
  5
EE3
330
1E
100
AcDbEntity
  8
2
  6
Continuous
370
    13
100
AcDbLine
 10
3807.883999999999
 20
860.4299999999996
 30
0.0
 11
3807.883999999999
 21
1560.430000000001
 31
0.0
  0
LINE
  5
EE4
330
1E
100
AcDbEntity
  8
2
  6
Continuous
370
    13
100
AcDbLine
 10
4027.884
 20
860.4299999999996
 30
0.0
 11
4027.884
 21
1560.430000000001
 31
0.0
  0
LINE
  5
EE5
330
1E
100
AcDbEntity
  8
2
  6
Continuous
370
    13
100
AcDbLine
 10
4027.884
 20
860.4299999999996
 30
0.0
 11
4027.884
 21
1560.430000000001
 31
0.0
  0
LINE
  5
EE6
330
1E
100
AcDbEntity
  8
2
  6
Continuous
370
    13
100
AcDbLine
 10
4027.884
 20
860.4299999999996
 30
0.0
 11
4027.884
 21
1560.430000000001
 31
0.0
  0
LINE
  5
EE7
330
1E
100
AcDbEntity
  8
2
  6
Continuous
370
    13
100
AcDbLine
 10
3257.884000000002
 20
860.4299999999996
 30
0.0
 11
3257.884000000002
 21
1560.430000000001
 31
0.0
  0
LINE
  5
EE8
330
1E
100
AcDbEntity
  8
2
  6
Continuous
370
    13
100
AcDbLine
 10
2927.884
 20
2719.166
 30
0.0
 11
2927.884
 21
2919.166
 31
0.0
  0
TEXT
  5
EE9
330
1E
100
AcDbEntity
  8
2
  6
Continuous
370
    13
100
AcDbText
 10
2843.540000000002
 20
2969.166
 30
0.0
 40
90.0
  1
鉄筋重量表
  7
BIGFONT
100
AcDbText
  0
TEXT
  5
EEA
330
1E
100
AcDbEntity
  8
2
  6
Continuous
370
    13
100
AcDbText
 10
2851.856
 20
1610.43
 30
0.0
 40
90.0
  1
材料表
  7
BIGFONT
100
AcDbText
  0
TEXT
  5
EEB
330
1E
100
AcDbEntity
  8
2
  6
Continuous
370
    13
100
AcDbText
 10
2763.371999999999
 20
2260.332
 30
0.0
 40
80.0
  1
Ｓ
  7
BIGFONT
100
AcDbText
  0
TEXT
  5
EEC
330
1E
100
AcDbEntity
  8
2
  6
Continuous
370
    13
100
AcDbText
 10
2763.371999999999
 20
2380.332000000001
 30
0.0
 40
80.0
  1
Ｓ
  7
BIGFONT
100
AcDbText
  0
TEXT
  5
EED
330
1E
100
AcDbEntity
  8
2
  6
Continuous
370
    13
100
AcDbText
 10
2763.371999999999
 20
2500.332
 30
0.0
 40
80.0
  1
Ｓ
  7
BIGFONT
100
AcDbText
  0
TEXT
  5
EEE
330
1E
100
AcDbEntity
  8
2
  6
Continuous
370
    13
100
AcDbText
 10
2763.371999999999
 20
2620.332000000001
 30
0.0
 40
80.0
  1
Ｓ
  7
BIGFONT
100
AcDbText
  0
TEXT
  5
EEF
330
1E
100
AcDbEntity
  8
2
  6
Continuous
370
    13
100
AcDbText
 10
2763.371999999999
 20
2140.332
 30
0.0
 40
80.0
  1
Ｓ
  7
BIGFONT
100
AcDbText
  0
TEXT
  5
EF0
330
1E
100
AcDbEntity
  8
2
  6
Continuous
370
    13
100
AcDbText
 10
2763.371999999999
 20
2020.332
 30
0.0
 40
80.0
  1
Ｓ
  7
BIGFONT
100
AcDbText
  0
TEXT
  5
EF1
330
1E
100
AcDbEntity
  8
2
  6
Continuous
370
    13
100
AcDbText
 10
2763.371999999999
 20
1900.332
 30
0.0
 40
80.0
  1
Ｓ
  7
BIGFONT
100
AcDbText
  0
TEXT
  5
EF2
330
1E
100
AcDbEntity
  8
2
  6
Continuous
370
    13
100
AcDbText
 10
2832.706
 20
2627.506
 30
0.0
 40
40.0
  1
１
  7
BIGFONT
100
AcDbText
  0
TEXT
  5
EF3
330
1E
100
AcDbEntity
  8
2
  6
Continuous
370
    13
100
AcDbText
 10
2828.326000000001
 20
2507.336
 30
0.0
 40
40.0
  1
２
  7
BIGFONT
100
AcDbText
  0
TEXT
  5
EF4
330
1E
100
AcDbEntity
  8
2
  6
Continuous
370
    13
100
AcDbText
 10
2826.712
 20
2387.324
 30
0.0
 40
40.0
  1
３
  7
BIGFONT
100
AcDbText
  0
TEXT
  5
EF5
330
1E
100
AcDbEntity
  8
2
  6
Continuous
370
    13
100
AcDbText
 10
2825.68
 20
2267.0
 30
0.0
 40
40.0
  1
４
  7
BIGFONT
100
AcDbText
  0
TEXT
  5
EF6
330
1E
100
AcDbEntity
  8
2
  6
Continuous
370
    13
100
AcDbText
 10
2825.573999999999
 20
2146.89
 30
0.0
 40
40.0
  1
５
  7
BIGFONT
100
AcDbText
  0
TEXT
  5
EF7
330
1E
100
AcDbEntity
  8
2
  6
Continuous
370
    13
100
AcDbText
 10
2825.612000000001
 20
2027.372
 30
0.0
 40
40.0
  1
６
  7
BIGFONT
100
AcDbText
  0
TEXT
  5
EF8
330
1E
100
AcDbEntity
  8
2
  6
Continuous
370
    13
100
AcDbText
 10
2824.816000000001
 20
1906.568
 30
0.0
 40
40.0
  1
７
  7
BIGFONT
100
AcDbText
  0
TEXT
  5
EF9
330
1E
100
AcDbEntity
  8
2
  6
Continuous
370
    13
100
AcDbText
 10
4136.187999999999
 20
1453.161999999999
 30
0.0
 40
80.0
  1
数　量
  7
BIGFONT
100
AcDbText
  0
TEXT
  5
EFA
330
1E
100
AcDbEntity
  8
2
  6
Continuous
370
    13
100
AcDbText
 10
4586.724
 20
1452.882000000001
 30
0.0
 40
80.0
  1
摘　要
  7
BIGFONT
100
AcDbText
  0
TEXT
  5
EFB
330
1E
100
AcDbEntity
  8
2
  6
Continuous
370
    13
100
AcDbText
 10
2874.596
 20
1453.308000000001
 30
0.0
 40
80.0
  1
種　別
  7
BIGFONT
100
AcDbText
  0
TEXT
  5
EFC
330
1E
100
AcDbEntity
  8
2
  6
Continuous
370
    13
100
AcDbText
 10
3405.654000000001
 20
1450.314000000002
 30
0.0
 40
80.0
  1
規　格
  7
BIGFONT
100
AcDbText
  0
TEXT
  5
EFD
330
1E
100
AcDbEntity
  8
2
  6
Continuous
370
    13
100
AcDbText
 10
3837.934000000002
 20
1452.626
 30
0.0
 40
80.0
  1
単位
  7
BIGFONT
100
AcDbText
  0
TEXT
  5
EFE
330
1E
100
AcDbEntity
  8
2
  6
Continuous
370
    13
100
AcDbText
 10
2757.312000000002
 20
1311.850000000002
 30
0.0
 40
80.0
  1
鉄　筋
  7
BIGFONT
100
AcDbText
  0
TEXT
  5
EFF
330
1E
100
AcDbEntity
  8
2
  6
Continuous
370
    13
100
AcDbText
 10
3859.696
 20
1318.954
 30
0.0
 40
60.0
  1
ｋｇ
  7
BIGFONT
100
AcDbText
  0
TEXT
  5
F00
330
1E
100
AcDbEntity
  8
2
  6
Continuous
370
    13
100
AcDbText
 10
3883.507999999999
 20
1178.96
 30
0.0
 40
60.0
  1
ｍ
  7
BIGFONT
100
AcDbText
  0
TEXT
  5
F01
330
1E
100
AcDbEntity
  8
2
  6
Continuous
370
    13
100
AcDbText
 10
3888.688000000001
 20
898.9600000000042
 30
0.0
 40
60.0
  1
コ
  7
BIGFONT
100
AcDbText
  0
TEXT
  5
F02
330
1E
100
AcDbEntity
  8
2
  6
Continuous
370
    13
100
AcDbText
 10
3886.291999999997
 20
1038.96
 30
0.0
 40
60.0
  1
組
  7
BIGFONT
100
AcDbText
  0
TEXT
  5
F03
330
1E
100
AcDbEntity
  8
2
  6
Continuous
370
    13
100
AcDbText
 10
3927.254000000001
 20
1211.292
 30
0.0
 40
40.0
  1
３
  7
BIGFONT
100
AcDbText
  0
TEXT
  5
F04
330
1E
100
AcDbEntity
  8
2
  6
Continuous
370
    13
100
AcDbText
 10
4216.790000000001
 20
1588.368
 30
0.0
 40
60.0
  1
（製品．１　当たり）
  7
BIGFONT
100
AcDbText
  0
TEXT
  5
F05
330
1E
100
AcDbEntity
  8
2
  6
Continuous
370
    13
100
AcDbText
 10
4574.652173591752
 20
1591.303999999999
 30
0.0
 40
40.0
  1
コ
  7
BIGFONT
100
AcDbText
  0
TEXT
  5
F06
330
1E
100
AcDbEntity
  8
2
  6
Continuous
370
    13
100
AcDbText
 10
4216.790000000001
 20
2948.856000000001
 30
0.0
 40
60.0
  1
（製品．１　当たり）
  7
BIGFONT
100
AcDbText
  0
TEXT
  5
F07
330
1E
100
AcDbEntity
  8
2
  6
Continuous
370
    13
100
AcDbText
 10
4562.708201156175
 20
2951.792
 30
0.0
 40
40.0
  1
コ
  7
BIGFONT
100
AcDbText
  0
CIRCLE
  5
F08
330
1E
100
AcDbEntity
  8
2
  6
Continuous
370
    13
100
AcDbCircle
 10
2817.884000000002
 20
2659.166
 30
0.0
 40
52.0
  0
CIRCLE
  5
F09
330
1E
100
AcDbEntity
  8
2
  6
Continuous
370
    13
100
AcDbCircle
 10
2817.884000000002
 20
2539.166
 30
0.0
 40
52.0
  0
CIRCLE
  5
F0A
330
1E
100
AcDbEntity
  8
2
  6
Continuous
370
    13
100
AcDbCircle
 10
2817.884000000002
 20
2419.166000000001
 30
0.0
 40
52.0
  0
CIRCLE
  5
F0B
330
1E
100
AcDbEntity
  8
2
  6
Continuous
370
    13
100
AcDbCircle
 10
2817.884000000002
 20
2299.166
 30
0.0
 40
52.0
  0
CIRCLE
  5
F0C
330
1E
100
AcDbEntity
  8
2
  6
Continuous
370
    13
100
AcDbCircle
 10
2817.884000000002
 20
2179.165999999999
 30
0.0
 40
52.0
  0
CIRCLE
  5
F0D
330
1E
100
AcDbEntity
  8
2
  6
Continuous
370
    13
100
AcDbCircle
 10
2817.884000000002
 20
2059.166
 30
0.0
 40
52.0
  0
CIRCLE
  5
F0E
330
1E
100
AcDbEntity
  8
2
  6
Continuous
370
    13
100
AcDbCircle
 10
2817.884000000002
 20
1939.166
 30
0.0
 40
52.0
  0
TEXT
  5
F0F
330
1E
100
AcDbEntity
  8
2
  6
Continuous
370
    13
100
AcDbText
 10
2969.068
 20
2263.206
 30
0.0
 40
64.0
  1
D10
  7
BIGFONT
100
AcDbText
  0
TEXT
  5
F10
330
1E
100
AcDbEntity
  8
2
  6
Continuous
370
    13
100
AcDbText
 10
3608.09
 20
2503.012
 30
0.0
 40
64.0
  1
２
  7
BIGFONT
100
AcDbText
  0
TEXT
  5
F11
330
1E
100
AcDbEntity
  8
2
  6
Continuous
370
    13
100
AcDbText
 10
3608.688
 20
2143.364
 30
0.0
 40
64.0
  1
２
  7
BIGFONT
100
AcDbText
  0
TEXT
  5
F12
330
1E
100
AcDbEntity
  8
2
  6
Continuous
370
    13
100
AcDbText
 10
3608.09
 20
2383.012
 30
0.0
 40
64.0
  1
２
  7
BIGFONT
100
AcDbText
  0
LINE
  5
F13
330
1E
100
AcDbEntity
  8
2
  6
Continuous
370
    13
100
AcDbLine
 10
4627.884
 20
2600.7
 30
0.0
 11
4627.884
 21
2718.898
 31
0.0
  0
LINE
  5
F14
330
1E
100
AcDbEntity
  8
2
  6
Continuous
370
    13
100
AcDbLine
 10
4627.884
 20
2718.898
 30
0.0
 11
4627.884
 21
2919.166
 31
0.0
  0
LINE
  5
F15
330
1E
100
AcDbEntity
  8
2
  6
Continuous
370
    13
100
AcDbLine
 10
4768.252
 20
2397.879999999999
 30
0.0
 11
4768.252
 21
2425.879999999999
 31
0.0
  0
LINE
  5
F16
330
1E
100
AcDbEntity
  8
2
  6
Continuous
370
    13
100
AcDbLine
 10
4736.783999999999
 20
2299.112
 30
0.0
 11
4736.783999999999
 21
2312.598
 31
0.0
  0
LINE
  5
F17
330
1E
100
AcDbEntity
  8
2
  6
Continuous
370
    13
100
AcDbLine
 10
4750.784000000002
 20
2179.112
 30
0.0
 11
4750.784000000002
 21
2192.597999999999
 31
0.0
  0
LINE
  5
F18
330
1E
100
AcDbEntity
  8
2
  6
Continuous
370
    13
100
AcDbLine
 10
4750.784000000002
 20
2179.112
 30
0.0
 11
4812.038000000001
 21
2174.827999999999
 31
0.0
  0
LINE
  5
F19
330
1E
100
AcDbEntity
  8
2
  6
Continuous
370
    13
100
AcDbLine
 10
4752.029999999999
 20
2076.381999999999
 30
0.0
 11
4752.029999999999
 21
2089.868
 31
0.0
  0
LINE
  5
F1A
330
1E
100
AcDbEntity
  8
2
  6
Continuous
370
    13
100
AcDbLine
 10
4752.029999999999
 20
2076.381999999999
 30
0.0
 11
4796.743999999999
 21
2031.668
 31
0.0
  0
LINE
  5
F1B
330
1E
100
AcDbEntity
  8
2
  6
Continuous
370
    13
100
AcDbLine
 10
4796.743999999999
 20
2031.668
 30
0.0
 11
4811.705999999998
 21
2031.668
 31
0.0
  0
TEXT
  5
F1C
330
1E
100
AcDbEntity
  8
2
  6
Continuous
370
    13
100
AcDbText
 10
3333.422
 20
1316.374000000002
 30
0.0
 40
64.0
  1
SD295A
  7
BIGFONT
100
AcDbText
  0
TEXT
  5
F1D
330
1E
100
AcDbEntity
  8
2
  6
Continuous
370
    13
100
AcDbText
 10
3332.256
 20
1180.458000000001
 30
0.0
 40
64.0
  1
Fc300
  7
BIGFONT
100
AcDbText
  0
TEXT
  5
F1E
330
1E
100
AcDbEntity
  8
2
  6
Continuous
370
    13
100
AcDbText
 10
3343.326000000001
 20
1033.158000000002
 30
0.0
 40
64.0
  1
W1/2×38
  7
BIGFONT
100
AcDbText
  0
TEXT
  5
F1F
330
1E
100
AcDbEntity
  8
2
  6
Continuous
370
    13
100
AcDbText
 10
3333.588000000002
 20
894.3060000000016
 30
0.0
 40
64.0
  1
SS400
  7
BIGFONT
100
AcDbText
  0
LINE
  5
F20
330
1E
100
AcDbEntity
  8
2
  6
Continuous
370
    13
100
AcDbLine
 10
9752.646000000002
 20
1289.166000000002
 30
0.0
 11
9752.646000000002
 21
2769.166
 31
0.0
  0
LINE
  5
F21
330
1E
100
AcDbEntity
  8
2
  6
Continuous
370
    13
100
AcDbLine
 10
9972.646000000001
 20
1289.166000000002
 30
0.0
 11
9972.646000000001
 21
2769.166
 31
0.0
  0
LINE
  5
F22
330
1E
100
AcDbEntity
  8
2
  6
Continuous
 62
     7
370
    13
100
AcDbLine
 10
10692.646
 20
1289.166000000002
 30
0.0
 11
10692.646
 21
2769.166
 31
0.0
  0
LINE
  5
F23
330
1E
100
AcDbEntity
  8
2
  6
Continuous
370
    13
100
AcDbLine
 10
8572.645999999997
 20
2849.166
 30
0.0
 11
10692.646
 21
2849.166
 31
0.0
  0
LINE
  5
F24
330
1E
100
AcDbEntity
  8
2
  6
Continuous
370
    13
100
AcDbLine
 10
8572.645999999997
 20
2969.166
 30
0.0
 11
10692.646
 21
2969.166
 31
0.0
  0
LINE
  5
F25
330
1E
100
AcDbEntity
  8
2
  6
Continuous
 62
     7
370
    13
100
AcDbLine
 10
8572.645999999997
 20
3119.166
 30
0.0
 11
10692.646
 21
3119.166
 31
0.0
  0
LINE
  5
F26
330
1E
100
AcDbEntity
  8
2
  6
Continuous
370
    13
100
AcDbLine
 10
8572.645999999997
 20
2609.166
 30
0.0
 11
10692.646
 21
2609.166
 31
0.0
  0
LINE
  5
F27
330
1E
100
AcDbEntity
  8
2
  6
Continuous
370
    13
100
AcDbLine
 10
8572.645999999997
 20
2489.166
 30
0.0
 11
10692.646
 21
2489.166
 31
0.0
  0
LINE
  5
F28
330
1E
100
AcDbEntity
  8
2
  6
Continuous
370
    13
100
AcDbLine
 10
8572.645999999997
 20
2369.166
 30
0.0
 11
10692.646
 21
2369.166
 31
0.0
  0
LINE
  5
F29
330
1E
100
AcDbEntity
  8
2
  6
Continuous
370
    13
100
AcDbLine
 10
8572.645999999997
 20
2249.166
 30
0.0
 11
10692.646
 21
2249.166
 31
0.0
  0
LINE
  5
F2A
330
1E
100
AcDbEntity
  8
2
  6
Continuous
370
    13
100
AcDbLine
 10
8572.645999999997
 20
2129.165999999999
 30
0.0
 11
10692.646
 21
2129.165999999999
 31
0.0
  0
LINE
  5
F2B
330
1E
100
AcDbEntity
  8
2
  6
Continuous
370
    13
100
AcDbLine
 10
8572.645999999997
 20
2009.166
 30
0.0
 11
10692.646
 21
2009.166
 31
0.0
  0
LINE
  5
F2C
330
1E
100
AcDbEntity
  8
2
  6
Continuous
370
    13
100
AcDbLine
 10
8572.645999999997
 20
1769.166000000002
 30
0.0
 11
10692.646
 21
1769.166000000002
 31
0.0
  0
LINE
  5
F2D
330
1E
100
AcDbEntity
  8
2
  6
Continuous
370
    13
100
AcDbLine
 10
8572.645999999997
 20
1649.166
 30
0.0
 11
10692.646
 21
1649.166
 31
0.0
  0
LINE
  5
F2E
330
1E
100
AcDbEntity
  8
2
  6
Continuous
 62
     7
370
    13
100
AcDbLine
 10
8572.645999999997
 20
1289.166000000002
 30
0.0
 11
10692.646
 21
1289.166000000002
 31
0.0
  0
LINE
  5
F2F
330
1E
100
AcDbEntity
  8
2
  6
Continuous
370
    13
100
AcDbLine
 10
8572.645999999997
 20
2729.166000000001
 30
0.0
 11
10692.646
 21
2729.166000000001
 31
0.0
  0
TEXT
  5
F30
330
1E
100
AcDbEntity
  8
2
  6
Continuous
 62
     7
370
    13
100
AcDbText
 10
8638.417999999999
 20
3183.602
 30
0.0
 40
90.0
  1
設計条件
  7
BIGFONT
100
AcDbText
  0
LINE
  5
F31
330
1E
100
AcDbEntity
  8
2
  6
Continuous
370
    13
100
AcDbLine
 10
8578.630000000005
 20
3163.514000000001
 30
0.0
 11
9222.561999999998
 21
3163.514000000001
 31
0.0
  0
TEXT
  5
F32
330
1E
100
AcDbEntity
  8
2
  6
Continuous
370
    13
100
AcDbText
 10
8613.503999999997
 20
2868.224000000001
 30
0.0
 40
75.99999999999996
  1
擁壁高
  7
BIGFONT
100
AcDbText
  0
TEXT
  5
F33
330
1E
100
AcDbEntity
  8
2
  6
Continuous
370
    13
100
AcDbText
 10
8614.916000000006
 20
2748.988
 30
0.0
 40
75.99999999999996
  1
盛土高
  7
BIGFONT
100
AcDbText
  0
TEXT
  5
F34
330
1E
100
AcDbEntity
  8
2
  6
Continuous
370
    13
100
AcDbText
 10
8615.998000000001
 20
2629.0
 30
0.0
 40
75.99999999999996
  1
盛土こう配
  7
BIGFONT
100
AcDbText
  0
TEXT
  5
F35
330
1E
100
AcDbEntity
  8
2
  6
Continuous
370
    13
100
AcDbText
 10
8614.849999999998
 20
2269.094
 30
0.0
 40
75.99999999999996
  1
載荷重
  7
BIGFONT
100
AcDbText
  0
TEXT
  5
F36
330
1E
100
AcDbEntity
  8
2
  6
Continuous
370
    13
100
AcDbText
 10
8612.647999999998
 20
2146.633999999999
 30
0.0
 40
75.99999999999996
  1
土圧
  7
BIGFONT
100
AcDbText
  0
TEXT
  5
F37
330
1E
100
AcDbEntity
  8
2
  6
Continuous
370
    13
100
AcDbText
 10
8615.478000000003
 20
2027.916
 30
0.0
 40
75.99999999999996
  1
設計震度
  7
BIGFONT
100
AcDbText
  0
LINE
  5
F38
330
1E
100
AcDbEntity
  8
2
  6
Continuous
370
    13
100
AcDbLine
 10
9083.349999999999
 20
1769.166000000002
 30
0.0
 11
9083.349999999999
 21
2009.166
 31
0.0
  0
TEXT
  5
F39
330
1E
100
AcDbEntity
  8
2
  6
Continuous
370
    13
100
AcDbText
 10
8581.328000000002
 20
1853.139999999999
 30
0.0
 40
75.99999999999996
  1
単位体積重量
 41
0.9473684
  7
BIGFONT
100
AcDbText
  0
TEXT
  5
F3A
330
1E
100
AcDbEntity
  8
2
  6
Continuous
370
    13
100
AcDbText
 10
9113.781999999998
 20
1787.648
 30
0.0
 40
75.99999999999996
  1
鉄筋コンクリート
 41
0.9
  7
BIGFONT
100
AcDbText
  0
LINE
  5
F3B
330
1E
100
AcDbEntity
  8
2
  6
Continuous
 62
     7
370
    13
100
AcDbLine
 10
8572.645999999997
 20
1289.166000000002
 30
0.0
 11
8572.645999999997
 21
1874.04
 31
0.0
  0
LINE
  5
F3C
330
1E
100
AcDbEntity
  8
2
  6
Continuous
 62
     7
370
    13
100
AcDbLine
 10
8572.645999999997
 20
1874.04
 30
0.0
 11
8572.645999999997
 21
1908.141999999999
 31
0.0
  0
LINE
  5
F3D
330
1E
100
AcDbEntity
  8
2
  6
Continuous
 62
     7
370
    13
100
AcDbLine
 10
8572.645999999997
 20
1908.141999999999
 30
0.0
 11
8572.645999999997
 21
2769.166
 31
0.0
  0
LINE
  5
F3E
330
1E
100
AcDbEntity
  8
2
  6
Continuous
370
    13
100
AcDbLine
 10
9083.433999999998
 20
1889.166
 30
0.0
 11
10692.646
 21
1889.166
 31
0.0
  0
TEXT
  5
F3F
330
1E
100
AcDbEntity
  8
2
  6
Continuous
370
    13
100
AcDbText
 10
9110.681999999997
 20
1906.448
 30
0.0
 40
75.99999999999996
  1
土砂
  7
BIGFONT
100
AcDbText
  0
TEXT
  5
F40
330
1E
100
AcDbEntity
  8
2
  6
Continuous
370
    13
100
AcDbText
 10
8607.411999999996
 20
1671.947999999999
 30
0.0
 40
75.99999999999996
  1
コンクリート設計基準強度
  7
BIGFONT
100
AcDbText
  0
TEXT
  5
F41
330
1E
100
AcDbEntity
  8
2
  6
Continuous
370
    13
100
AcDbText
 10
8614.508000000002
 20
1641.734
 30
0.0
 40
72.0
  1
許容応力度
 50
270.0
 41
0.8
  7
BIGFONT
100
AcDbText
  0
LINE
  5
F42
330
1E
100
AcDbEntity
  8
2
  6
Continuous
370
    13
100
AcDbLine
 10
8723.362000000001
 20
1529.166
 30
0.0
 11
10692.646
 21
1529.166
 31
0.0
  0
LINE
  5
F43
330
1E
100
AcDbEntity
  8
2
  6
Continuous
370
    13
100
AcDbLine
 10
8723.362000000001
 20
1409.166000000002
 30
0.0
 11
10692.646
 21
1409.166000000002
 31
0.0
  0
LINE
  5
F44
330
1E
100
AcDbEntity
  8
2
  6
Continuous
370
    13
100
AcDbLine
 10
8723.362000000001
 20
1289.166000000002
 30
0.0
 11
8723.362000000001
 21
1649.166
 31
0.0
  0
TEXT
  5
F45
330
1E
100
AcDbEntity
  8
2
  6
Continuous
370
    13
100
AcDbText
 10
8770.451999999997
 20
1552.564000000002
 30
0.0
 40
75.99999999999996
  1
コンクリート圧縮応力度
 41
0.8
  7
BIGFONT
100
AcDbText
  0
TEXT
  5
F46
330
1E
100
AcDbEntity
  8
2
  6
Continuous
370
    13
100
AcDbText
 10
8771.684000000002
 20
1423.666000000001
 30
0.0
 40
75.99999999999996
  1
コンクリートせん断応力度
 41
0.8
  7
BIGFONT
100
AcDbText
  0
TEXT
  5
F47
330
1E
100
AcDbEntity
  8
2
  6
Continuous
370
    13
100
AcDbText
 10
8779.553999999995
 20
1307.815999999999
 30
0.0
 40
75.99999999999996
  1
鉄筋引張応力度
 41
0.9473684
  7
BIGFONT
100
AcDbText
  0
LINE
  5
F48
330
1E
100
AcDbEntity
  8
2
  6
Continuous
370
    13
100
AcDbLine
 10
9752.646000000002
 20
2769.166
 30
0.0
 11
9752.646000000002
 21
3119.166
 31
0.0
  0
LINE
  5
F49
330
1E
100
AcDbEntity
  8
2
  6
Continuous
370
    13
100
AcDbLine
 10
9972.646000000001
 20
2769.166
 30
0.0
 11
9972.646000000001
 21
3119.166
 31
0.0
  0
LINE
  5
F4A
330
1E
100
AcDbEntity
  8
2
  6
Continuous
 62
     7
370
    13
100
AcDbLine
 10
10692.646
 20
2769.166
 30
0.0
 11
10692.646
 21
3119.166
 31
0.0
  0
LINE
  5
F4B
330
1E
100
AcDbEntity
  8
2
  6
Continuous
 62
     7
370
    13
100
AcDbLine
 10
8572.645999999997
 20
2769.166
 30
0.0
 11
8572.645999999997
 21
3119.166
 31
0.0
  0
TEXT
  5
F4C
330
1E
100
AcDbEntity
  8
2
  6
Continuous
370
    13
100
AcDbText
 10
8956.368000000002
 20
3002.033999999998
 30
0.0
 40
80.0
  1
項目
  7
BIGFONT
100
AcDbText
  0
TEXT
  5
F4D
330
1E
100
AcDbEntity
  8
2
  6
Continuous
370
    13
100
AcDbText
 10
9766.908000000004
 20
3000.088
 30
0.0
 40
80.0
  1
単位
  7
BIGFONT
100
AcDbText
  0
TEXT
  5
F4E
330
1E
100
AcDbEntity
  8
2
  6
Continuous
370
    13
100
AcDbText
 10
10395.494
 20
2996.186
 30
0.0
 40
80.0
  1
短期
  7
BIGFONT
100
AcDbText
  0
TEXT
  5
F4F
330
1E
100
AcDbEntity
  8
2
  6
Continuous
370
    13
100
AcDbText
 10
10032.256
 20
2996.242000000002
 30
0.0
 40
80.0
  1
長期
  7
BIGFONT
100
AcDbText
  0
TEXT
  5
F50
330
1E
100
AcDbEntity
  8
2
  6
Continuous
370
    13
100
AcDbText
 10
9835.309999999999
 20
2883.568
 30
0.0
 40
60.0
  1
ｍ
  7
BIGFONT
100
AcDbText
  0
TEXT
  5
F51
330
1E
100
AcDbEntity
  8
2
  6
Continuous
370
    13
100
AcDbText
 10
9835.309999999999
 20
2763.568000000001
 30
0.0
 40
60.0
  1
ｍ
  7
BIGFONT
100
AcDbText
  0
TEXT
  5
F52
330
1E
100
AcDbEntity
  8
2
  6
Continuous
370
    13
100
AcDbText
 10
9798.242542312234
 20
1671.269435582472
 30
0.0
 40
47.99999999999998
  1
N/mm
 41
0.7
  7
BIGFONT
100
AcDbText
  0
TEXT
  5
F53
330
1E
100
AcDbEntity
  8
2
  6
Continuous
370
    13
100
AcDbText
 10
9933.777999999998
 20
1708.883999999999
 30
0.0
 40
26.0
  1
2
  7
BIGFONT
100
AcDbText
  0
TEXT
  5
F54
330
1E
100
AcDbEntity
  8
2
  6
Continuous
370
    13
100
AcDbText
 10
9933.777999999998
 20
1588.884
 30
0.0
 40
26.0
  1
2
  7
BIGFONT
100
AcDbText
  0
TEXT
  5
F55
330
1E
100
AcDbEntity
  8
2
  6
Continuous
370
    13
100
AcDbText
 10
9933.777999999998
 20
1468.884
 30
0.0
 40
26.0
  1
2
  7
BIGFONT
100
AcDbText
  0
TEXT
  5
F56
330
1E
100
AcDbEntity
  8
2
  6
Continuous
370
    13
100
AcDbText
 10
9933.777999999998
 20
1348.884000000001
 30
0.0
 40
26.0
  1
2
  7
BIGFONT
100
AcDbText
  0
TEXT
  5
F57
330
1E
100
AcDbEntity
  8
2
  6
Continuous
370
    13
100
AcDbText
 10
9790.458295063414
 20
1912.321630761741
 30
0.0
 40
50.0
  1
kN/m
 41
0.75
  7
BIGFONT
100
AcDbText
  0
TEXT
  5
F58
330
1E
100
AcDbEntity
  8
2
  6
Continuous
370
    13
100
AcDbText
 10
9925.014126497314
 20
1942.522
 30
0.0
 40
26.0
  1
３
  7
BIGFONT
100
AcDbText
  0
TEXT
  5
F59
330
1E
100
AcDbEntity
  8
2
  6
Continuous
370
    13
100
AcDbText
 10
9789.706705579284
 20
2273.602
 30
0.0
 40
50.0
  1
kN/m
 41
0.75
  7
BIGFONT
100
AcDbText
  0
LINE
  5
F5A
330
1E
100
AcDbEntity
  8
2
  6
Continuous
370
    13
100
AcDbLine
 10
10332.646
 20
2969.166
 30
0.0
 11
10332.646
 21
3119.166
 31
0.0
  0
LINE
  5
F5B
330
1E
100
AcDbEntity
  8
2
  6
Continuous
370
    13
100
AcDbLine
 10
10332.646
 20
1289.166000000002
 30
0.0
 11
10332.646
 21
1649.166
 31
0.0
  0
LINE
  5
F5C
330
1E
100
AcDbEntity
  8
2
  6
Continuous
370
    13
100
AcDbLine
 10
10247.224
 20
2789.166
 30
0.0
 11
10415.65999999999
 21
2789.166
 31
0.0
  0
TEXT
  5
F5D
330
1E
100
AcDbEntity
  8
2
  6
Continuous
370
    13
100
AcDbText
 10
10237.328
 20
2628.312
 30
0.0
 40
75.99999999999996
  1
水平
  7
BIGFONT
100
AcDbText
  0
TEXT
  5
F5E
330
1E
100
AcDbEntity
  8
2
  6
Continuous
370
    13
100
AcDbText
 10
10054.734
 20
2500.874
 30
0.0
 40
75.99999999999996
  1
シルト，粘性土
  7
BIGFONT
100
AcDbText
  0
TEXT
  5
F5F
330
1E
100
AcDbEntity
  8
2
  6
Continuous
370
    13
100
AcDbText
 10
10166.722
 20
2398.422
 30
0.0
 40
64.0
  1
φ≧
  7
BIGFONT
100
AcDbText
  0
TEXT
  5
F60
330
1E
100
AcDbEntity
  8
2
  6
Continuous
370
    13
100
AcDbText
 10
10240.794
 20
2267.178000000001
 30
0.0
 40
64.0
  1
＝
  7
BIGFONT
100
AcDbText
  0
TEXT
  5
F61
330
1E
100
AcDbEntity
  8
2
  6
Continuous
370
    13
100
AcDbText
 10
10168.804
 20
2280.727999999999
 30
0.0
 40
64.0
  1
ｑ
  7
BIGFONT
100
AcDbText
  0
TEXT
  5
F62
330
1E
100
AcDbEntity
  8
2
  6
Continuous
370
    13
100
AcDbText
 10
10309.83
 20
2399.108
 30
0.0
 40
64.0
  1
25
  7
BIGFONT
100
AcDbText
  0
TEXT
  5
F63
330
1E
100
AcDbEntity
  8
2
  6
Continuous
370
    13
100
AcDbText
 10
10363.98799999999
 20
2273.712
 30
0.0
 40
64.0
  1
10
  7
BIGFONT
100
AcDbText
  0
TEXT
  5
F64
330
1E
100
AcDbEntity
  8
2
  6
Continuous
370
    13
100
AcDbText
 10
10363.48999999999
 20
2029.808
 30
0.0
 40
64.0
  1
0.20
  7
BIGFONT
100
AcDbText
  0
TEXT
  5
F65
330
1E
100
AcDbEntity
  8
2
  6
Continuous
370
    13
100
AcDbText
 10
10240.622
 20
2031.626000000001
 30
0.0
 40
64.0
  1
＝
  7
BIGFONT
100
AcDbText
  0
TEXT
  5
F66
330
1E
100
AcDbEntity
  8
2
  6
Continuous
370
    13
100
AcDbText
 10
10129.702
 20
2030.943999999999
 30
0.0
 40
64.0
  1
Ｋ
  7
BIGFONT
100
AcDbText
  0
TEXT
  5
F67
330
1E
100
AcDbEntity
  8
2
  6
Continuous
370
    13
100
AcDbText
 10
10183.108
 20
2033.258
 30
0.0
 40
40.0
  1
Ｈ
  7
BIGFONT
100
AcDbText
  0
TEXT
  5
F68
330
1E
100
AcDbEntity
  8
2
  6
Continuous
370
    13
100
AcDbText
 10
10047.062
 20
2148.128
 30
0.0
 40
72.0
  1
クーロン土圧式
  7
BIGFONT
100
AcDbText
  0
TEXT
  5
F69
330
1E
100
AcDbEntity
  8
2
  6
Continuous
370
    13
100
AcDbText
 10
10253.872
 20
1903.504
 30
0.0
 40
64.0
  1
18
  7
BIGFONT
100
AcDbText
  0
TEXT
  5
F6A
330
1E
100
AcDbEntity
  8
2
  6
Continuous
370
    13
100
AcDbText
 10
10253.68
 20
1793.018
 30
0.0
 40
64.0
  1
24
  7
BIGFONT
100
AcDbText
  0
TEXT
  5
F6B
330
1E
100
AcDbEntity
  8
2
  6
Continuous
370
    13
100
AcDbText
 10
10454.34199999999
 20
1549.288000000001
 30
0.0
 40
64.0
  1
20.0
  7
BIGFONT
100
AcDbText
  0
TEXT
  5
F6C
330
1E
100
AcDbEntity
  8
2
  6
Continuous
370
    13
100
AcDbText
 10
10087.842
 20
1549.222
 30
0.0
 40
64.0
  1
10.0
  7
BIGFONT
100
AcDbText
  0
TEXT
  5
F6D
330
1E
100
AcDbEntity
  8
2
  6
Continuous
370
    13
100
AcDbText
 10
10185.654
 20
1429.418
 30
0.0
 40
64.0
  1
0.8
  7
BIGFONT
100
AcDbText
  0
TEXT
  5
F6E
330
1E
100
AcDbEntity
  8
2
  6
Continuous
370
    13
100
AcDbText
 10
10037.852
 20
1309.472
 30
0.0
 40
64.0
  1
200
  7
BIGFONT
100
AcDbText
  0
TEXT
  5
F6F
330
1E
100
AcDbEntity
  8
2
  6
Continuous
370
    13
100
AcDbText
 10
10405.20399999999
 20
1309.112000000002
 30
0.0
 40
64.0
  1
295
  7
BIGFONT
100
AcDbText
  0
TEXT
  5
F70
330
1E
100
AcDbEntity
  8
2
  6
Continuous
370
    13
100
AcDbText
 10
10505.99599999999
 20
1429.338000000002
 30
0.0
 40
64.0
  1
1.2
  7
BIGFONT
100
AcDbText
  0
TEXT
  5
F71
330
1E
100
AcDbEntity
  8
2
  6
Continuous
370
    13
100
AcDbText
 10
10237.862
 20
1669.718
 30
0.0
 40
64.0
  1
30.0
  7
BIGFONT
100
AcDbText
  0
TEXT
  5
F72
330
1E
100
AcDbEntity
  8
2
  6
Continuous
370
    13
100
AcDbText
 10
9930.364061452806
 20
2303.907999999999
 30
0.0
 40
26.0
  1
２
  7
BIGFONT
100
AcDbText
  0
TEXT
  5
F73
330
1E
100
AcDbEntity
  8
2
  6
Continuous
370
    13
100
AcDbText
 10
8615.993999999998
 20
2504.185999999999
 30
0.0
 40
75.99999999999996
  1
裏込め土の種類
  7
BIGFONT
100
AcDbText
  0
TEXT
  5
F74
330
1E
100
AcDbEntity
  8
2
  6
Continuous
370
    13
100
AcDbText
 10
8616.231999999996
 20
2383.3
 30
0.0
 40
75.99999999999996
  1
裏込め土の内部摩擦角
  7
BIGFONT
100
AcDbText
  0
LINE
  5
F75
330
1E
100
AcDbEntity
  8
2
  6
Continuous
370
    13
100
AcDbLine
 10
4927.883999999998
 20
860.4299999999996
 30
0.0
 11
4927.883999999998
 21
1759.165999999996
 31
0.0
  0
LINE
  5
F76
330
1E
100
AcDbEntity
  8
2
  6
Continuous
370
    13
100
AcDbLine
 10
2707.884000000004
 20
860.4299999999996
 30
0.0
 11
2707.884000000004
 21
1759.165999999996
 31
0.0
  0
TEXT
  5
F77
330
1E
100
AcDbEntity
  8
2
  6
Continuous
370
    13
100
AcDbText
 10
3296.015999999998
 20
2383.318
 30
0.0
 40
64.0
  1
190
  7
BIGFONT
100
AcDbText
  0
TEXT
  5
F78
330
1E
100
AcDbEntity
  8
2
  6
Continuous
370
    13
100
AcDbText
 10
3607.357999999999
 20
2023.322
 30
0.0
 40
64.0
  1
８
  7
BIGFONT
100
AcDbText
  0
TEXT
  5
F79
330
1E
100
AcDbEntity
  8
2
  6
Continuous
370
    13
100
AcDbText
 10
3246.221999999999
 20
1903.418
 30
0.0
 40
64.0
  1
1900
  7
BIGFONT
100
AcDbText
  0
LINE
  5
F7A
330
1E
100
AcDbEntity
  8
2
  6
Continuous
370
    13
100
AcDbLine
 10
4705.104000000001
 20
1939.166
 30
0.0
 11
4859.98
 21
1939.166
 31
0.0
  0
TEXT
  5
F7B
330
1E
100
AcDbEntity
  8
2
  6
Continuous
370
    13
100
AcDbText
 10
2969.068
 20
2383.206
 30
0.0
 40
64.0
  1
D10
  7
BIGFONT
100
AcDbText
  0
TEXT
  5
F7C
330
1E
100
AcDbEntity
  8
2
  6
Continuous
370
    13
100
AcDbText
 10
2969.068
 20
2503.206
 30
0.0
 40
64.0
  1
D10
  7
BIGFONT
100
AcDbText
  0
TEXT
  5
F7D
330
1E
100
AcDbEntity
  8
2
  6
Continuous
370
    13
100
AcDbText
 10
2969.068
 20
2623.206
 30
0.0
 40
64.0
  1
D10
  7
BIGFONT
100
AcDbText
  0
TEXT
  5
F7E
330
1E
100
AcDbEntity
  8
2
  6
Continuous
370
    13
100
AcDbText
 10
2969.068
 20
2143.206000000001
 30
0.0
 40
64.0
  1
D10
  7
BIGFONT
100
AcDbText
  0
TEXT
  5
F7F
330
1E
100
AcDbEntity
  8
2
  6
Continuous
370
    13
100
AcDbText
 10
2969.068
 20
2023.206
 30
0.0
 40
64.0
  1
D10
  7
BIGFONT
100
AcDbText
  0
TEXT
  5
F80
330
1E
100
AcDbEntity
  8
2
  6
Continuous
370
    13
100
AcDbText
 10
2969.068
 20
1903.206
 30
0.0
 40
64.0
  1
D10
  7
BIGFONT
100
AcDbText
  0
TEXT
  5
F81
330
1E
100
AcDbEntity
  8
2
  6
Continuous
370
    13
100
AcDbText
 10
3839.730000000002
 20
1903.466
 30
0.0
 40
64.0
  1
0.560
  7
BIGFONT
100
AcDbText
  0
TEXT
  5
F82
330
1E
100
AcDbEntity
  8
2
  6
Continuous
370
    13
100
AcDbText
 10
3839.730000000002
 20
2023.466
 30
0.0
 40
64.0
  1
0.560
  7
BIGFONT
100
AcDbText
  0
TEXT
  5
F83
330
1E
100
AcDbEntity
  8
2
  6
Continuous
370
    13
100
AcDbText
 10
3839.730000000002
 20
2263.465999999998
 30
0.0
 40
64.0
  1
0.560
  7
BIGFONT
100
AcDbText
  0
TEXT
  5
F84
330
1E
100
AcDbEntity
  8
2
  6
Continuous
370
    13
100
AcDbText
 10
3839.730000000002
 20
2383.465999999999
 30
0.0
 40
64.0
  1
0.560
  7
BIGFONT
100
AcDbText
  0
TEXT
  5
F85
330
1E
100
AcDbEntity
  8
2
  6
Continuous
370
    13
100
AcDbText
 10
3839.730000000002
 20
2503.466
 30
0.0
 40
64.0
  1
0.560
  7
BIGFONT
100
AcDbText
  0
TEXT
  5
F86
330
1E
100
AcDbEntity
  8
2
  6
Continuous
370
    13
100
AcDbText
 10
3839.730000000002
 20
2623.465999999999
 30
0.0
 40
64.0
  1
0.560
  7
BIGFONT
100
AcDbText
  0
LINE
  5
F87
330
1E
100
AcDbEntity
  8
2
  6
Continuous
370
    13
100
AcDbLine
 10
4767.884
 20
2631.666
 30
0.0
 11
4795.682000000001
 21
2631.666
 31
0.0
  0
LINE
  5
F88
330
1E
100
AcDbEntity
  8
2
  6
Continuous
370
    13
100
AcDbLine
 10
4767.884
 20
2631.666
 30
0.0
 11
4767.884
 21
2687.666
 31
0.0
  0
LINE
  5
F89
330
1E
100
AcDbEntity
  8
2
  6
Continuous
370
    13
100
AcDbLine
 10
4767.884
 20
2511.666
 30
0.0
 11
4795.682000000001
 21
2511.666
 31
0.0
  0
LINE
  5
F8A
330
1E
100
AcDbEntity
  8
2
  6
Continuous
370
    13
100
AcDbLine
 10
4767.884
 20
2511.666
 30
0.0
 11
4767.884
 21
2553.662
 31
0.0
  0
TEXT
  5
F8B
330
1E
100
AcDbEntity
  8
2
  6
Continuous
370
    13
100
AcDbText
 10
3839.730000000002
 20
2143.466
 30
0.0
 40
64.0
  1
0.560
  7
BIGFONT
100
AcDbText
  0
TEXT
  5
F8C
330
1E
100
AcDbEntity
  8
2
  6
Continuous
370
    13
100
AcDbText
 10
3296.513999999999
 20
2143.697999999999
 30
0.0
 40
64.0
  1
320
  7
BIGFONT
100
AcDbText
  0
TEXT
  5
F8D
330
1E
100
AcDbEntity
  8
2
  6
Continuous
370
    13
100
AcDbText
 10
3296.834
 20
2023.545999999999
 30
0.0
 40
64.0
  1
320
  7
BIGFONT
100
AcDbText
  0
TEXT
  5
F8E
330
1E
100
AcDbEntity
  8
2
  6
Continuous
370
    13
100
AcDbText
 10
3608.513999999999
 20
2263.398
 30
0.0
 40
64.0
  1
８
  7
BIGFONT
100
AcDbText
  0
TEXT
  5
F8F
330
1E
100
AcDbEntity
  8
2
  6
Continuous
370
    13
100
AcDbText
 10
3608.513999999999
 20
2623.398
 30
0.0
 40
64.0
  1
８
  7
BIGFONT
100
AcDbText
  0
LINE
  5
F90
330
1E
100
AcDbEntity
  8
2
  6
Continuous
370
    13
100
AcDbLine
 10
4736.783999999999
 20
2299.112
 30
0.0
 11
4835.417999999997
 21
2292.214
 31
0.0
  0
LINE
  5
F91
330
1E
100
AcDbEntity
  8
2
  6
Continuous
370
    13
100
AcDbLine
 10
4927.883999999998
 20
1759.165999999996
 30
0.0
 11
4927.883999999998
 21
3119.166
 31
0.0
  0
LINE
  5
F92
330
1E
100
AcDbEntity
  8
2
  6
Continuous
370
    13
100
AcDbLine
 10
4627.884
 20
1759.165999999996
 30
0.0
 11
4627.884
 21
2600.7
 31
0.0
  0
LINE
  5
F93
330
1E
100
AcDbEntity
  8
2
  6
Continuous
370
    13
100
AcDbLine
 10
4187.884
 20
1759.165999999996
 30
0.0
 11
4187.884
 21
2919.166
 31
0.0
  0
LINE
  5
F94
330
1E
100
AcDbEntity
  8
2
  6
Continuous
370
    13
100
AcDbLine
 10
3747.884
 20
1759.165999999996
 30
0.0
 11
3747.884
 21
2919.166
 31
0.0
  0
LINE
  5
F95
330
1E
100
AcDbEntity
  8
2
  6
Continuous
370
    13
100
AcDbLine
 10
3527.884
 20
1759.165999999996
 30
0.0
 11
3527.884
 21
2919.166
 31
0.0
  0
LINE
  5
F96
330
1E
100
AcDbEntity
  8
2
  6
Continuous
370
    13
100
AcDbLine
 10
3167.884
 20
1759.165999999996
 30
0.0
 11
3167.884
 21
2919.166
 31
0.0
  0
LINE
  5
F97
330
1E
100
AcDbEntity
  8
2
  6
Continuous
370
    13
100
AcDbLine
 10
2927.884
 20
1759.165999999996
 30
0.0
 11
2927.884
 21
2719.166
 31
0.0
  0
LINE
  5
F98
330
1E
100
AcDbEntity
  8
2
  6
Continuous
370
    13
100
AcDbLine
 10
2707.884000000004
 20
1759.165999999996
 30
0.0
 11
2707.884000000004
 21
2719.166
 31
0.0
  0
TEXT
  5
F99
330
1E
100
AcDbEntity
  8
2
  6
Continuous
370
    13
100
AcDbText
 10
3607.998
 20
1903.8
 30
0.0
 40
64.0
  1
７
  7
BIGFONT
100
AcDbText
  0
TEXT
  5
F9A
330
1E
100
AcDbEntity
  8
2
  6
Continuous
370
    13
100
AcDbText
 10
3295.610000000001
 20
2623.182
 30
0.0
 40
64.0
  1
870
  7
BIGFONT
100
AcDbText
  0
TEXT
  5
F9B
330
1E
100
AcDbEntity
  8
2
  6
Continuous
370
    13
100
AcDbText
 10
3296.260000000002
 20
2503.608
 30
0.0
 40
64.0
  1
510
  7
BIGFONT
100
AcDbText
  0
TEXT
  5
F9C
330
1E
100
AcDbEntity
  8
2
  6
Continuous
370
    13
100
AcDbText
 10
3296.398000000002
 20
2263.024000000001
 30
0.0
 40
64.0
  1
530
  7
BIGFONT
100
AcDbText
  0
TEXT
  5
F9D
330
1E
100
AcDbEntity
  8
2
  6
Continuous
370
    13
100
AcDbText
 10
4315.071999999999
 20
2623.176
 30
0.0
 40
64.0
  1
3.90
  7
BIGFONT
100
AcDbText
  0
TEXT
  5
F9E
330
1E
100
AcDbEntity
  8
2
  6
Continuous
370
    13
100
AcDbText
 10
4315.835999999997
 20
2503.038
 30
0.0
 40
64.0
  1
0.57
  7
BIGFONT
100
AcDbText
  0
TEXT
  5
F9F
330
1E
100
AcDbEntity
  8
2
  6
Continuous
370
    13
100
AcDbText
 10
4315.745999999999
 20
2383.122
 30
0.0
 40
64.0
  1
0.21
  7
BIGFONT
100
AcDbText
  0
TEXT
  5
FA0
330
1E
100
AcDbEntity
  8
2
  6
Continuous
370
    13
100
AcDbText
 10
4315.878
 20
2262.976
 30
0.0
 40
64.0
  1
2.37
  7
BIGFONT
100
AcDbText
  0
TEXT
  5
FA1
330
1E
100
AcDbEntity
  8
2
  6
Continuous
370
    13
100
AcDbText
 10
4315.319999999999
 20
2143.055999999999
 30
0.0
 40
64.0
  1
0.36
  7
BIGFONT
100
AcDbText
  0
TEXT
  5
FA2
330
1E
100
AcDbEntity
  8
2
  6
Continuous
370
    13
100
AcDbText
 10
4315.494
 20
2022.528
 30
0.0
 40
64.0
  1
1.43
  7
BIGFONT
100
AcDbText
  0
TEXT
  5
FA3
330
1E
100
AcDbEntity
  8
2
  6
Continuous
370
    13
100
AcDbText
 10
4315.298000000001
 20
1902.98
 30
0.0
 40
64.0
  1
7.45
  7
BIGFONT
100
AcDbText
  0
TEXT
  5
FA4
330
1E
100
AcDbEntity
  8
2
  6
Continuous
370
    13
100
AcDbText
 10
4128.465999999998
 20
1178.468000000001
 30
0.0
 40
64.0
  1
0.275
  7
BIGFONT
100
AcDbText
  0
TEXT
  5
FA5
330
1E
100
AcDbEntity
  8
2
  6
Continuous
370
    13
100
AcDbText
 10
4125.879999999997
 20
1316.520000000002
 30
0.0
 40
64.0
  1
16.77
  7
BIGFONT
100
AcDbText
  0
TEXT
  5
FA6
330
1E
100
AcDbEntity
  8
2
  6
Continuous
370
    13
100
AcDbText
 10
4747.740603187607
 20
1179.984000000002
 30
0.0
 40
50.0
  1
kg/コ
 41
0.7
  7
BIGFONT
100
AcDbText
  0
TEXT
  5
FA7
330
1E
100
AcDbEntity
  8
2
  6
Continuous
370
    13
100
AcDbText
 10
4533.593999999999
 20
1178.042
 30
0.0
 40
64.0
  1
660
  7
BIGFONT
100
AcDbText
  0
TEXT
  5
FA8
330
1E
100
AcDbEntity
  8
2
  6
Continuous
370
    13
100
AcDbText
 10
10236.56
 20
2878.886
 30
0.0
 40
64.0
  1
0.75
  7
BIGFONT
100
AcDbText
  0
TEXT
  5
FA9
330
1E
100
AcDbEntity
  8
2
  6
Continuous
370
    13
100
AcDbText
 10
4222.543999999998
 20
1033.876000000002
 30
0.0
 40
64.0
  1
2
  7
BIGFONT
100
AcDbText
  0
TEXT
  5
FAA
330
1E
100
AcDbEntity
  8
2
  6
Continuous
370
    13
100
AcDbText
 10
4222.353999999999
 20
895.592000000002
 30
0.0
 40
64.0
  1
4
  7
BIGFONT
100
AcDbText
  0
LINE
  5
FAB
330
1E
100
AcDbEntity
  8
0
  6
Continuous
370
    13
100
AcDbLine
 10
5837.5
 20
4973.714000000001
 30
0.0
 11
5837.5
 21
5223.714000000001
 31
0.0
  0
LINE
  5
FAC
330
1E
100
AcDbEntity
  8
0
  6
Continuous
370
    13
100
AcDbLine
 10
6167.5
 20
5223.714000000001
 30
0.0
 11
5821.5
 21
5223.714000000001
 31
0.0
  0
LINE
  5
FAD
330
1E
100
AcDbEntity
  8
0
  6
Continuous
370
    13
100
AcDbLine
 10
5879.423000000002
 20
4973.714000000001
 30
0.0
 11
5821.5
 21
4973.714000000001
 31
0.0
  0
LINE
  5
FAE
330
1E
100
AcDbEntity
  8
0
  6
Continuous
370
    13
100
AcDbLine
 10
5843.9306
 20
5199.706
 30
0.0
 11
5837.5
 21
5223.705999999999
 31
0.0
  0
LINE
  5
FAF
330
1E
100
AcDbEntity
  8
0
  6
Continuous
370
    13
100
AcDbLine
 10
5837.5
 20
5223.705999999999
 30
0.0
 11
5831.069199999998
 21
5199.706
 31
0.0
  0
LINE
  5
FB0
330
1E
100
AcDbEntity
  8
0
  6
Continuous
370
    13
100
AcDbLine
 10
5831.069199999998
 20
4997.706
 30
0.0
 11
5837.5
 21
4973.705999999999
 31
0.0
  0
LINE
  5
FB1
330
1E
100
AcDbEntity
  8
0
  6
Continuous
370
    13
100
AcDbLine
 10
5837.5
 20
4973.705999999999
 30
0.0
 11
5843.9306
 21
4997.706
 31
0.0
  0
TEXT
  5
FB2
330
1E
100
AcDbEntity
  8
0
  6
Continuous
370
    13
100
AcDbText
 10
5825.5
 20
5014.713999999997
 30
0.0
 40
64.0
  1
250
 50
90.0
 41
0.875
  7
BIGFONT
100
AcDbText
  0
LINE
  5
FB3
330
1E
100
AcDbEntity
  8
0
  6
Continuous
370
    13
100
AcDbLine
 10
5837.5
 20
5223.714000000001
 30
0.0
 11
5837.5
 21
5323.713999999998
 31
0.0
  0
LINE
  5
FB4
330
1E
100
AcDbEntity
  8
0
  6
Continuous
370
    13
100
AcDbLine
 10
6167.5
 20
5323.713999999998
 30
0.0
 11
5821.5
 21
5323.713999999998
 31
0.0
  0
LINE
  5
FB5
330
1E
100
AcDbEntity
  8
0
  6
Continuous
370
    13
100
AcDbLine
 10
5843.9306
 20
5299.706
 30
0.0
 11
5837.5
 21
5323.706000000001
 31
0.0
  0
LINE
  5
FB6
330
1E
100
AcDbEntity
  8
0
  6
Continuous
370
    13
100
AcDbLine
 10
5837.5
 20
5323.706000000001
 30
0.0
 11
5831.069199999998
 21
5299.706
 31
0.0
  0
LINE
  5
FB7
330
1E
100
AcDbEntity
  8
0
  6
Continuous
370
    13
100
AcDbLine
 10
5831.069199999998
 20
5247.706
 30
0.0
 11
5837.5
 21
5223.705999999999
 31
0.0
  0
LINE
  5
FB8
330
1E
100
AcDbEntity
  8
0
  6
Continuous
370
    13
100
AcDbLine
 10
5837.5
 20
5223.705999999999
 30
0.0
 11
5843.9306
 21
5247.706
 31
0.0
  0
LINE
  5
FB9
330
1E
100
AcDbEntity
  8
0
  6
Continuous
370
    13
100
AcDbLine
 10
5837.5
 20
5223.714000000001
 30
0.0
 11
5837.5
 21
5173.314000000001
 31
0.0
  0
TEXT
  5
FBA
330
1E
100
AcDbEntity
  8
0
  6
Continuous
370
    13
100
AcDbText
 10
5913.499999999999
 20
5230.661402961317
 30
0.0
 40
64.0
  1
100
 50
90.0
 41
0.875
  7
BIGFONT
100
AcDbText
  0
LINE
  5
FBB
330
1E
100
AcDbEntity
  8
0
  6
Continuous
370
    13
100
AcDbLine
 10
5837.5
 20
5323.713999999998
 30
0.0
 11
5837.5
 21
5723.714000000001
 31
0.0
  0
LINE
  5
FBC
330
1E
100
AcDbEntity
  8
0
  6
Continuous
370
    13
100
AcDbLine
 10
5837.5
 20
5723.714000000001
 30
0.0
 11
5821.5
 21
5723.714000000001
 31
0.0
  0
LINE
  5
FBD
330
1E
100
AcDbEntity
  8
0
  6
Continuous
370
    13
100
AcDbLine
 10
5843.9306
 20
5699.706
 30
0.0
 11
5837.5
 21
5723.705999999999
 31
0.0
  0
LINE
  5
FBE
330
1E
100
AcDbEntity
  8
0
  6
Continuous
370
    13
100
AcDbLine
 10
5837.5
 20
5723.705999999999
 30
0.0
 11
5831.069199999998
 21
5699.706
 31
0.0
  0
LINE
  5
FBF
330
1E
100
AcDbEntity
  8
0
  6
Continuous
370
    13
100
AcDbLine
 10
5831.069199999998
 20
5347.706
 30
0.0
 11
5837.5
 21
5323.706000000001
 31
0.0
  0
LINE
  5
FC0
330
1E
100
AcDbEntity
  8
0
  6
Continuous
370
    13
100
AcDbLine
 10
5837.5
 20
5323.706000000001
 30
0.0
 11
5843.9306
 21
5347.706
 31
0.0
  0
TEXT
  5
FC1
330
1E
100
AcDbEntity
  8
0
  6
Continuous
370
    13
100
AcDbText
 10
5825.5
 20
5439.713999999999
 30
0.0
 40
64.0
  1
400
 50
90.0
 41
0.875
  7
BIGFONT
100
AcDbText
  0
LINE
  5
FC2
330
1E
100
AcDbEntity
  8
0
  6
Continuous
370
    13
100
AcDbLine
 10
1285.135
 20
1297.726
 30
0.0
 11
1285.135
 21
1492.726000000002
 31
0.0
  0
LINE
  5
FC3
330
1E
100
AcDbEntity
  8
0
  6
Continuous
370
    13
100
AcDbLine
 10
1291.570800000001
 20
1468.726000000002
 30
0.0
 11
1285.139999999999
 21
1492.726000000002
 31
0.0
  0
LINE
  5
FC4
330
1E
100
AcDbEntity
  8
0
  6
Continuous
370
    13
100
AcDbLine
 10
1285.139999999999
 20
1492.726000000002
 30
0.0
 11
1278.709400000001
 21
1468.726000000002
 31
0.0
  0
LINE
  5
FC5
330
1E
100
AcDbEntity
  8
0
  6
Continuous
370
    13
100
AcDbLine
 10
1285.135
 20
932.726
 30
0.0
 11
1285.135
 21
1297.757999999998
 31
0.0
  0
LINE
  5
FC6
330
1E
100
AcDbEntity
  8
0
  6
Continuous
370
    13
100
AcDbLine
 10
1291.570800000001
 20
1273.766000000002
 30
0.0
 11
1285.139999999999
 21
1297.766
 31
0.0
  0
LINE
  5
FC7
330
1E
100
AcDbEntity
  8
0
  6
Continuous
370
    13
100
AcDbLine
 10
1285.139999999999
 20
1297.766
 30
0.0
 11
1278.709400000001
 21
1273.766000000002
 31
0.0
  0
LINE
  5
FC8
330
1E
100
AcDbEntity
  8
0
  6
Continuous
370
    13
100
AcDbLine
 10
1629.329
 20
2536.700000000001
 30
0.0
 11
1359.128999999999
 21
2536.704
 31
0.0
  0
LINE
  5
FC9
330
1E
100
AcDbEntity
  8
0
  6
Continuous
370
    13
100
AcDbLine
 10
1383.140200000001
 20
2543.1366
 30
0.0
 11
1359.139999999998
 21
2536.706000000001
 31
0.0
  0
LINE
  5
FCA
330
1E
100
AcDbEntity
  8
0
  6
Continuous
370
    13
100
AcDbLine
 10
1359.139999999998
 20
2536.706000000001
 30
0.0
 11
1383.139999999999
 21
2530.275
 31
0.0
  0
LINE
  5
FCB
330
1E
100
AcDbEntity
  8
0
  6
Continuous
370
    13
100
AcDbLine
 10
1877.437
 20
2536.675000000001
 30
0.0
 11
1629.329
 21
2536.700000000001
 31
0.0
  0
LINE
  5
FCC
330
1E
100
AcDbEntity
  8
0
  6
Continuous
370
    13
100
AcDbLine
 10
1653.340799999998
 20
2543.1344
 30
0.0
 11
1629.34
 21
2536.706000000001
 31
0.0
  0
LINE
  5
FCD
330
1E
100
AcDbEntity
  8
0
  6
Continuous
370
    13
100
AcDbLine
 10
1629.34
 20
2536.706000000001
 30
0.0
 11
1653.339400000001
 21
2530.272999999999
 31
0.0
  0
TEXT
  5
FCE
330
1E
100
AcDbEntity
  8
1
  6
Continuous
 62
     7
370
    13
100
AcDbText
 10
6356.525999999998
 20
2599.561697154813
 30
0.0
 40
90.0
  1
鉄筋加工図
  7
BIGFONT
100
AcDbText
  0
LINE
  5
FCF
330
1E
100
AcDbEntity
  8
1
  6
Continuous
370
    13
100
AcDbLine
 10
6328.811999999999
 20
2570.524097154813
 30
0.0
 11
7484.026999999999
 21
2570.524097154813
 31
0.0
  0
TEXT
  5
FD0
330
1E
100
AcDbEntity
  8
1
  6
Continuous
 62
     7
370
    13
100
AcDbText
 10
7039.779507708918
 20
2599.287697154812
 30
0.0
 40
64.0
  1
Ｓ＝１：４０
  7
BIGFONT
100
AcDbText
  0
CIRCLE
  5
FD1
330
1E
100
AcDbEntity
  8
1
  6
Continuous
 62
     7
370
    13
100
AcDbCircle
 10
6538.143400000001
 20
2257.127697154813
 30
0.0
 40
55.0
  0
TEXT
  5
FD2
330
1E
100
AcDbEntity
  8
1
  6
Continuous
370
    13
100
AcDbText
 10
6488.267400000001
 20
2219.460097154811
 30
0.0
 40
72.0
  1
Ｓ
  7
BIGFONT
100
AcDbText
  0
TEXT
  5
FD3
330
1E
100
AcDbEntity
  8
1
  6
Continuous
370
    13
100
AcDbText
 10
6544.467
 20
2225.580697154813
 30
0.0
 40
40.0
  1
２
  7
BIGFONT
100
AcDbText
  0
LINE
  5
FD4
330
1E
100
AcDbEntity
  8
1
  6
Continuous
370
    13
100
AcDbLine
 10
7632.807000000001
 20
1725.460097154811
 30
0.0
 11
7637.657399999996
 21
1749.870697154811
 31
0.0
  0
LINE
  5
FD5
330
1E
100
AcDbEntity
  8
1
  6
Continuous
370
    13
100
AcDbLine
 10
7637.657399999996
 20
1749.870697154811
 30
0.0
 11
7646.522399999998
 21
1725.71309715481
 31
0.0
  0
LINE
  5
FD6
330
1E
100
AcDbEntity
  8
1
  6
Continuous
370
    13
100
AcDbLine
 10
7781.583999999995
 20
1578.184097154812
 30
0.0
 11
7806.238999999997
 21
1567.227097154813
 31
0.0
  0
LINE
  5
FD7
330
1E
100
AcDbEntity
  8
1
  6
Continuous
370
    13
100
AcDbLine
 10
7781.786399999997
 20
1564.064097154813
 30
0.0
 11
7806.238999999997
 21
1567.227097154813
 31
0.0
  0
LINE
  5
FD8
330
1E
100
AcDbEntity
  8
1
  6
Continuous
370
    13
100
AcDbLine
 10
7623.544399999999
 20
1789.870697154812
 30
0.0
 11
7788.696
 21
1789.870697154812
 31
0.0
  0
LINE
  5
FD9
330
1E
100
AcDbEntity
  8
1
  6
Continuous
370
    13
100
AcDbLine
 10
7622.8564
 20
1749.870697154811
 30
0.0
 11
7820.958399999996
 21
1749.870697154811
 31
0.0
  0
LINE
  5
FDA
330
1E
100
AcDbEntity
  8
1
  6
Continuous
370
    13
100
AcDbLine
 10
7631.816399999997
 20
1749.870697154811
 30
0.0
 11
7643.837999999997
 21
1749.870697154811
 31
0.0
  0
ARC
  5
FDB
330
1E
100
AcDbEntity
  8
1
  6
Continuous
370
    13
100
AcDbCircle
 10
7820.958399999996
 20
1749.870697154811
 30
0.0
 40
183.2359999999999
100
AcDbArc
 50
180.0
 51
266.2406600000094
  0
LINE
  5
FDC
330
1E
100
AcDbEntity
  8
1
  6
Continuous
370
    13
100
AcDbLine
 10
7637.657399999996
 20
1749.870697154811
 30
0.0
 11
7637.657399999996
 21
1789.870697154812
 31
0.0
  0
LINE
  5
FDD
330
1E
100
AcDbEntity
  8
1
  6
Continuous
370
    13
100
AcDbLine
 10
7637.716399999998
 20
1844.392097154813
 30
0.0
 11
7637.657399999996
 21
1789.870697154812
 31
0.0
  0
LINE
  5
FDE
330
1E
100
AcDbEntity
  8
1
  6
Continuous
370
    13
100
AcDbLine
 10
7631.235000000001
 20
1813.884097154812
 30
0.0
 11
7637.639999999999
 21
1789.877097154812
 31
0.0
  0
LINE
  5
FDF
330
1E
100
AcDbEntity
  8
1
  6
Continuous
370
    13
100
AcDbLine
 10
7637.639999999999
 20
1789.877097154812
 30
0.0
 11
7644.096599999997
 21
1813.870297154813
 31
0.0
  0
ARC
  5
FE0
330
1E
100
AcDbEntity
  8
1
  6
Continuous
370
    13
100
AcDbCircle
 10
7784.401399999999
 20
1761.057097154813
 30
0.0
 40
236.0739999999998
100
AcDbArc
 50
357.2745099999926
 51
16.94442700003894
  0
ARC
  5
FE1
330
1E
100
AcDbEntity
  8
1
  6
Continuous
370
    13
100
AcDbCircle
 10
7830.661400000001
 20
1754.063097154812
 30
0.0
 40
236.0739999999998
100
AcDbArc
 50
66.21623199995837
 51
90.91102099999854
  0
LINE
  5
FE2
330
1E
100
AcDbEntity
  8
1
  6
Continuous
370
    13
100
AcDbLine
 10
8020.208399999996
 20
1749.831697154813
 30
0.0
 11
8027.258999999999
 21
1773.185097154813
 31
0.0
  0
LINE
  5
FE3
330
1E
100
AcDbEntity
  8
1
  6
Continuous
370
    13
100
AcDbLine
 10
8015.217399999997
 20
1773.127697154812
 30
0.0
 11
8020.208399999996
 21
1749.831697154813
 31
0.0
  0
LINE
  5
FE4
330
1E
100
AcDbEntity
  8
1
  6
Continuous
370
    13
100
AcDbLine
 10
7826.908
 20
1990.107697154812
 30
0.0
 11
7849.5824
 21
1996.363097154812
 31
0.0
  0
LINE
  5
FE5
330
1E
100
AcDbEntity
  8
1
  6
Continuous
370
    13
100
AcDbLine
 10
7826.908
 20
1990.107697154812
 30
0.0
 11
7850.005999999997
 21
1983.970097154812
 31
0.0
  0
LINE
  5
FE6
330
1E
100
AcDbEntity
  8
1
  6
Continuous
370
    13
100
AcDbLine
 10
7818.046999999999
 20
1709.933697154812
 30
0.0
 11
7820.958399999996
 21
1749.870697154811
 31
0.0
  0
LINE
  5
FE7
330
1E
100
AcDbEntity
  8
1
  6
Continuous
 62
     1
370
    25
100
AcDbLine
 10
6783.490399999999
 20
625.4966971548136
 30
0.0
 11
6783.490399999999
 21
665.4966971548136
 31
0.0
  0
LINE
  5
FE8
330
1E
100
AcDbEntity
  8
1
  6
Continuous
 62
     1
370
    25
100
AcDbLine
 10
6838.644400000005
 20
570.3426971548146
 30
0.0
 11
6878.644400000002
 21
570.3426971548146
 31
0.0
  0
LINE
  5
FE9
330
1E
100
AcDbEntity
  8
1
  6
Continuous
370
    13
100
AcDbLine
 10
6612.079400000002
 20
625.4966971548136
 30
0.0
 11
6612.079400000002
 21
665.4966971548136
 31
0.0
  0
LINE
  5
FEA
330
1E
100
AcDbEntity
  8
1
  6
Continuous
370
    13
100
AcDbLine
 10
6763.490400000002
 20
665.4966971548136
 30
0.0
 11
6596.079399999999
 21
665.4966971548136
 31
0.0
  0
LINE
  5
FEB
330
1E
100
AcDbEntity
  8
1
  6
Continuous
370
    13
100
AcDbLine
 10
6763.490400000002
 20
625.4966971548136
 30
0.0
 11
6596.079399999999
 21
625.4966971548136
 31
0.0
  0
LINE
  5
FEC
330
1E
100
AcDbEntity
  8
1
  6
Continuous
370
    13
100
AcDbLine
 10
6612.079400000002
 20
713.4966971548145
 30
0.0
 11
6612.079400000002
 21
665.4966971548136
 31
0.0
  0
LINE
  5
FED
330
1E
100
AcDbEntity
  8
1
  6
Continuous
370
    13
100
AcDbLine
 10
6605.6292
 20
689.4970971548126
 30
0.0
 11
6612.060000000001
 21
665.4970971548147
 31
0.0
  0
LINE
  5
FEE
330
1E
100
AcDbEntity
  8
1
  6
Continuous
370
    13
100
AcDbLine
 10
6612.060000000001
 20
665.4970971548147
 30
0.0
 11
6618.490600000001
 21
689.4970971548126
 31
0.0
  0
LINE
  5
FEF
330
1E
100
AcDbEntity
  8
1
  6
Continuous
370
    13
100
AcDbLine
 10
6612.079400000002
 20
625.4966971548136
 30
0.0
 11
6612.079400000002
 21
577.4966971548145
 31
0.0
  0
LINE
  5
FF0
330
1E
100
AcDbEntity
  8
1
  6
Continuous
370
    13
100
AcDbLine
 10
6618.490600000001
 20
601.4970971548115
 30
0.0
 11
6612.060000000001
 21
625.4970971548146
 31
0.0
  0
LINE
  5
FF1
330
1E
100
AcDbEntity
  8
1
  6
Continuous
370
    13
100
AcDbLine
 10
6612.060000000001
 20
625.4970971548146
 30
0.0
 11
6605.6292
 21
601.4970971548115
 31
0.0
  0
TEXT
  5
FF2
330
1E
100
AcDbEntity
  8
1
  6
Continuous
370
    13
100
AcDbText
 10
6600.079399999998
 20
597.7778498579426
 30
0.0
 40
64.0
  1
80
 50
90.0
 41
0.875
  7
BIGFONT
100
AcDbText
  0
LINE
  5
FF3
330
1E
100
AcDbEntity
  8
1
  6
Continuous
370
    13
100
AcDbLine
 10
6838.459000000003
 20
453.4010971548142
 30
0.0
 11
6878.459000000002
 21
453.4010971548142
 31
0.0
  0
LINE
  5
FF4
330
1E
100
AcDbEntity
  8
1
  6
Continuous
370
    13
100
AcDbLine
 10
6878.459000000002
 20
552.3776971548126
 30
0.0
 11
6878.459000000002
 21
437.4010971548142
 31
0.0
  0
LINE
  5
FF5
330
1E
100
AcDbEntity
  8
1
  6
Continuous
370
    13
100
AcDbLine
 10
6838.459000000003
 20
552.3776971548126
 30
0.0
 11
6838.459000000003
 21
437.4010971548142
 31
0.0
  0
LINE
  5
FF6
330
1E
100
AcDbEntity
  8
1
  6
Continuous
370
    13
100
AcDbLine
 10
6926.459000000003
 20
453.4010971548142
 30
0.0
 11
6878.459000000002
 21
453.4010971548142
 31
0.0
  0
LINE
  5
FF7
330
1E
100
AcDbEntity
  8
1
  6
Continuous
370
    13
100
AcDbLine
 10
6902.439999999998
 20
459.8478971548122
 30
0.0
 11
6878.439999999999
 21
453.4170971548144
 31
0.0
  0
LINE
  5
FF8
330
1E
100
AcDbEntity
  8
1
  6
Continuous
370
    13
100
AcDbLine
 10
6878.439999999999
 20
453.4170971548144
 30
0.0
 11
6902.439999999998
 21
446.9864971548121
 31
0.0
  0
LINE
  5
FF9
330
1E
100
AcDbEntity
  8
1
  6
Continuous
370
    13
100
AcDbLine
 10
6838.459000000003
 20
453.4010971548142
 30
0.0
 11
6790.458999999998
 21
453.4010971548142
 31
0.0
  0
LINE
  5
FFA
330
1E
100
AcDbEntity
  8
1
  6
Continuous
370
    13
100
AcDbLine
 10
6814.439999999999
 20
446.9864971548121
 30
0.0
 11
6838.439999999998
 21
453.4170971548144
 31
0.0
  0
LINE
  5
FFB
330
1E
100
AcDbEntity
  8
1
  6
Continuous
370
    13
100
AcDbLine
 10
6838.439999999998
 20
453.4170971548144
 30
0.0
 11
6814.439999999999
 21
459.8478971548122
 31
0.0
  0
TEXT
  5
FFC
330
1E
100
AcDbEntity
  8
1
  6
Continuous
370
    13
100
AcDbText
 10
6810.74782529796
 20
377.4010971548142
 30
0.0
 40
64.0
  1
80
 41
0.875
  7
BIGFONT
100
AcDbText
  0
LINE
  5
FFD
330
1E
100
AcDbEntity
  8
1
  6
Continuous
 62
     1
370
    25
100
AcDbLine
 10
7805.9584
 20
1749.870697154811
 30
0.0
 11
7805.9584
 21
1790.797097154811
 31
0.0
  0
ARC
  5
FFE
330
1E
100
AcDbEntity
  8
1
  6
Continuous
 62
     1
370
    25
100
AcDbCircle
 10
7820.958399999996
 20
1749.870697154811
 30
0.0
 40
15.0
100
AcDbArc
 50
180.0
 51
266.3496800000309
  0
TEXT
  5
FFF
330
1E
100
AcDbEntity
  8
1
  6
Continuous
370
    13
100
AcDbText
 10
7628.8674
 20
1712.913697154813
 30
0.0
 40
64.0
  1
80
 50
90.0
  7
BIGFONT
100
AcDbText
  0
TEXT
  5
1000
330
1E
100
AcDbEntity
  8
1
  6
Continuous
370
    13
100
AcDbText
 10
7649.774999999998
 20
1684.513097154813
 30
0.0
 40
64.0
  1
45
 50
312.0
  7
BIGFONT
100
AcDbText
  0
TEXT
  5
1001
330
1E
100
AcDbEntity
  8
1
  6
Continuous
370
    13
100
AcDbText
 10
7915.696
 20
1801.221097154813
 30
0.0
 40
40.0
  1
Ｒ
  7
BIGFONT
100
AcDbText
  0
TEXT
  5
1002
330
1E
100
AcDbEntity
  8
1
  6
Continuous
370
    13
100
AcDbText
 10
7813.75
 20
1761.582097154813
 30
0.0
 40
64.0
  1
30
  7
BIGFONT
100
AcDbText
  0
TEXT
  5
1003
330
1E
100
AcDbEntity
  8
1
  6
Continuous
370
    13
100
AcDbText
 10
5423.426
 20
965.1100971548126
 30
0.0
 40
72.0
  1
Ｓ
  7
BIGFONT
100
AcDbText
  0
TEXT
  5
1004
330
1E
100
AcDbEntity
  8
1
  6
Continuous
370
    13
100
AcDbText
 10
5477.982
 20
969.6110971548135
 30
0.0
 40
40.0
  1
５
  7
BIGFONT
100
AcDbText
  0
CIRCLE
  5
1005
330
1E
100
AcDbEntity
  8
1
  6
Continuous
 62
     7
370
    13
100
AcDbCircle
 10
5474.007400000002
 20
1001.470097154812
 30
0.0
 40
55.0
  0
LINE
  5
1006
330
1E
100
AcDbEntity
  8
1
  6
Continuous
 62
     7
370
    13
100
AcDbLine
 10
6456.497999999999
 20
945.1066971548147
 30
0.0
 11
7209.8174
 21
945.1066971548147
 31
0.0
  0
TEXT
  5
1007
330
1E
100
AcDbEntity
  8
1
  6
Continuous
370
    13
100
AcDbText
 10
6489.619999999999
 20
960.9516971548144
 30
0.0
 40
72.0
  1
Ｓ
  7
BIGFONT
100
AcDbText
  0
CIRCLE
  5
1008
330
1E
100
AcDbEntity
  8
1
  6
Continuous
 62
     7
370
    13
100
AcDbCircle
 10
6537.887399999999
 20
999.8830971548127
 30
0.0
 40
55.0
  0
CIRCLE
  5
1009
330
1E
100
AcDbEntity
  8
1
  6
Continuous
 62
     7
370
    13
100
AcDbCircle
 10
5453.062399999999
 20
2257.120697154813
 30
0.0
 40
55.0
  0
TEXT
  5
100A
330
1E
100
AcDbEntity
  8
1
  6
Continuous
370
    13
100
AcDbText
 10
5403.900000000001
 20
2219.453097154812
 30
0.0
 40
72.0
  1
Ｓ
  7
BIGFONT
100
AcDbText
  0
TEXT
  5
100B
330
1E
100
AcDbEntity
  8
1
  6
Continuous
370
    13
100
AcDbText
 10
5458.462400000001
 20
2226.322697154813
 30
0.0
 40
40.0
  1
１
  7
BIGFONT
100
AcDbText
  0
LINE
  5
100C
330
1E
100
AcDbEntity
  8
1
  6
Continuous
 62
     7
370
    13
100
AcDbLine
 10
7482.159
 20
2202.191097154812
 30
0.0
 11
8235.478399999999
 21
2202.191097154812
 31
0.0
  0
TEXT
  5
100D
330
1E
100
AcDbEntity
  8
1
  6
Continuous
370
    13
100
AcDbText
 10
7515.478400000001
 20
2220.607697154813
 30
0.0
 40
72.0
  1
Ｓ
  7
BIGFONT
100
AcDbText
  0
CIRCLE
  5
100E
330
1E
100
AcDbEntity
  8
1
  6
Continuous
 62
     7
370
    13
100
AcDbCircle
 10
7563.530400000001
 20
2256.967697154812
 30
0.0
 40
55.0
  0
TEXT
  5
100F
330
1E
100
AcDbEntity
  8
1
  6
Continuous
370
    13
100
AcDbText
 10
7572.472000000002
 20
2225.352697154812
 30
0.0
 40
40.0
  1
４
  7
BIGFONT
100
AcDbText
  0
LINE
  5
1010
330
1E
100
AcDbEntity
  8
1
  6
Continuous
 62
     1
370
    25
100
AcDbLine
 10
6783.490399999999
 20
625.4966971548136
 30
0.0
 11
6838.644400000005
 21
570.3426971548146
 31
0.0
  0
LINE
  5
1011
330
1E
100
AcDbEntity
  8
1
  6
Continuous
370
    13
100
AcDbLine
 10
6668.108400000001
 20
510.1146971548145
 30
0.0
 11
6723.2624
 21
454.9606971548128
 31
0.0
  0
LINE
  5
1012
330
1E
100
AcDbEntity
  8
1
  6
Continuous
370
    13
100
AcDbLine
 10
6824.502199999999
 20
556.2004971548122
 30
0.0
 11
6711.948599999999
 21
443.6468971548123
 31
0.0
  0
LINE
  5
1013
330
1E
100
AcDbEntity
  8
1
  6
Continuous
370
    13
100
AcDbLine
 10
6769.348199999997
 20
611.3544971548095
 30
0.0
 11
6656.794600000001
 21
498.8008971548123
 31
0.0
  0
LINE
  5
1014
330
1E
100
AcDbEntity
  8
1
  6
Continuous
370
    13
100
AcDbLine
 10
6701.742000000002
 20
467.4004971548123
 30
0.0
 11
6723.259999999999
 21
454.9770971548142
 31
0.0
  0
LINE
  5
1015
330
1E
100
AcDbEntity
  8
1
  6
Continuous
370
    13
100
AcDbLine
 10
6723.259999999999
 20
454.9770971548142
 30
0.0
 11
6710.836600000002
 21
476.4950971548143
 31
0.0
  0
LINE
  5
1016
330
1E
100
AcDbEntity
  8
1
  6
Continuous
370
    13
100
AcDbLine
 10
6689.6178
 20
497.6938971548122
 30
0.0
 11
6668.099999999999
 21
510.1170971548123
 31
0.0
  0
LINE
  5
1017
330
1E
100
AcDbEntity
  8
1
  6
Continuous
370
    13
100
AcDbLine
 10
6668.099999999999
 20
510.1170971548123
 30
0.0
 11
6680.5232
 21
488.5992971548143
 31
0.0
  0
TEXT
  5
1018
330
1E
100
AcDbEntity
  8
1
  6
Continuous
370
    13
100
AcDbText
 10
6644.773800000002
 20
550.4198971548126
 30
0.0
 40
64.0
  1
156
 50
315.0
 41
0.875
  7
BIGFONT
100
AcDbText
  0
LINE
  5
1019
330
1E
100
AcDbEntity
  8
1
  6
Continuous
 62
     7
370
    13
100
AcDbLine
 10
5400.560999999998
 20
945.1066971548147
 30
0.0
 11
6153.880400000002
 21
945.1066971548147
 31
0.0
  0
LINE
  5
101A
330
1E
100
AcDbEntity
  8
1
  6
Continuous
 62
     7
370
    13
100
AcDbLine
 10
6456.497999999999
 20
2201.540097154813
 30
0.0
 11
7209.8174
 21
2201.540097154813
 31
0.0
  0
LINE
  5
101B
330
1E
100
AcDbEntity
  8
1
  6
Continuous
 62
     1
370
    25
100
AcDbLine
 10
5742.002000000001
 20
1645.610697154811
 30
0.0
 11
5742.002000000001
 21
1961.010697154812
 31
0.0
  0
LINE
  5
101C
330
1E
100
AcDbEntity
  8
1
  6
Continuous
 62
     1
370
    25
100
AcDbLine
 10
5757.002
 20
1630.610697154812
 30
0.0
 11
5852.502000000001
 21
1630.610697154812
 31
0.0
  0
ARC
  5
101D
330
1E
100
AcDbEntity
  8
1
  6
Continuous
 62
     1
370
    25
100
AcDbCircle
 10
5757.002
 20
1645.610697154811
 30
0.0
 40
15.0
100
AcDbArc
 50
180.0
 51
270.0
  0
ARC
  5
101E
330
1E
100
AcDbEntity
  8
1
  6
Continuous
370
    13
100
AcDbCircle
 10
5757.5324
 20
1645.738697154812
 30
0.0
 40
177.3153999999999
100
AcDbArc
 50
180.0744800000001
 51
270.0
  0
LINE
  5
101F
330
1E
100
AcDbEntity
  8
1
  6
Continuous
370
    13
100
AcDbLine
 10
5757.504399999998
 20
1468.423097154811
 30
0.0
 11
5852.502000000001
 21
1468.423097154811
 31
0.0
  0
LINE
  5
1020
330
1E
100
AcDbEntity
  8
1
  6
Continuous
370
    13
100
AcDbLine
 10
5852.502000000001
 20
1610.610697154812
 30
0.0
 11
5852.502000000001
 21
1452.423097154811
 31
0.0
  0
LINE
  5
1021
330
1E
100
AcDbEntity
  8
1
  6
Continuous
370
    13
100
AcDbLine
 10
5757.504399999998
 20
1625.727697154812
 30
0.0
 11
5757.504399999998
 21
1452.423097154811
 31
0.0
  0
LINE
  5
1022
330
1E
100
AcDbEntity
  8
1
  6
Continuous
370
    13
100
AcDbLine
 10
5828.5
 20
1462.006497154812
 30
0.0
 11
5852.5
 21
1468.437097154812
 31
0.0
  0
LINE
  5
1023
330
1E
100
AcDbEntity
  8
1
  6
Continuous
370
    13
100
AcDbLine
 10
5852.5
 20
1468.437097154812
 30
0.0
 11
5828.5
 21
1474.867897154811
 31
0.0
  0
LINE
  5
1024
330
1E
100
AcDbEntity
  8
1
  6
Continuous
370
    13
100
AcDbLine
 10
5781.5
 20
1474.867897154811
 30
0.0
 11
5757.5
 21
1468.437097154812
 31
0.0
  0
LINE
  5
1025
330
1E
100
AcDbEntity
  8
1
  6
Continuous
370
    13
100
AcDbLine
 10
5757.5
 20
1468.437097154812
 30
0.0
 11
5781.5
 21
1462.006497154812
 31
0.0
  0
TEXT
  5
1026
330
1E
100
AcDbEntity
  8
1
  6
Continuous
370
    13
100
AcDbText
 10
5744.418251466036
 20
1392.423097154813
 30
0.0
 40
64.0
  1
190
 41
0.875
  7
BIGFONT
100
AcDbText
  0
TEXT
  5
1027
330
1E
100
AcDbEntity
  8
1
  6
Continuous
370
    13
100
AcDbText
 10
5852.241999999998
 20
1696.859697154813
 30
0.0
 40
40.0
  1
Ｒ
  7
BIGFONT
100
AcDbText
  0
TEXT
  5
1028
330
1E
100
AcDbEntity
  8
1
  6
Continuous
370
    13
100
AcDbText
 10
5750.295999999998
 20
1657.220697154812
 30
0.0
 40
64.0
  1
30
  7
BIGFONT
100
AcDbText
  0
LINE
  5
1029
330
1E
100
AcDbEntity
  8
1
  6
Continuous
370
    13
100
AcDbLine
 10
5580.217000000001
 20
1645.508097154813
 30
0.0
 11
5590.3934
 21
1621.234097154812
 31
0.0
  0
LINE
  5
102A
330
1E
100
AcDbEntity
  8
1
  6
Continuous
370
    13
100
AcDbLine
 10
5576.110399999998
 20
1619.427097154812
 30
0.0
 11
5580.217000000001
 21
1645.508097154813
 31
0.0
  0
LINE
  5
102B
330
1E
100
AcDbEntity
  8
1
  6
Continuous
370
    13
100
AcDbLine
 10
5732.408000000003
 20
1479.500697154812
 30
0.0
 11
5757.5324
 21
1468.423097154811
 31
0.0
  0
LINE
  5
102C
330
1E
100
AcDbEntity
  8
1
  6
Continuous
370
    13
100
AcDbLine
 10
5731.2804
 20
1464.266097154812
 30
0.0
 11
5757.5324
 21
1468.423097154811
 31
0.0
  0
LINE
  5
102D
330
1E
100
AcDbEntity
  8
1
  6
Continuous
370
    13
100
AcDbLine
 10
5580.217000000001
 20
1645.509097154812
 30
0.0
 11
5580.217000000001
 21
1961.010697154812
 31
0.0
  0
LINE
  5
102E
330
1E
100
AcDbEntity
  8
1
  6
Continuous
370
    13
100
AcDbLine
 10
5722.002
 20
1961.010697154812
 30
0.0
 11
5564.217000000001
 21
1961.010697154812
 31
0.0
  0
LINE
  5
102F
330
1E
100
AcDbEntity
  8
1
  6
Continuous
370
    13
100
AcDbLine
 10
5732.3904
 20
1645.509097154812
 30
0.0
 11
5564.217000000001
 21
1645.509097154812
 31
0.0
  0
LINE
  5
1030
330
1E
100
AcDbEntity
  8
1
  6
Continuous
370
    13
100
AcDbLine
 10
5586.630599999996
 20
1937.017097154813
 30
0.0
 11
5580.200000000001
 21
1961.017097154813
 31
0.0
  0
LINE
  5
1031
330
1E
100
AcDbEntity
  8
1
  6
Continuous
370
    13
100
AcDbLine
 10
5580.200000000001
 20
1961.017097154813
 30
0.0
 11
5573.769199999999
 21
1937.017097154813
 31
0.0
  0
LINE
  5
1032
330
1E
100
AcDbEntity
  8
1
  6
Continuous
370
    13
100
AcDbLine
 10
5573.769199999999
 20
1669.517097154813
 30
0.0
 11
5580.200000000001
 21
1645.517097154813
 31
0.0
  0
LINE
  5
1033
330
1E
100
AcDbEntity
  8
1
  6
Continuous
370
    13
100
AcDbLine
 10
5580.200000000001
 20
1645.517097154813
 30
0.0
 11
5586.630599999996
 21
1669.517097154813
 31
0.0
  0
TEXT
  5
1034
330
1E
100
AcDbEntity
  8
1
  6
Continuous
370
    13
100
AcDbText
 10
5568.217
 20
1719.259897154813
 30
0.0
 40
64.0
  1
631
 50
90.0
 41
0.875
  7
BIGFONT
100
AcDbText
  0
LINE
  5
1035
330
1E
100
AcDbEntity
  8
1
  6
Continuous
370
    13
100
AcDbLine
 10
5757.504399999998
 20
1615.138097154811
 30
0.0
 11
5757.504399999998
 21
1645.509097154812
 31
0.0
  0
LINE
  5
1036
330
1E
100
AcDbEntity
  8
1
  6
Continuous
370
    13
100
AcDbLine
 10
5718.404999999999
 20
1645.509097154812
 30
0.0
 11
5757.504399999998
 21
1645.509097154812
 31
0.0
  0
TEXT
  5
1037
330
1E
100
AcDbEntity
  8
1
  6
Continuous
370
    13
100
AcDbText
 10
5594.450000000001
 20
1576.133697154812
 30
0.0
 40
64.0
  1
48
 50
315.0
  7
BIGFONT
100
AcDbText
  0
ARC
  5
1038
330
1E
100
AcDbEntity
  8
1
  6
Continuous
370
    13
100
AcDbCircle
 10
5705.631400000002
 20
1665.301097154813
 30
0.0
 40
236.0739999999998
100
AcDbArc
 50
1.274415699999208
 51
20.94441699995196
  0
ARC
  5
1039
330
1E
100
AcDbEntity
  8
1
  6
Continuous
370
    13
100
AcDbCircle
 10
5776.904999999999
 20
1636.395097154811
 30
0.0
 40
236.0739999999998
100
AcDbArc
 50
66.21623199995837
 51
90.91102099999854
  0
LINE
  5
103A
330
1E
100
AcDbEntity
  8
1
  6
Continuous
370
    13
100
AcDbLine
 10
5941.647000000001
 20
1670.551697154813
 30
0.0
 11
5947.051
 21
1694.340097154812
 31
0.0
  0
LINE
  5
103B
330
1E
100
AcDbEntity
  8
1
  6
Continuous
370
    13
100
AcDbLine
 10
5935.043000000002
 20
1693.443097154812
 30
0.0
 11
5941.647000000001
 21
1670.551697154813
 31
0.0
  0
LINE
  5
103C
330
1E
100
AcDbEntity
  8
1
  6
Continuous
370
    13
100
AcDbLine
 10
5773.151400000003
 20
1872.439697154812
 30
0.0
 11
5795.826000000001
 21
1878.695097154812
 31
0.0
  0
LINE
  5
103D
330
1E
100
AcDbEntity
  8
1
  6
Continuous
370
    13
100
AcDbLine
 10
5773.151400000003
 20
1872.439697154812
 30
0.0
 11
5796.2494
 21
1866.302097154812
 31
0.0
  0
TEXT
  5
103E
330
1E
100
AcDbEntity
  8
1
  6
Continuous
370
    13
100
AcDbText
 10
5861.211400000001
 20
1771.79869715481
 30
0.0
 40
64.0
  1
90°
  7
BIGFONT
100
AcDbText
  0
LINE
  5
103F
330
1E
100
AcDbEntity
  8
1
  6
Continuous
 62
     1
370
    25
100
AcDbLine
 10
6816.319400000001
 20
1695.532697154813
 30
0.0
 11
6816.319400000001
 21
1828.432697154812
 31
0.0
  0
LINE
  5
1040
330
1E
100
AcDbEntity
  8
1
  6
Continuous
 62
     1
370
    25
100
AcDbLine
 10
6831.319400000001
 20
1680.532697154813
 30
0.0
 11
6926.819400000001
 21
1680.532697154813
 31
0.0
  0
ARC
  5
1041
330
1E
100
AcDbEntity
  8
1
  6
Continuous
 62
     1
370
    25
100
AcDbCircle
 10
6831.319400000001
 20
1695.532697154813
 30
0.0
 40
15.0
100
AcDbArc
 50
180.0
 51
270.0
  0
ARC
  5
1042
330
1E
100
AcDbEntity
  8
1
  6
Continuous
370
    13
100
AcDbCircle
 10
6831.849999999999
 20
1695.660697154812
 30
0.0
 40
177.3153999999999
100
AcDbArc
 50
180.0744800000001
 51
270.0
  0
LINE
  5
1043
330
1E
100
AcDbEntity
  8
1
  6
Continuous
370
    13
100
AcDbLine
 10
6831.821999999997
 20
1518.345097154813
 30
0.0
 11
6926.819400000001
 21
1518.345097154813
 31
0.0
  0
LINE
  5
1044
330
1E
100
AcDbEntity
  8
1
  6
Continuous
370
    13
100
AcDbLine
 10
6926.819400000001
 20
1660.532697154813
 30
0.0
 11
6926.819400000001
 21
1502.345097154813
 31
0.0
  0
LINE
  5
1045
330
1E
100
AcDbEntity
  8
1
  6
Continuous
370
    13
100
AcDbLine
 10
6831.821999999997
 20
1675.649697154812
 30
0.0
 11
6831.821999999997
 21
1502.345097154813
 31
0.0
  0
LINE
  5
1046
330
1E
100
AcDbEntity
  8
1
  6
Continuous
370
    13
100
AcDbLine
 10
6902.799999999999
 20
1511.926497154812
 30
0.0
 11
6926.8
 21
1518.357097154811
 31
0.0
  0
LINE
  5
1047
330
1E
100
AcDbEntity
  8
1
  6
Continuous
370
    13
100
AcDbLine
 10
6926.8
 20
1518.357097154811
 30
0.0
 11
6902.799999999999
 21
1524.787897154812
 31
0.0
  0
LINE
  5
1048
330
1E
100
AcDbEntity
  8
1
  6
Continuous
370
    13
100
AcDbLine
 10
6855.820000000004
 20
1524.787897154812
 30
0.0
 11
6831.82
 21
1518.357097154811
 31
0.0
  0
LINE
  5
1049
330
1E
100
AcDbEntity
  8
1
  6
Continuous
370
    13
100
AcDbLine
 10
6831.82
 20
1518.357097154811
 30
0.0
 11
6855.820000000004
 21
1511.926497154812
 31
0.0
  0
TEXT
  5
104A
330
1E
100
AcDbEntity
  8
1
  6
Continuous
370
    13
100
AcDbText
 10
6818.735651466035
 20
1442.345097154812
 30
0.0
 40
64.0
  1
190
 41
0.875
  7
BIGFONT
100
AcDbText
  0
TEXT
  5
104B
330
1E
100
AcDbEntity
  8
1
  6
Continuous
370
    13
100
AcDbText
 10
6926.559399999998
 20
1746.781697154812
 30
0.0
 40
40.0
  1
Ｒ
  7
BIGFONT
100
AcDbText
  0
TEXT
  5
104C
330
1E
100
AcDbEntity
  8
1
  6
Continuous
370
    13
100
AcDbText
 10
6824.613399999998
 20
1707.142697154813
 30
0.0
 40
64.0
  1
30
  7
BIGFONT
100
AcDbText
  0
LINE
  5
104D
330
1E
100
AcDbEntity
  8
1
  6
Continuous
370
    13
100
AcDbLine
 10
6654.5344
 20
1695.430097154812
 30
0.0
 11
6664.711
 21
1671.156097154813
 31
0.0
  0
LINE
  5
104E
330
1E
100
AcDbEntity
  8
1
  6
Continuous
370
    13
100
AcDbLine
 10
6650.427999999999
 20
1669.349097154812
 30
0.0
 11
6654.5344
 21
1695.430097154812
 31
0.0
  0
LINE
  5
104F
330
1E
100
AcDbEntity
  8
1
  6
Continuous
370
    13
100
AcDbLine
 10
6806.725399999999
 20
1529.422697154813
 30
0.0
 11
6831.849999999999
 21
1518.345097154813
 31
0.0
  0
LINE
  5
1050
330
1E
100
AcDbEntity
  8
1
  6
Continuous
370
    13
100
AcDbLine
 10
6805.597999999998
 20
1514.188097154812
 30
0.0
 11
6831.849999999999
 21
1518.345097154813
 31
0.0
  0
LINE
  5
1051
330
1E
100
AcDbEntity
  8
1
  6
Continuous
370
    13
100
AcDbLine
 10
6654.5344
 20
1695.431097154812
 30
0.0
 11
6654.5344
 21
1828.432697154812
 31
0.0
  0
LINE
  5
1052
330
1E
100
AcDbEntity
  8
1
  6
Continuous
370
    13
100
AcDbLine
 10
6796.3194
 20
1828.432697154812
 30
0.0
 11
6638.534400000001
 21
1828.432697154812
 31
0.0
  0
LINE
  5
1053
330
1E
100
AcDbEntity
  8
1
  6
Continuous
370
    13
100
AcDbLine
 10
6806.708000000002
 20
1695.431097154812
 30
0.0
 11
6638.534400000001
 21
1695.431097154812
 31
0.0
  0
LINE
  5
1054
330
1E
100
AcDbEntity
  8
1
  6
Continuous
370
    13
100
AcDbLine
 10
6660.950599999999
 20
1804.437097154812
 30
0.0
 11
6654.520000000001
 21
1828.437097154813
 31
0.0
  0
LINE
  5
1055
330
1E
100
AcDbEntity
  8
1
  6
Continuous
370
    13
100
AcDbLine
 10
6654.520000000001
 20
1828.437097154813
 30
0.0
 11
6648.089200000002
 21
1804.437097154812
 31
0.0
  0
LINE
  5
1056
330
1E
100
AcDbEntity
  8
1
  6
Continuous
370
    13
100
AcDbLine
 10
6648.089200000002
 20
1719.437097154812
 30
0.0
 11
6654.520000000001
 21
1695.437097154813
 31
0.0
  0
LINE
  5
1057
330
1E
100
AcDbEntity
  8
1
  6
Continuous
370
    13
100
AcDbLine
 10
6654.520000000001
 20
1695.437097154813
 30
0.0
 11
6660.950599999999
 21
1719.437097154812
 31
0.0
  0
TEXT
  5
1058
330
1E
100
AcDbEntity
  8
1
  6
Continuous
370
    13
100
AcDbText
 10
6642.534399999997
 20
1677.931897154813
 30
0.0
 40
64.0
  1
266
 50
90.0
 41
0.875
  7
BIGFONT
100
AcDbText
  0
LINE
  5
1059
330
1E
100
AcDbEntity
  8
1
  6
Continuous
370
    13
100
AcDbLine
 10
6831.821999999997
 20
1665.060097154812
 30
0.0
 11
6831.821999999997
 21
1695.431097154812
 31
0.0
  0
LINE
  5
105A
330
1E
100
AcDbEntity
  8
1
  6
Continuous
370
    13
100
AcDbLine
 10
6792.722399999999
 20
1695.431097154812
 30
0.0
 11
6831.821999999997
 21
1695.431097154812
 31
0.0
  0
TEXT
  5
105B
330
1E
100
AcDbEntity
  8
1
  6
Continuous
370
    13
100
AcDbText
 10
6668.767399999997
 20
1626.055697154813
 30
0.0
 40
64.0
  1
48
 50
315.0
  7
BIGFONT
100
AcDbText
  0
ARC
  5
105C
330
1E
100
AcDbEntity
  8
1
  6
Continuous
370
    13
100
AcDbCircle
 10
6777.449
 20
1707.723097154813
 30
0.0
 40
236.0739999999998
100
AcDbArc
 50
1.274415699999208
 51
20.94441699995196
  0
ARC
  5
105D
330
1E
100
AcDbEntity
  8
1
  6
Continuous
370
    13
100
AcDbCircle
 10
6848.722399999998
 20
1678.817097154812
 30
0.0
 40
236.0739999999998
100
AcDbArc
 50
66.21623199995837
 51
90.91102099999854
  0
LINE
  5
105E
330
1E
100
AcDbEntity
  8
1
  6
Continuous
370
    13
100
AcDbLine
 10
7013.464400000001
 20
1712.973697154813
 30
0.0
 11
7018.868399999999
 21
1736.762097154812
 31
0.0
  0
LINE
  5
105F
330
1E
100
AcDbEntity
  8
1
  6
Continuous
370
    13
100
AcDbLine
 10
7006.860399999998
 20
1735.865097154812
 30
0.0
 11
7013.464400000001
 21
1712.973697154813
 31
0.0
  0
LINE
  5
1060
330
1E
100
AcDbEntity
  8
1
  6
Continuous
370
    13
100
AcDbLine
 10
6844.969000000002
 20
1914.861697154812
 30
0.0
 11
6867.643400000002
 21
1921.117097154813
 31
0.0
  0
LINE
  5
1061
330
1E
100
AcDbEntity
  8
1
  6
Continuous
370
    13
100
AcDbLine
 10
6844.969000000002
 20
1914.861697154812
 30
0.0
 11
6868.066999999999
 21
1908.724097154813
 31
0.0
  0
TEXT
  5
1062
330
1E
100
AcDbEntity
  8
1
  6
Continuous
370
    13
100
AcDbText
 10
6933.028999999999
 20
1814.220697154812
 30
0.0
 40
64.0
  1
90°
  7
BIGFONT
100
AcDbText
  0
LINE
  5
1063
330
1E
100
AcDbEntity
  8
1
  6
Continuous
370
    13
100
AcDbLine
 10
7104.024000000001
 20
570.3426971548146
 30
0.0
 11
7104.024000000001
 21
625.4966971548136
 31
0.0
  0
LINE
  5
1064
330
1E
100
AcDbEntity
  8
1
  6
Continuous
370
    13
100
AcDbLine
 10
6803.490400000002
 20
625.4966971548136
 30
0.0
 11
7120.024
 21
625.4966971548136
 31
0.0
  0
LINE
  5
1065
330
1E
100
AcDbEntity
  8
1
  6
Continuous
370
    13
100
AcDbLine
 10
6898.644400000001
 20
570.3426971548146
 30
0.0
 11
7120.024
 21
570.3426971548146
 31
0.0
  0
LINE
  5
1066
330
1E
100
AcDbEntity
  8
1
  6
Continuous
370
    13
100
AcDbLine
 10
7110.4506
 20
601.4970971548115
 30
0.0
 11
7104.019999999997
 21
625.4970971548146
 31
0.0
  0
LINE
  5
1067
330
1E
100
AcDbEntity
  8
1
  6
Continuous
370
    13
100
AcDbLine
 10
7104.019999999997
 20
625.4970971548146
 30
0.0
 11
7097.589200000003
 21
601.4970971548115
 31
0.0
  0
LINE
  5
1068
330
1E
100
AcDbEntity
  8
1
  6
Continuous
370
    13
100
AcDbLine
 10
7097.589200000003
 20
594.3570971548142
 30
0.0
 11
7104.019999999997
 21
570.3570971548125
 31
0.0
  0
LINE
  5
1069
330
1E
100
AcDbEntity
  8
1
  6
Continuous
370
    13
100
AcDbLine
 10
7104.019999999997
 20
570.3570971548125
 30
0.0
 11
7110.4506
 21
594.3570971548142
 31
0.0
  0
TEXT
  5
106A
330
1E
100
AcDbEntity
  8
1
  6
Continuous
370
    13
100
AcDbText
 10
7092.024000000002
 20
544.2839628485063
 30
0.0
 40
64.0
  1
110
 50
90.0
 41
0.875
  7
BIGFONT
100
AcDbText
  0
LINE
  5
106B
330
1E
100
AcDbEntity
  8
1
  6
Continuous
 62
     7
370
    13
100
AcDbLine
 10
5363.5226
 20
2202.191097154812
 30
0.0
 11
6116.841999999997
 21
2202.191097154812
 31
0.0
  0
TEXT
  5
106C
330
1E
100
AcDbEntity
  8
1
  6
Continuous
370
    13
100
AcDbText
 10
5548.3014
 20
2220.689097154813
 30
0.0
 40
64.0
  1
8-D10×870
  7
BIGFONT
100
AcDbText
  0
TEXT
  5
106D
330
1E
100
AcDbEntity
  8
1
  6
Continuous
370
    13
100
AcDbText
 10
6632.951999999997
 20
2220.461697154813
 30
0.0
 40
64.0
  1
2-D10×510
  7
BIGFONT
100
AcDbText
  0
TEXT
  5
106E
330
1E
100
AcDbEntity
  8
1
  6
Continuous
370
    13
100
AcDbText
 10
7654.469399999998
 20
2220.866697154812
 30
0.0
 40
64.0
  1
8-D10×530
  7
BIGFONT
100
AcDbText
  0
TEXT
  5
106F
330
1E
100
AcDbEntity
  8
1
  6
Continuous
370
    13
100
AcDbText
 10
5565.969000000001
 20
961.7450971548144
 30
0.0
 40
64.0
  1
2-D10×320
  7
BIGFONT
100
AcDbText
  0
TEXT
  5
1070
330
1E
100
AcDbEntity
  8
1
  6
Continuous
370
    13
100
AcDbText
 10
6630.341399999998
 20
962.5210971548115
 30
0.0
 40
64.0
  1
8-D10×320
  7
BIGFONT
100
AcDbText
  0
TEXT
  5
1071
330
1E
100
AcDbEntity
  8
1
  6
Continuous
370
    13
100
AcDbText
 10
6542.965000000001
 20
966.2246971548146
 30
0.0
 40
40.0
  1
６
  7
BIGFONT
100
AcDbText
  0
LINE
  5
1072
330
1E
100
AcDbEntity
  8
1
  6
Continuous
 62
     7
370
    13
100
AcDbLine
 10
7819.867999999998
 20
1734.910097154813
 30
0.0
 11
7820.003399999997
 21
1734.901097154813
 31
0.0
  0
LINE
  5
1073
330
1E
100
AcDbEntity
  8
1
  6
Continuous
 62
     1
370
    25
100
AcDbLine
 10
7819.867999999998
 20
1734.910097154813
 30
0.0
 11
8019.209399999997
 21
1718.696697154812
 31
0.0
  0
LINE
  5
1074
330
1E
100
AcDbEntity
  8
1
  6
Continuous
370
    13
100
AcDbLine
 10
7806.366399999999
 20
1567.238697154812
 30
0.0
 11
8005.572399999996
 21
1551.035897154812
 31
0.0
  0
LINE
  5
1075
330
1E
100
AcDbEntity
  8
1
  6
Continuous
370
    13
100
AcDbLine
 10
8017.588000000003
 20
1698.762497154811
 30
0.0
 11
8004.275399999999
 21
1535.088697154811
 31
0.0
  0
LINE
  5
1076
330
1E
100
AcDbEntity
  8
1
  6
Continuous
370
    13
100
AcDbLine
 10
7818.381999999998
 20
1714.967097154812
 30
0.0
 11
7805.0694
 21
1551.291297154812
 31
0.0
  0
LINE
  5
1077
330
1E
100
AcDbEntity
  8
1
  6
Continuous
370
    13
100
AcDbLine
 10
7981.117599999997
 20
1546.573297154813
 30
0.0
 11
8005.559999999999
 21
1551.037097154813
 31
0.0
  0
LINE
  5
1078
330
1E
100
AcDbEntity
  8
1
  6
Continuous
370
    13
100
AcDbLine
 10
8005.559999999999
 20
1551.037097154813
 30
0.0
 11
7982.160199999999
 21
1559.392497154812
 31
0.0
  0
LINE
  5
1079
330
1E
100
AcDbEntity
  8
1
  6
Continuous
370
    13
100
AcDbLine
 10
7830.802199999998
 20
1571.721097154813
 30
0.0
 11
7806.360000000001
 21
1567.257097154812
 31
0.0
  0
LINE
  5
107A
330
1E
100
AcDbEntity
  8
1
  6
Continuous
370
    13
100
AcDbLine
 10
7806.360000000001
 20
1567.257097154812
 30
0.0
 11
7829.759599999999
 21
1558.901897154813
 31
0.0
  0
TEXT
  5
107B
330
1E
100
AcDbEntity
  8
1
  6
Continuous
370
    13
100
AcDbText
 10
7823.218799999999
 20
1577.907697154812
 30
0.0
 40
64.0
  1
400
 50
355.35
 41
0.875
  7
BIGFONT
100
AcDbText
  0
ARC
  5
107C
330
1E
100
AcDbEntity
  8
1
  6
Continuous
370
    13
100
AcDbCircle
 10
7820.958399999996
 20
1749.870697154811
 30
0.0
 40
183.2359999999999
100
AcDbArc
 50
180.0
 51
265.3927300000158
  0
TEXT
  5
107D
330
1E
100
AcDbEntity
  8
1
  6
Continuous
370
    13
100
AcDbText
 10
7870.114
 20
1871.794097154813
 30
0.0
 40
64.0
  1
94°39′
  7
BIGFONT
100
AcDbText
  0
LINE
  5
107E
330
1E
100
AcDbEntity
  8
1
  6
Continuous
370
    13
100
AcDbLine
 10
5555.7254
 20
561.7836971548146
 30
0.0
 11
5560.576000000001
 21
586.1940971548142
 31
0.0
  0
LINE
  5
107F
330
1E
100
AcDbEntity
  8
1
  6
Continuous
370
    13
100
AcDbLine
 10
5560.576000000001
 20
586.1940971548142
 30
0.0
 11
5569.441000000002
 21
562.0366971548145
 31
0.0
  0
LINE
  5
1080
330
1E
100
AcDbEntity
  8
1
  6
Continuous
370
    13
100
AcDbLine
 10
5704.502400000001
 20
414.5076971548129
 30
0.0
 11
5729.1574
 21
403.5506971548125
 31
0.0
  0
LINE
  5
1081
330
1E
100
AcDbEntity
  8
1
  6
Continuous
370
    13
100
AcDbLine
 10
5704.705000000002
 20
400.3876971548164
 30
0.0
 11
5729.1574
 21
403.5506971548125
 31
0.0
  0
LINE
  5
1082
330
1E
100
AcDbEntity
  8
1
  6
Continuous
370
    13
100
AcDbLine
 10
5546.463
 20
626.1940971548137
 30
0.0
 11
5711.614399999998
 21
626.1940971548137
 31
0.0
  0
LINE
  5
1083
330
1E
100
AcDbEntity
  8
1
  6
Continuous
370
    13
100
AcDbLine
 10
5545.774999999998
 20
586.1940971548142
 30
0.0
 11
5743.877000000001
 21
586.1940971548142
 31
0.0
  0
LINE
  5
1084
330
1E
100
AcDbEntity
  8
1
  6
Continuous
370
    13
100
AcDbLine
 10
5554.735
 20
586.1940971548142
 30
0.0
 11
5566.756399999999
 21
586.1940971548142
 31
0.0
  0
ARC
  5
1085
330
1E
100
AcDbEntity
  8
1
  6
Continuous
370
    13
100
AcDbCircle
 10
5743.877000000001
 20
586.1940971548142
 30
0.0
 40
183.2359999999999
100
AcDbArc
 50
180.0
 51
266.2406600000094
  0
LINE
  5
1086
330
1E
100
AcDbEntity
  8
1
  6
Continuous
370
    13
100
AcDbLine
 10
5560.576000000001
 20
586.1940971548142
 30
0.0
 11
5560.576000000001
 21
626.1940971548137
 31
0.0
  0
LINE
  5
1087
330
1E
100
AcDbEntity
  8
1
  6
Continuous
370
    13
100
AcDbLine
 10
5560.635000000002
 20
680.7156971548105
 30
0.0
 11
5560.576000000001
 21
626.1940971548137
 31
0.0
  0
LINE
  5
1088
330
1E
100
AcDbEntity
  8
1
  6
Continuous
370
    13
100
AcDbLine
 10
5554.154999999998
 20
650.2040971548137
 30
0.0
 11
5560.560000000002
 21
626.1970971548127
 31
0.0
  0
LINE
  5
1089
330
1E
100
AcDbEntity
  8
1
  6
Continuous
370
    13
100
AcDbLine
 10
5560.560000000002
 20
626.1970971548127
 30
0.0
 11
5567.016599999999
 21
650.1902971548146
 31
0.0
  0
ARC
  5
108A
330
1E
100
AcDbEntity
  8
1
  6
Continuous
370
    13
100
AcDbCircle
 10
5707.32
 20
597.3806971548169
 30
0.0
 40
236.0739999999998
100
AcDbArc
 50
357.2745099999926
 51
16.94442700003894
  0
ARC
  5
108B
330
1E
100
AcDbEntity
  8
1
  6
Continuous
370
    13
100
AcDbCircle
 10
5753.580000000002
 20
590.3866971548145
 30
0.0
 40
236.0739999999998
100
AcDbArc
 50
66.21623199995837
 51
90.91102099999854
  0
LINE
  5
108C
330
1E
100
AcDbEntity
  8
1
  6
Continuous
370
    13
100
AcDbLine
 10
5943.127
 20
586.1550971548125
 30
0.0
 11
5950.177400000001
 21
609.5086971548125
 31
0.0
  0
LINE
  5
108D
330
1E
100
AcDbEntity
  8
1
  6
Continuous
370
    13
100
AcDbLine
 10
5938.135999999999
 20
609.4510971548116
 30
0.0
 11
5943.127
 21
586.1550971548125
 31
0.0
  0
LINE
  5
108E
330
1E
100
AcDbEntity
  8
1
  6
Continuous
370
    13
100
AcDbLine
 10
5749.826399999999
 20
826.4310971548146
 30
0.0
 11
5772.501
 21
832.6866971548167
 31
0.0
  0
LINE
  5
108F
330
1E
100
AcDbEntity
  8
1
  6
Continuous
370
    13
100
AcDbLine
 10
5749.826399999999
 20
826.4310971548146
 30
0.0
 11
5772.9244
 21
820.2936971548124
 31
0.0
  0
LINE
  5
1090
330
1E
100
AcDbEntity
  8
1
  6
Continuous
370
    13
100
AcDbLine
 10
5740.965400000001
 20
546.2570971548126
 30
0.0
 11
5743.877000000001
 21
586.1940971548142
 31
0.0
  0
LINE
  5
1091
330
1E
100
AcDbEntity
  8
1
  6
Continuous
 62
     1
370
    25
100
AcDbLine
 10
5728.877
 20
586.1940971548142
 30
0.0
 11
5728.877
 21
627.1206971548137
 31
0.0
  0
ARC
  5
1092
330
1E
100
AcDbEntity
  8
1
  6
Continuous
 62
     1
370
    25
100
AcDbCircle
 10
5743.877000000001
 20
586.1940971548142
 30
0.0
 40
15.0
100
AcDbArc
 50
180.0
 51
266.3496800000309
  0
TEXT
  5
1093
330
1E
100
AcDbEntity
  8
1
  6
Continuous
370
    13
100
AcDbText
 10
5543.034141769993
 20
557.9808694461542
 30
0.0
 40
64.0
  1
80
 50
90.0
  7
BIGFONT
100
AcDbText
  0
TEXT
  5
1094
330
1E
100
AcDbEntity
  8
1
  6
Continuous
370
    13
100
AcDbText
 10
5572.6934
 20
520.8366971548145
 30
0.0
 40
64.0
  1
45
 50
312.0
  7
BIGFONT
100
AcDbText
  0
TEXT
  5
1095
330
1E
100
AcDbEntity
  8
1
  6
Continuous
370
    13
100
AcDbText
 10
5838.614399999999
 20
637.5446971548136
 30
0.0
 40
40.0
  1
Ｒ
  7
BIGFONT
100
AcDbText
  0
TEXT
  5
1096
330
1E
100
AcDbEntity
  8
1
  6
Continuous
370
    13
100
AcDbText
 10
5736.668399999999
 20
597.905697154817
 30
0.0
 40
64.0
  1
30
  7
BIGFONT
100
AcDbText
  0
LINE
  5
1097
330
1E
100
AcDbEntity
  8
1
  6
Continuous
 62
     1
370
    25
100
AcDbLine
 10
5742.786399999997
 20
571.2336971548129
 30
0.0
 11
5742.921999999999
 21
571.2246971548129
 31
0.0
  0
ARC
  5
1098
330
1E
100
AcDbEntity
  8
1
  6
Continuous
370
    13
100
AcDbCircle
 10
5743.877000000001
 20
586.1940971548142
 30
0.0
 40
183.2359999999999
100
AcDbArc
 50
180.0
 51
265.3927300000158
  0
TEXT
  5
1099
330
1E
100
AcDbEntity
  8
1
  6
Continuous
370
    13
100
AcDbText
 10
5793.0324
 20
708.1176971548146
 30
0.0
 40
64.0
  1
94°39′
  7
BIGFONT
100
AcDbText
  0
LINE
  5
109A
330
1E
100
AcDbEntity
  8
1
  6
Continuous
 62
     1
370
    25
100
AcDbLine
 10
5742.786399999997
 20
571.2336971548129
 30
0.0
 11
5837.474000000002
 21
563.5320971548146
 31
0.0
  0
LINE
  5
109B
330
1E
100
AcDbEntity
  8
1
  6
Continuous
370
    13
100
AcDbLine
 10
5729.1734
 20
403.5030971548145
 30
0.0
 11
5823.8622
 21
395.8180971548129
 31
0.0
  0
LINE
  5
109C
330
1E
100
AcDbEntity
  8
1
  6
Continuous
370
    13
100
AcDbLine
 10
5835.855999999999
 20
543.5976971548142
 30
0.0
 11
5822.567800000001
 21
379.8706971548126
 31
0.0
  0
LINE
  5
109D
330
1E
100
AcDbEntity
  8
1
  6
Continuous
370
    13
100
AcDbLine
 10
5741.168600000001
 20
551.299297154817
 30
0.0
 11
5727.879000000001
 21
387.555697154813
 31
0.0
  0
LINE
  5
109E
330
1E
100
AcDbEntity
  8
1
  6
Continuous
370
    13
100
AcDbLine
 10
5799.418399999999
 20
391.3688971548123
 30
0.0
 11
5823.86
 21
395.8370971548124
 31
0.0
  0
LINE
  5
109F
330
1E
100
AcDbEntity
  8
1
  6
Continuous
370
    13
100
AcDbLine
 10
5823.86
 20
395.8370971548124
 30
0.0
 11
5800.458800000001
 21
404.1882971548126
 31
0.0
  0
LINE
  5
10A0
330
1E
100
AcDbEntity
  8
1
  6
Continuous
370
    13
100
AcDbLine
 10
5753.601399999999
 20
407.9854971548143
 30
0.0
 11
5729.16
 21
403.5170971548143
 31
0.0
  0
LINE
  5
10A1
330
1E
100
AcDbEntity
  8
1
  6
Continuous
370
    13
100
AcDbLine
 10
5729.16
 20
403.5170971548143
 30
0.0
 11
5752.560999999998
 21
395.1660971548126
 31
0.0
  0
TEXT
  5
10A2
330
1E
100
AcDbEntity
  8
1
  6
Continuous
370
    13
100
AcDbText
 10
5702.398277837215
 20
330.7048971548123
 30
0.0
 40
64.0
  1
190
 50
355.37
 41
0.875
  7
BIGFONT
100
AcDbText
  0
TEXT
  5
10A3
330
1E
100
AcDbEntity
  8
0
  6
Continuous
370
    13
100
AcDbText
 10
4862.767999999999
 20
5131.499999999999
 30
0.0
 40
72.0
  1
Ｓ
  7
BIGFONT
100
AcDbText
  0
TEXT
  5
10A4
330
1E
100
AcDbEntity
  8
0
  6
Continuous
370
    13
100
AcDbText
 10
5009.542000000001
 20
5132.703000000001
 30
0.0
 40
64.0
  1
D10
  7
BIGFONT
100
AcDbText
  0
LINE
  5
10A5
330
1E
100
AcDbEntity
  8
0
  6
Continuous
370
    13
100
AcDbLine
 10
1285.135
 20
3459.784999999999
 30
0.0
 11
1285.135
 21
2987.381
 31
0.0
  0
LINE
  5
10A6
330
1E
100
AcDbEntity
  8
0
  6
Continuous
370
    13
100
AcDbLine
 10
1278.709400000001
 20
3011.385999999999
 30
0.0
 11
1285.139999999999
 21
2987.385999999999
 31
0.0
  0
LINE
  5
10A7
330
1E
100
AcDbEntity
  8
0
  6
Continuous
370
    13
100
AcDbLine
 10
1285.139999999999
 20
2987.385999999999
 30
0.0
 11
1291.570800000001
 21
3011.385999999999
 31
0.0
  0
LINE
  5
10A8
330
1E
100
AcDbEntity
  8
0
  6
Continuous
370
    13
100
AcDbLine
 10
1400.518000000002
 20
3459.776999999998
 30
0.0
 11
1400.518000000002
 21
3182.718
 31
0.0
  0
LINE
  5
10A9
330
1E
100
AcDbEntity
  8
0
  6
Continuous
370
    13
100
AcDbLine
 10
1394.089400000001
 20
3206.725999999998
 30
0.0
 11
1400.52
 21
3182.726000000001
 31
0.0
  0
LINE
  5
10AA
330
1E
100
AcDbEntity
  8
0
  6
Continuous
370
    13
100
AcDbLine
 10
1400.52
 20
3182.726000000001
 30
0.0
 11
1406.950799999999
 21
3206.725999999998
 31
0.0
  0
LINE
  5
10AB
330
1E
100
AcDbEntity
  8
0
  6
Continuous
370
    13
100
AcDbLine
 10
1400.518000000002
 20
3459.776999999998
 30
0.0
 11
1804.395000000002
 21
3459.776999999998
 31
0.0
  0
LINE
  5
10AC
330
1E
100
AcDbEntity
  8
0
  6
Continuous
 62
     7
370
    13
100
AcDbLine
 10
2842.500000000002
 20
5479.815999999999
 30
0.0
 11
2842.500000000002
 21
5669.816
 31
0.0
  0
LINE
  5
10AD
330
1E
100
AcDbEntity
  8
0
  6
Continuous
 62
     1
370
    25
100
AcDbLine
 10
4732.5
 20
5479.815999999999
 30
0.0
 11
4732.5
 21
5669.816
 31
0.0
  0
LINE
  5
10AE
330
1E
100
AcDbEntity
  8
0
  6
Continuous
 62
     1
370
    25
100
AcDbLine
 10
2842.500000000002
 20
5018.816
 30
0.0
 11
2842.500000000002
 21
5309.816000000001
 31
0.0
  0
LINE
  5
10AF
330
1E
100
AcDbEntity
  8
0
  6
Continuous
 62
     1
370
    25
100
AcDbLine
 10
4732.5
 20
5018.816
 30
0.0
 11
4732.5
 21
5309.816000000001
 31
0.0
  0
LINE
  5
10B0
330
1E
100
AcDbEntity
  8
0
  6
Continuous
 62
     1
370
    25
100
AcDbLine
 10
4637.5
 20
5018.816
 30
0.0
 11
4637.5
 21
5669.816
 31
0.0
  0
LINE
  5
10B1
330
1E
100
AcDbEntity
  8
0
  6
Continuous
 62
     1
370
    25
100
AcDbLine
 10
2937.5
 20
5018.816
 30
0.0
 11
2937.5
 21
5669.816
 31
0.0
  0
LINE
  5
10B2
330
1E
100
AcDbEntity
  8
0
  6
Continuous
370
    13
100
AcDbLine
 10
2842.815000000001
 20
4623.719
 30
0.0
 11
2937.5
 21
4623.719
 31
0.0
  0
LINE
  5
10B3
330
1E
100
AcDbEntity
  8
0
  6
Continuous
370
    13
100
AcDbLine
 10
2937.5
 20
4953.815999999998
 30
0.0
 11
2937.5
 21
4607.718999999999
 31
0.0
  0
LINE
  5
10B4
330
1E
100
AcDbEntity
  8
0
  6
Continuous
370
    13
100
AcDbLine
 10
2842.815000000001
 20
4623.719
 30
0.0
 11
2842.815000000001
 21
4623.719
 31
0.0
  0
LINE
  5
10B5
330
1E
100
AcDbEntity
  8
0
  6
Continuous
370
    13
100
AcDbLine
 10
2913.5
 20
4617.2752
 30
0.0
 11
2937.5
 21
4623.706
 31
0.0
  0
LINE
  5
10B6
330
1E
100
AcDbEntity
  8
0
  6
Continuous
370
    13
100
AcDbLine
 10
2937.5
 20
4623.706
 30
0.0
 11
2913.5
 21
4630.1366
 31
0.0
  0
LINE
  5
10B7
330
1E
100
AcDbEntity
  8
0
  6
Continuous
370
    13
100
AcDbLine
 10
2866.82
 20
4630.1366
 30
0.0
 11
2842.82
 21
4623.706
 31
0.0
  0
LINE
  5
10B8
330
1E
100
AcDbEntity
  8
0
  6
Continuous
370
    13
100
AcDbLine
 10
2842.82
 20
4623.706
 30
0.0
 11
2866.82
 21
4617.2752
 31
0.0
  0
TEXT
  5
10B9
330
1E
100
AcDbEntity
  8
0
  6
Continuous
370
    13
100
AcDbText
 10
2839.757600000001
 20
4635.719
 30
0.0
 40
64.0
  1
95
 41
0.875
  7
BIGFONT
100
AcDbText
  0
LINE
  5
10BA
330
1E
100
AcDbEntity
  8
0
  6
Continuous
370
    13
100
AcDbLine
 10
2937.5
 20
4623.719
 30
0.0
 11
3037.5
 21
4623.719
 31
0.0
  0
LINE
  5
10BB
330
1E
100
AcDbEntity
  8
0
  6
Continuous
370
    13
100
AcDbLine
 10
3037.5
 20
4953.815999999998
 30
0.0
 11
3037.5
 21
4607.718999999999
 31
0.0
  0
LINE
  5
10BC
330
1E
100
AcDbEntity
  8
0
  6
Continuous
370
    13
100
AcDbLine
 10
3013.5
 20
4617.2752
 30
0.0
 11
3037.5
 21
4623.706
 31
0.0
  0
LINE
  5
10BD
330
1E
100
AcDbEntity
  8
0
  6
Continuous
370
    13
100
AcDbLine
 10
3037.5
 20
4623.706
 30
0.0
 11
3013.5
 21
4630.1366
 31
0.0
  0
LINE
  5
10BE
330
1E
100
AcDbEntity
  8
0
  6
Continuous
370
    13
100
AcDbLine
 10
2961.5
 20
4630.1366
 30
0.0
 11
2937.5
 21
4623.706
 31
0.0
  0
LINE
  5
10BF
330
1E
100
AcDbEntity
  8
0
  6
Continuous
370
    13
100
AcDbLine
 10
2937.5
 20
4623.706
 30
0.0
 11
2961.5
 21
4617.2752
 31
0.0
  0
TEXT
  5
10C0
330
1E
100
AcDbEntity
  8
0
  6
Continuous
370
    13
100
AcDbText
 10
2903.500000000002
 20
4547.718999999999
 30
0.0
 40
64.0
  1
100
 41
0.875
  7
BIGFONT
100
AcDbText
  0
LINE
  5
10C1
330
1E
100
AcDbEntity
  8
0
  6
Continuous
370
    13
100
AcDbLine
 10
3037.5
 20
4623.719
 30
0.0
 11
4537.5
 21
4623.719
 31
0.0
  0
LINE
  5
10C2
330
1E
100
AcDbEntity
  8
0
  6
Continuous
370
    13
100
AcDbLine
 10
4537.5
 20
4953.815999999998
 30
0.0
 11
4537.5
 21
4607.718999999999
 31
0.0
  0
LINE
  5
10C3
330
1E
100
AcDbEntity
  8
0
  6
Continuous
370
    13
100
AcDbLine
 10
4585.5
 20
4623.719
 30
0.0
 11
4537.5
 21
4623.719
 31
0.0
  0
LINE
  5
10C4
330
1E
100
AcDbEntity
  8
0
  6
Continuous
370
    13
100
AcDbLine
 10
4561.5
 20
4630.1366
 30
0.0
 11
4537.5
 21
4623.706
 31
0.0
  0
LINE
  5
10C5
330
1E
100
AcDbEntity
  8
0
  6
Continuous
370
    13
100
AcDbLine
 10
4537.5
 20
4623.706
 30
0.0
 11
4561.5
 21
4617.2752
 31
0.0
  0
TEXT
  5
10C6
330
1E
100
AcDbEntity
  8
0
  6
Continuous
370
    13
100
AcDbText
 10
3507.5
 20
4635.719
 30
0.0
 40
64.0
  1
5×300=1500
 41
0.875
  7
BIGFONT
100
AcDbText
  0
LINE
  5
10C7
330
1E
100
AcDbEntity
  8
0
  6
Continuous
370
    13
100
AcDbLine
 10
4537.5
 20
4623.719
 30
0.0
 11
4637.5
 21
4623.719
 31
0.0
  0
LINE
  5
10C8
330
1E
100
AcDbEntity
  8
0
  6
Continuous
370
    13
100
AcDbLine
 10
4637.5
 20
4953.815999999998
 30
0.0
 11
4637.5
 21
4607.718999999999
 31
0.0
  0
LINE
  5
10C9
330
1E
100
AcDbEntity
  8
0
  6
Continuous
370
    13
100
AcDbLine
 10
4613.5
 20
4617.2752
 30
0.0
 11
4637.5
 21
4623.706
 31
0.0
  0
LINE
  5
10CA
330
1E
100
AcDbEntity
  8
0
  6
Continuous
370
    13
100
AcDbLine
 10
4637.5
 20
4623.706
 30
0.0
 11
4613.5
 21
4630.1366
 31
0.0
  0
LINE
  5
10CB
330
1E
100
AcDbEntity
  8
0
  6
Continuous
370
    13
100
AcDbLine
 10
4537.5
 20
4623.719
 30
0.0
 11
4489.5
 21
4623.719
 31
0.0
  0
TEXT
  5
10CC
330
1E
100
AcDbEntity
  8
0
  6
Continuous
370
    13
100
AcDbText
 10
4503.5
 20
4547.718999999999
 30
0.0
 40
64.0
  1
100
 41
0.875
  7
BIGFONT
100
AcDbText
  0
LINE
  5
10CD
330
1E
100
AcDbEntity
  8
0
  6
Continuous
370
    13
100
AcDbLine
 10
4637.5
 20
4623.719
 30
0.0
 11
4733.637999999999
 21
4623.719
 31
0.0
  0
LINE
  5
10CE
330
1E
100
AcDbEntity
  8
0
  6
Continuous
370
    13
100
AcDbLine
 10
4733.637999999999
 20
4623.719
 30
0.0
 11
4733.637999999999
 21
4623.719
 31
0.0
  0
LINE
  5
10CF
330
1E
100
AcDbEntity
  8
0
  6
Continuous
370
    13
100
AcDbLine
 10
4709.639999999999
 20
4617.2752
 30
0.0
 11
4733.64
 21
4623.706
 31
0.0
  0
LINE
  5
10D0
330
1E
100
AcDbEntity
  8
0
  6
Continuous
370
    13
100
AcDbLine
 10
4733.64
 20
4623.706
 30
0.0
 11
4709.639999999999
 21
4630.1366
 31
0.0
  0
LINE
  5
10D1
330
1E
100
AcDbEntity
  8
0
  6
Continuous
370
    13
100
AcDbLine
 10
4661.5
 20
4630.1366
 30
0.0
 11
4637.5
 21
4623.706
 31
0.0
  0
LINE
  5
10D2
330
1E
100
AcDbEntity
  8
0
  6
Continuous
370
    13
100
AcDbLine
 10
4637.5
 20
4623.706
 30
0.0
 11
4661.5
 21
4617.2752
 31
0.0
  0
TEXT
  5
10D3
330
1E
100
AcDbEntity
  8
0
  6
Continuous
370
    13
100
AcDbText
 10
4629.568999999999
 20
4635.719
 30
0.0
 40
64.0
  1
95
 41
0.875
  7
BIGFONT
100
AcDbText
  0
LINE
  5
10D4
330
1E
100
AcDbEntity
  8
0
  6
Continuous
370
    13
100
AcDbLine
 10
3037.5
 20
5273.096
 30
0.0
 11
2937.5
 21
5273.096
 31
0.0
  0
LINE
  5
10D5
330
1E
100
AcDbEntity
  8
0
  6
Continuous
370
    13
100
AcDbLine
 10
2961.5
 20
5279.516600000001
 30
0.0
 11
2937.5
 21
5273.086000000001
 31
0.0
  0
LINE
  5
10D6
330
1E
100
AcDbEntity
  8
0
  6
Continuous
370
    13
100
AcDbLine
 10
2937.5
 20
5273.086000000001
 30
0.0
 11
2961.5
 21
5266.655199999999
 31
0.0
  0
LINE
  5
10D7
330
1E
100
AcDbEntity
  8
0
  6
Continuous
370
    13
100
AcDbLine
 10
4732.5
 20
5273.096
 30
0.0
 11
4637.5
 21
5273.096
 31
0.0
  0
LINE
  5
10D8
330
1E
100
AcDbEntity
  8
0
  6
Continuous
370
    13
100
AcDbLine
 10
4661.5
 20
5279.516600000001
 30
0.0
 11
4637.5
 21
5273.086000000001
 31
0.0
  0
LINE
  5
10D9
330
1E
100
AcDbEntity
  8
0
  6
Continuous
370
    13
100
AcDbLine
 10
4637.5
 20
5273.086000000001
 30
0.0
 11
4661.5
 21
5266.655199999999
 31
0.0
  0
LINE
  5
10DA
330
1E
100
AcDbEntity
  8
0
  6
Continuous
370
    13
100
AcDbLine
 10
3153.581000000002
 20
4623.719
 30
0.0
 11
3037.5
 21
4623.719
 31
0.0
  0
LINE
  5
10DB
330
1E
100
AcDbEntity
  8
0
  6
Continuous
370
    13
100
AcDbLine
 10
3061.5
 20
4630.1366
 30
0.0
 11
3037.5
 21
4623.706
 31
0.0
  0
LINE
  5
10DC
330
1E
100
AcDbEntity
  8
0
  6
Continuous
370
    13
100
AcDbLine
 10
3037.5
 20
4623.706
 30
0.0
 11
3061.5
 21
4617.2752
 31
0.0
  0
LINE
  5
10DD
330
1E
100
AcDbEntity
  8
0
  6
Continuous
370
    13
100
AcDbLine
 10
4377.661999999999
 20
4623.719
 30
0.0
 11
4537.5
 21
4623.719
 31
0.0
  0
LINE
  5
10DE
330
1E
100
AcDbEntity
  8
0
  6
Continuous
370
    13
100
AcDbLine
 10
4513.499999999999
 20
4617.2752
 30
0.0
 11
4537.5
 21
4623.706
 31
0.0
  0
LINE
  5
10DF
330
1E
100
AcDbEntity
  8
0
  6
Continuous
370
    13
100
AcDbLine
 10
4537.5
 20
4623.706
 30
0.0
 11
4513.499999999999
 21
4630.1366
 31
0.0
  0
LINE
  5
10E0
330
1E
100
AcDbEntity
  8
0
  6
Continuous
370
    13
100
AcDbLine
 10
2034.329000000002
 20
1290.556999999998
 30
0.0
 11
2034.329000000002
 21
1385.557
 31
0.0
  0
LINE
  5
10E1
330
1E
100
AcDbEntity
  8
0
  6
Continuous
370
    13
100
AcDbLine
 10
1704.329
 20
1385.557
 30
0.0
 11
2050.329
 21
1385.557
 31
0.0
  0
LINE
  5
10E2
330
1E
100
AcDbEntity
  8
0
  6
Continuous
370
    13
100
AcDbLine
 10
2034.329000000002
 20
1290.556999999998
 30
0.0
 11
2034.329000000002
 21
1290.556999999998
 31
0.0
  0
LINE
  5
10E3
330
1E
100
AcDbEntity
  8
0
  6
Continuous
370
    13
100
AcDbLine
 10
2034.329000000002
 20
1433.557
 30
0.0
 11
2034.329000000002
 21
1385.557
 31
0.0
  0
LINE
  5
10E4
330
1E
100
AcDbEntity
  8
0
  6
Continuous
370
    13
100
AcDbLine
 10
2027.9094
 20
1409.566000000001
 30
0.0
 11
2034.34
 21
1385.566000000001
 31
0.0
  0
LINE
  5
10E5
330
1E
100
AcDbEntity
  8
0
  6
Continuous
370
    13
100
AcDbLine
 10
2034.34
 20
1385.566000000001
 30
0.0
 11
2040.770799999998
 21
1409.566000000001
 31
0.0
  0
LINE
  5
10E6
330
1E
100
AcDbEntity
  8
0
  6
Continuous
370
    13
100
AcDbLine
 10
2027.9094
 20
1314.566000000002
 30
0.0
 11
2034.34
 21
1290.566000000001
 31
0.0
  0
LINE
  5
10E7
330
1E
100
AcDbEntity
  8
0
  6
Continuous
370
    13
100
AcDbLine
 10
2034.34
 20
1290.566000000001
 30
0.0
 11
2040.770799999998
 21
1314.566000000002
 31
0.0
  0
TEXT
  5
10E8
330
1E
100
AcDbEntity
  8
0
  6
Continuous
370
    13
100
AcDbText
 10
2022.329
 20
1282.057000000004
 30
0.0
 40
64.0
  1
95
 50
90.0
 41
0.875
  7
BIGFONT
100
AcDbText
  0
LINE
  5
10E9
330
1E
100
AcDbEntity
  8
0
  6
Continuous
370
    13
100
AcDbLine
 10
2034.329000000002
 20
1385.557
 30
0.0
 11
2034.329000000002
 21
1485.557
 31
0.0
  0
LINE
  5
10EA
330
1E
100
AcDbEntity
  8
0
  6
Continuous
370
    13
100
AcDbLine
 10
1704.329
 20
1485.557
 30
0.0
 11
2050.329
 21
1485.557
 31
0.0
  0
LINE
  5
10EB
330
1E
100
AcDbEntity
  8
0
  6
Continuous
370
    13
100
AcDbLine
 10
2040.770799999998
 20
1461.566000000002
 30
0.0
 11
2034.34
 21
1485.566000000002
 31
0.0
  0
LINE
  5
10EC
330
1E
100
AcDbEntity
  8
0
  6
Continuous
370
    13
100
AcDbLine
 10
2034.34
 20
1485.566000000002
 30
0.0
 11
2027.9094
 21
1461.566000000002
 31
0.0
  0
LINE
  5
10ED
330
1E
100
AcDbEntity
  8
0
  6
Continuous
370
    13
100
AcDbLine
 10
2034.329000000002
 20
1385.557
 30
0.0
 11
2034.329000000002
 21
1337.557000000001
 31
0.0
  0
LINE
  5
10EE
330
1E
100
AcDbEntity
  8
0
  6
Continuous
370
    13
100
AcDbLine
 10
2040.770799999998
 20
1361.566000000002
 30
0.0
 11
2034.34
 21
1385.566000000001
 31
0.0
  0
LINE
  5
10EF
330
1E
100
AcDbEntity
  8
0
  6
Continuous
370
    13
100
AcDbLine
 10
2034.34
 20
1385.566000000001
 30
0.0
 11
2027.9094
 21
1361.566000000002
 31
0.0
  0
TEXT
  5
10F0
330
1E
100
AcDbEntity
  8
0
  6
Continuous
370
    13
100
AcDbText
 10
2110.329
 20
1351.556999999999
 30
0.0
 40
64.0
  1
100
 50
90.0
 41
0.875
  7
BIGFONT
100
AcDbText
  0
LINE
  5
10F1
330
1E
100
AcDbEntity
  8
0
  6
Continuous
 62
     1
370
    25
100
AcDbLine
 10
1209.329000000001
 20
3087.705
 30
0.0
 11
1629.329
 21
3087.705
 31
0.0
  0
LINE
  5
10F2
330
1E
100
AcDbEntity
  8
0
  6
Continuous
 62
     1
370
    25
100
AcDbLine
 10
1210.127
 20
1385.557
 30
0.0
 11
1420.126999999999
 21
1385.557
 31
0.0
  0
LINE
  5
10F3
330
1E
100
AcDbEntity
  8
0
  6
Continuous
370
    13
100
AcDbLine
 10
1285.135
 20
3182.704999999999
 30
0.0
 11
1285.135
 21
3087.705
 31
0.0
  0
LINE
  5
10F4
330
1E
100
AcDbEntity
  8
0
  6
Continuous
370
    13
100
AcDbLine
 10
1278.709400000001
 20
3111.706
 30
0.0
 11
1285.139999999999
 21
3087.705999999999
 31
0.0
  0
LINE
  5
10F5
330
1E
100
AcDbEntity
  8
0
  6
Continuous
370
    13
100
AcDbLine
 10
1285.139999999999
 20
3087.705999999999
 30
0.0
 11
1291.570800000001
 21
3111.706
 31
0.0
  0
LINE
  5
10F6
330
1E
100
AcDbEntity
  8
0
  6
Continuous
370
    13
100
AcDbLine
 10
1374.864999999998
 20
1290.556999999998
 30
0.0
 11
1374.864999999998
 21
1385.557
 31
0.0
  0
LINE
  5
10F7
330
1E
100
AcDbEntity
  8
0
  6
Continuous
370
    13
100
AcDbLine
 10
1381.310800000001
 20
1361.566000000002
 30
0.0
 11
1374.880000000001
 21
1385.566000000001
 31
0.0
  0
LINE
  5
10F8
330
1E
100
AcDbEntity
  8
0
  6
Continuous
370
    13
100
AcDbLine
 10
1374.880000000001
 20
1385.566000000001
 30
0.0
 11
1368.449400000001
 21
1361.566000000002
 31
0.0
  0
LINE
  5
10F9
330
1E
100
AcDbEntity
  8
0
  6
Continuous
370
    13
100
AcDbLine
 10
2184.329000000003
 20
2987.705
 30
0.0
 11
2184.329000000003
 21
3087.705
 31
0.0
  0
LINE
  5
10FA
330
1E
100
AcDbEntity
  8
0
  6
Continuous
370
    13
100
AcDbLine
 10
1704.329
 20
3087.705
 30
0.0
 11
2200.328999999999
 21
3087.705
 31
0.0
  0
LINE
  5
10FB
330
1E
100
AcDbEntity
  8
0
  6
Continuous
370
    13
100
AcDbLine
 10
1704.329
 20
2987.705
 30
0.0
 11
2200.328999999999
 21
2987.705
 31
0.0
  0
LINE
  5
10FC
330
1E
100
AcDbEntity
  8
0
  6
Continuous
370
    13
100
AcDbLine
 10
2190.770799999999
 20
3063.706
 30
0.0
 11
2184.34
 21
3087.705999999999
 31
0.0
  0
LINE
  5
10FD
330
1E
100
AcDbEntity
  8
0
  6
Continuous
370
    13
100
AcDbLine
 10
2184.34
 20
3087.705999999999
 30
0.0
 11
2177.909399999998
 21
3063.706
 31
0.0
  0
LINE
  5
10FE
330
1E
100
AcDbEntity
  8
0
  6
Continuous
370
    13
100
AcDbLine
 10
2177.909399999998
 20
3011.706
 30
0.0
 11
2184.34
 21
2987.706
 31
0.0
  0
LINE
  5
10FF
330
1E
100
AcDbEntity
  8
0
  6
Continuous
370
    13
100
AcDbLine
 10
2184.34
 20
2987.706
 30
0.0
 11
2190.770799999999
 21
3011.706
 31
0.0
  0
TEXT
  5
1100
330
1E
100
AcDbEntity
  8
0
  6
Continuous
370
    13
100
AcDbText
 10
2260.328999999998
 20
2953.705
 30
0.0
 40
64.0
  1
100
 50
90.0
 41
0.875
  7
BIGFONT
100
AcDbText
  0
LINE
  5
1101
330
1E
100
AcDbEntity
  8
0
  6
Continuous
370
    13
100
AcDbLine
 10
2184.329000000003
 20
3087.705
 30
0.0
 11
2184.329000000003
 21
3182.704999999999
 31
0.0
  0
LINE
  5
1102
330
1E
100
AcDbEntity
  8
0
  6
Continuous
370
    13
100
AcDbLine
 10
1704.329
 20
3182.704999999999
 30
0.0
 11
2200.328999999999
 21
3182.704999999999
 31
0.0
  0
LINE
  5
1103
330
1E
100
AcDbEntity
  8
0
  6
Continuous
370
    13
100
AcDbLine
 10
2190.770799999999
 20
3158.706
 30
0.0
 11
2184.34
 21
3182.706
 31
0.0
  0
LINE
  5
1104
330
1E
100
AcDbEntity
  8
0
  6
Continuous
370
    13
100
AcDbLine
 10
2184.34
 20
3182.706
 30
0.0
 11
2177.909399999998
 21
3158.706
 31
0.0
  0
LINE
  5
1105
330
1E
100
AcDbEntity
  8
0
  6
Continuous
370
    13
100
AcDbLine
 10
2177.909399999998
 20
3111.706
 30
0.0
 11
2184.34
 21
3087.705999999999
 31
0.0
  0
LINE
  5
1106
330
1E
100
AcDbEntity
  8
0
  6
Continuous
370
    13
100
AcDbLine
 10
2184.34
 20
3087.705999999999
 30
0.0
 11
2190.770799999999
 21
3111.706
 31
0.0
  0
TEXT
  5
1107
330
1E
100
AcDbEntity
  8
0
  6
Continuous
370
    13
100
AcDbText
 10
2172.329
 20
3079.205
 30
0.0
 40
64.0
  1
95
 50
90.0
 41
0.875
  7
BIGFONT
100
AcDbText
  0
LINE
  5
1108
330
1E
100
AcDbEntity
  8
0
  6
Continuous
370
    13
100
AcDbLine
 10
2334.329000000002
 20
1238.225999999999
 30
0.0
 11
2334.329000000002
 21
1290.556999999998
 31
0.0
  0
LINE
  5
1109
330
1E
100
AcDbEntity
  8
0
  6
Continuous
370
    13
100
AcDbLine
 10
1704.329
 20
1290.556999999998
 30
0.0
 11
2350.329
 21
1290.556999999998
 31
0.0
  0
LINE
  5
110A
330
1E
100
AcDbEntity
  8
0
  6
Continuous
370
    13
100
AcDbLine
 10
1704.329
 20
1238.225999999999
 30
0.0
 11
2350.329
 21
1238.225999999999
 31
0.0
  0
LINE
  5
110B
330
1E
100
AcDbEntity
  8
0
  6
Continuous
370
    13
100
AcDbLine
 10
2334.329000000002
 20
1338.557000000002
 30
0.0
 11
2334.329000000002
 21
1290.556999999998
 31
0.0
  0
LINE
  5
110C
330
1E
100
AcDbEntity
  8
0
  6
Continuous
370
    13
100
AcDbLine
 10
2327.909399999999
 20
1314.566000000002
 30
0.0
 11
2334.340000000002
 21
1290.566000000001
 31
0.0
  0
LINE
  5
110D
330
1E
100
AcDbEntity
  8
0
  6
Continuous
370
    13
100
AcDbLine
 10
2334.340000000002
 20
1290.566000000001
 30
0.0
 11
2340.770799999999
 21
1314.566000000002
 31
0.0
  0
LINE
  5
110E
330
1E
100
AcDbEntity
  8
0
  6
Continuous
370
    13
100
AcDbLine
 10
2334.329000000002
 20
1238.225999999999
 30
0.0
 11
2334.329000000002
 21
1190.226
 31
0.0
  0
LINE
  5
110F
330
1E
100
AcDbEntity
  8
0
  6
Continuous
370
    13
100
AcDbLine
 10
2340.770799999999
 20
1214.225999999999
 30
0.0
 11
2334.340000000002
 21
1238.225999999999
 31
0.0
  0
LINE
  5
1110
330
1E
100
AcDbEntity
  8
0
  6
Continuous
370
    13
100
AcDbLine
 10
2334.340000000002
 20
1238.225999999999
 30
0.0
 11
2327.909399999999
 21
1214.225999999999
 31
0.0
  0
LINE
  5
1111
330
1E
100
AcDbEntity
  8
0
  6
Continuous
370
    13
100
AcDbLine
 10
2334.329000000002
 20
1190.226
 30
0.0
 11
2334.329000000002
 21
1008.626
 31
0.0
  0
TEXT
  5
1112
330
1E
100
AcDbEntity
  8
0
  6
Continuous
370
    13
100
AcDbText
 10
2322.329
 20
1008.626
 30
0.0
 40
64.0
  1
52.5
 50
90.0
 41
0.875
  7
BIGFONT
100
AcDbText
  0
LINE
  5
1113
330
1E
100
AcDbEntity
  8
0
  6
Continuous
370
    13
100
AcDbLine
 10
2334.329000000002
 20
1290.556999999998
 30
0.0
 11
2334.329000000002
 21
3182.704999999999
 31
0.0
  0
LINE
  5
1114
330
1E
100
AcDbEntity
  8
0
  6
Continuous
370
    13
100
AcDbLine
 10
1704.329
 20
3182.704999999999
 30
0.0
 11
2350.329
 21
3182.704999999999
 31
0.0
  0
LINE
  5
1115
330
1E
100
AcDbEntity
  8
0
  6
Continuous
370
    13
100
AcDbLine
 10
2340.770799999999
 20
3158.706
 30
0.0
 11
2334.340000000002
 21
3182.706
 31
0.0
  0
LINE
  5
1116
330
1E
100
AcDbEntity
  8
0
  6
Continuous
370
    13
100
AcDbLine
 10
2334.340000000002
 20
3182.706
 30
0.0
 11
2327.909399999999
 21
3158.706
 31
0.0
  0
TEXT
  5
1117
330
1E
100
AcDbEntity
  8
0
  6
Continuous
370
    13
100
AcDbText
 10
2322.329
 20
2130.231
 30
0.0
 40
64.0
  1
1890
 50
90.0
 41
0.875
  7
BIGFONT
100
AcDbText
  0
LINE
  5
1118
330
1E
100
AcDbEntity
  8
0
  6
Continuous
370
    13
100
AcDbLine
 10
2334.329000000002
 20
3182.704999999999
 30
0.0
 11
2334.329000000002
 21
3227.226
 31
0.0
  0
LINE
  5
1119
330
1E
100
AcDbEntity
  8
0
  6
Continuous
370
    13
100
AcDbLine
 10
1704.329
 20
3227.226
 30
0.0
 11
2350.329
 21
3227.226
 31
0.0
  0
LINE
  5
111A
330
1E
100
AcDbEntity
  8
0
  6
Continuous
370
    13
100
AcDbLine
 10
2334.329000000002
 20
3275.226
 30
0.0
 11
2334.329000000002
 21
3227.226
 31
0.0
  0
LINE
  5
111B
330
1E
100
AcDbEntity
  8
0
  6
Continuous
370
    13
100
AcDbLine
 10
2327.909399999999
 20
3251.226000000001
 30
0.0
 11
2334.340000000002
 21
3227.226
 31
0.0
  0
LINE
  5
111C
330
1E
100
AcDbEntity
  8
0
  6
Continuous
370
    13
100
AcDbLine
 10
2334.340000000002
 20
3227.226
 30
0.0
 11
2340.770799999999
 21
3251.226000000001
 31
0.0
  0
LINE
  5
111D
330
1E
100
AcDbEntity
  8
0
  6
Continuous
370
    13
100
AcDbLine
 10
2334.329000000002
 20
3182.704999999999
 30
0.0
 11
2334.329000000002
 21
3134.704999999999
 31
0.0
  0
LINE
  5
111E
330
1E
100
AcDbEntity
  8
0
  6
Continuous
370
    13
100
AcDbLine
 10
2334.329000000002
 20
3275.226
 30
0.0
 11
2334.329000000002
 21
3473.626
 31
0.0
  0
TEXT
  5
111F
330
1E
100
AcDbEntity
  8
0
  6
Continuous
370
    13
100
AcDbText
 10
2322.329
 20
3249.626
 30
0.0
 40
64.0
  1
52.5
 50
90.0
 41
0.875
  7
BIGFONT
100
AcDbText
  0
LINE
  5
1120
330
1E
100
AcDbEntity
  8
0
  6
Continuous
370
    13
100
AcDbLine
 10
2034.329000000002
 20
1485.557
 30
0.0
 11
2034.329000000002
 21
1385.557
 31
0.0
  0
LINE
  5
1121
330
1E
100
AcDbEntity
  8
0
  6
Continuous
370
    13
100
AcDbLine
 10
2027.9094
 20
1409.566000000001
 30
0.0
 11
2034.34
 21
1385.566000000001
 31
0.0
  0
LINE
  5
1122
330
1E
100
AcDbEntity
  8
0
  6
Continuous
370
    13
100
AcDbLine
 10
2034.34
 20
1385.566000000001
 30
0.0
 11
2040.770799999998
 21
1409.566000000001
 31
0.0
  0
LINE
  5
1123
330
1E
100
AcDbEntity
  8
0
  6
CENTER
 48
0.5
370
    13
100
AcDbLine
 10
8525.674999999999
 20
5473.279999999999
 30
0.0
 11
8714.200000000001
 21
5473.279999999999
 31
0.0
  0
LINE
  5
1124
330
1E
100
AcDbEntity
  8
0
  6
HIDDEN
370
    13
100
AcDbLine
 10
6186.116999999999
 20
5511.213999999998
 30
0.0
 11
6306.116999999998
 21
5511.213999999998
 31
0.0
  0
LINE
  5
1125
330
1E
100
AcDbEntity
  8
0
  6
HIDDEN
370
    13
100
AcDbLine
 10
6186.116999999999
 20
5436.214
 30
0.0
 11
6307.680000000001
 21
5436.214
 31
0.0
  0
LINE
  5
1126
330
1E
100
AcDbEntity
  8
0
  6
Continuous
370
    13
100
AcDbLine
 10
6268.185999999998
 20
5473.714000000001
 30
0.0
 11
6368.993999999998
 21
5473.714000000001
 31
0.0
  0
LINE
  5
1127
330
1E
100
AcDbEntity
  8
0
  6
CENTER
 48
0.5
370
    13
100
AcDbLine
 10
9575.674999999995
 20
5473.279999999999
 30
0.0
 11
9764.200000000005
 21
5473.279999999999
 31
0.0
  0
LINE
  5
1128
330
1E
100
AcDbEntity
  8
0
  6
CENTER
 48
0.5
370
    13
100
AcDbLine
 10
9662.461000000003
 20
5379.279999999997
 30
0.0
 11
9662.461000000003
 21
5567.280000000002
 31
0.0
  0
LINE
  5
1129
330
1E
100
AcDbEntity
  8
0
  6
CENTER
 48
0.5
370
    13
100
AcDbLine
 10
8612.461000000003
 20
5379.279999999997
 30
0.0
 11
8612.461000000003
 21
5567.280000000002
 31
0.0
  0
CIRCLE
  5
112A
330
1E
100
AcDbEntity
  8
0
  6
Continuous
370
    13
100
AcDbCircle
 10
9662.461000000003
 20
5473.279999999999
 30
0.0
 40
37.5
  0
CIRCLE
  5
112B
330
1E
100
AcDbEntity
  8
0
  6
Continuous
370
    13
100
AcDbCircle
 10
8612.461000000003
 20
5473.279999999999
 30
0.0
 40
37.5
  0
LINE
  5
112C
330
1E
100
AcDbEntity
  8
0
  6
Continuous
370
    13
100
AcDbLine
 10
8634.777000000003
 20
5442.143999999999
 30
0.0
 11
8740.459999999998
 21
5271.296
 31
0.0
  0
LINE
  5
112D
330
1E
100
AcDbEntity
  8
0
  6
Continuous
370
    13
100
AcDbLine
 10
8652.854599999999
 20
5425.0982
 30
0.0
 11
8634.760000000003
 21
5442.126
 31
0.0
  0
LINE
  5
112E
330
1E
100
AcDbEntity
  8
0
  6
Continuous
370
    13
100
AcDbLine
 10
8634.760000000003
 20
5442.126
 30
0.0
 11
8641.916400000003
 21
5418.3322
 31
0.0
  0
LINE
  5
112F
330
1E
100
AcDbEntity
  8
0
  6
Continuous
370
    13
100
AcDbLine
 10
8740.459999999998
 20
5271.296
 30
0.0
 11
9238.747407597076
 21
5271.296
 31
0.0
  0
TEXT
  5
1130
330
1E
100
AcDbEntity
  8
0
  6
Continuous
370
    13
100
AcDbText
 10
8740.459999999998
 20
5283.296
 30
0.0
 40
64.0
  1
2-φ75水抜穴
 41
0.875
  7
BIGFONT
100
AcDbText
  0
LINE
  5
1131
330
1E
100
AcDbEntity
  8
0
  6
Continuous
370
    13
100
AcDbLine
 10
7889.961000000003
 20
4973.714000000001
 30
0.0
 11
7889.961000000003
 21
5473.714000000001
 31
0.0
  0
LINE
  5
1132
330
1E
100
AcDbEntity
  8
0
  6
Continuous
370
    13
100
AcDbLine
 10
8499.821999999999
 20
5473.714000000001
 30
0.0
 11
7873.961
 21
5473.714000000001
 31
0.0
  0
LINE
  5
1133
330
1E
100
AcDbEntity
  8
0
  6
Continuous
370
    13
100
AcDbLine
 10
8131.961
 20
4973.714000000001
 30
0.0
 11
7873.961
 21
4973.714000000001
 31
0.0
  0
LINE
  5
1134
330
1E
100
AcDbEntity
  8
0
  6
Continuous
370
    13
100
AcDbLine
 10
7896.3906
 20
5449.706
 30
0.0
 11
7889.959999999999
 21
5473.705999999999
 31
0.0
  0
LINE
  5
1135
330
1E
100
AcDbEntity
  8
0
  6
Continuous
370
    13
100
AcDbLine
 10
7889.959999999999
 20
5473.705999999999
 30
0.0
 11
7883.529200000001
 21
5449.706
 31
0.0
  0
LINE
  5
1136
330
1E
100
AcDbEntity
  8
0
  6
Continuous
370
    13
100
AcDbLine
 10
7883.529200000001
 20
4997.706
 30
0.0
 11
7889.959999999999
 21
4973.705999999999
 31
0.0
  0
LINE
  5
1137
330
1E
100
AcDbEntity
  8
0
  6
Continuous
370
    13
100
AcDbLine
 10
7889.959999999999
 20
4973.705999999999
 30
0.0
 11
7896.3906
 21
4997.706
 31
0.0
  0
TEXT
  5
1138
330
1E
100
AcDbEntity
  8
0
  6
Continuous
370
    13
100
AcDbText
 10
7877.960999999996
 20
5139.713999999997
 30
0.0
 40
64.0
  1
500
 50
90.0
 41
0.875
  7
BIGFONT
100
AcDbText
  0
LINE
  5
1139
330
1E
100
AcDbEntity
  8
0
  6
Continuous
370
    13
100
AcDbLine
 10
7889.961000000003
 20
5473.714000000001
 30
0.0
 11
7889.961000000003
 21
5723.714000000001
 31
0.0
  0
LINE
  5
113A
330
1E
100
AcDbEntity
  8
0
  6
Continuous
370
    13
100
AcDbLine
 10
8119.961000000003
 20
5723.714000000001
 30
0.0
 11
7873.961
 21
5723.714000000001
 31
0.0
  0
LINE
  5
113B
330
1E
100
AcDbEntity
  8
0
  6
Continuous
370
    13
100
AcDbLine
 10
7896.3906
 20
5699.706
 30
0.0
 11
7889.959999999999
 21
5723.705999999999
 31
0.0
  0
LINE
  5
113C
330
1E
100
AcDbEntity
  8
0
  6
Continuous
370
    13
100
AcDbLine
 10
7889.959999999999
 20
5723.705999999999
 30
0.0
 11
7883.529200000001
 21
5699.706
 31
0.0
  0
LINE
  5
113D
330
1E
100
AcDbEntity
  8
0
  6
Continuous
370
    13
100
AcDbLine
 10
7883.529200000001
 20
5497.706
 30
0.0
 11
7889.959999999999
 21
5473.705999999999
 31
0.0
  0
LINE
  5
113E
330
1E
100
AcDbEntity
  8
0
  6
Continuous
370
    13
100
AcDbLine
 10
7889.959999999999
 20
5473.705999999999
 30
0.0
 11
7896.3906
 21
5497.706
 31
0.0
  0
TEXT
  5
113F
330
1E
100
AcDbEntity
  8
0
  6
Continuous
370
    13
100
AcDbText
 10
7877.960999999996
 20
5514.713999999997
 30
0.0
 40
64.0
  1
250
 50
90.0
 41
0.875
  7
BIGFONT
100
AcDbText
  0
LINE
  5
1140
330
1E
100
AcDbEntity
  8
0
  6
Continuous
370
    13
100
AcDbLine
 10
8139.961000000004
 20
4473.714
 30
0.0
 11
8612.461000000003
 21
4473.714
 31
0.0
  0
LINE
  5
1141
330
1E
100
AcDbEntity
  8
0
  6
Continuous
370
    13
100
AcDbLine
 10
8612.461000000003
 20
5359.279999999999
 30
0.0
 11
8612.461000000003
 21
4457.713999999999
 31
0.0
  0
LINE
  5
1142
330
1E
100
AcDbEntity
  8
0
  6
Continuous
370
    13
100
AcDbLine
 10
8139.961000000004
 20
4473.714
 30
0.0
 11
8139.961000000004
 21
4473.714
 31
0.0
  0
LINE
  5
1143
330
1E
100
AcDbEntity
  8
0
  6
Continuous
370
    13
100
AcDbLine
 10
8588.459999999999
 20
4467.275199999999
 30
0.0
 11
8612.459999999991
 21
4473.705999999999
 31
0.0
  0
LINE
  5
1144
330
1E
100
AcDbEntity
  8
0
  6
Continuous
370
    13
100
AcDbLine
 10
8612.459999999991
 20
4473.705999999999
 30
0.0
 11
8588.459999999999
 21
4480.136599999998
 31
0.0
  0
LINE
  5
1145
330
1E
100
AcDbEntity
  8
0
  6
Continuous
370
    13
100
AcDbLine
 10
8163.959999999999
 20
4480.136599999998
 30
0.0
 11
8139.96
 21
4473.705999999999
 31
0.0
  0
LINE
  5
1146
330
1E
100
AcDbEntity
  8
0
  6
Continuous
370
    13
100
AcDbLine
 10
8139.96
 20
4473.705999999999
 30
0.0
 11
8163.959999999999
 21
4467.275199999999
 31
0.0
  0
TEXT
  5
1147
330
1E
100
AcDbEntity
  8
0
  6
Continuous
370
    13
100
AcDbText
 10
8253.010999999998
 20
4485.713999999997
 30
0.0
 40
64.0
  1
472.5
 41
0.875
  7
BIGFONT
100
AcDbText
  0
LINE
  5
1148
330
1E
100
AcDbEntity
  8
0
  6
Continuous
370
    13
100
AcDbLine
 10
8612.461000000003
 20
4473.714
 30
0.0
 11
9662.461000000003
 21
4473.714
 31
0.0
  0
LINE
  5
1149
330
1E
100
AcDbEntity
  8
0
  6
Continuous
370
    13
100
AcDbLine
 10
9662.461000000003
 20
5359.279999999999
 30
0.0
 11
9662.461000000003
 21
4457.713999999999
 31
0.0
  0
LINE
  5
114A
330
1E
100
AcDbEntity
  8
0
  6
Continuous
370
    13
100
AcDbLine
 10
9638.46
 20
4467.275199999999
 30
0.0
 11
9662.459999999999
 21
4473.705999999999
 31
0.0
  0
LINE
  5
114B
330
1E
100
AcDbEntity
  8
0
  6
Continuous
370
    13
100
AcDbLine
 10
9662.459999999999
 20
4473.705999999999
 30
0.0
 11
9638.46
 21
4480.136599999998
 31
0.0
  0
LINE
  5
114C
330
1E
100
AcDbEntity
  8
0
  6
Continuous
370
    13
100
AcDbLine
 10
8636.459999999999
 20
4480.136599999998
 30
0.0
 11
8612.459999999991
 21
4473.705999999999
 31
0.0
  0
LINE
  5
114D
330
1E
100
AcDbEntity
  8
0
  6
Continuous
370
    13
100
AcDbLine
 10
8612.459999999991
 20
4473.705999999999
 30
0.0
 11
8636.459999999999
 21
4467.275199999999
 31
0.0
  0
TEXT
  5
114E
330
1E
100
AcDbEntity
  8
0
  6
Continuous
370
    13
100
AcDbText
 10
9025.460999999999
 20
4485.713999999997
 30
0.0
 40
64.0
  1
1050
 41
0.875
  7
BIGFONT
100
AcDbText
  0
LINE
  5
114F
330
1E
100
AcDbEntity
  8
0
  6
Continuous
370
    13
100
AcDbLine
 10
9662.461000000003
 20
4473.714
 30
0.0
 11
10134.961
 21
4473.714
 31
0.0
  0
LINE
  5
1150
330
1E
100
AcDbEntity
  8
0
  6
Continuous
370
    13
100
AcDbLine
 10
10134.961
 20
4473.714
 30
0.0
 11
10134.961
 21
4473.714
 31
0.0
  0
LINE
  5
1151
330
1E
100
AcDbEntity
  8
0
  6
Continuous
370
    13
100
AcDbLine
 10
10110.96
 20
4467.275199999999
 30
0.0
 11
10134.96
 21
4473.705999999999
 31
0.0
  0
LINE
  5
1152
330
1E
100
AcDbEntity
  8
0
  6
Continuous
370
    13
100
AcDbLine
 10
10134.96
 20
4473.705999999999
 30
0.0
 11
10110.96
 21
4480.136599999998
 31
0.0
  0
LINE
  5
1153
330
1E
100
AcDbEntity
  8
0
  6
Continuous
370
    13
100
AcDbLine
 10
9686.46
 20
4480.136599999998
 30
0.0
 11
9662.459999999999
 21
4473.705999999999
 31
0.0
  0
LINE
  5
1154
330
1E
100
AcDbEntity
  8
0
  6
Continuous
370
    13
100
AcDbLine
 10
9662.459999999999
 20
4473.705999999999
 30
0.0
 11
9686.46
 21
4467.275199999999
 31
0.0
  0
TEXT
  5
1155
330
1E
100
AcDbEntity
  8
0
  6
Continuous
370
    13
100
AcDbText
 10
9775.510999999999
 20
4485.713999999997
 30
0.0
 40
64.0
  1
472.5
 41
0.875
  7
BIGFONT
100
AcDbText
  0
LINE
  5
1156
330
1E
100
AcDbEntity
  8
0
  6
Continuous
370
    13
100
AcDbLine
 10
6135.565999999999
 20
5473.714000000001
 30
0.0
 11
6236.374
 21
5473.714000000001
 31
0.0
  0
LINE
  5
1157
330
1E
100
AcDbEntity
  8
0
  6
Continuous
370
    13
100
AcDbLine
 10
6244.800000000003
 20
5473.714000000001
 30
0.0
 11
6258.120999999999
 21
5473.714000000001
 31
0.0
  0
LINE
  5
1158
330
1E
100
AcDbEntity
  8
0
  6
CENTER
 48
0.5
370
    13
100
AcDbLine
 10
3175.714
 20
5473.714000000001
 30
0.0
 11
3364.239
 21
5473.714000000001
 31
0.0
  0
LINE
  5
1159
330
1E
100
AcDbEntity
  8
0
  6
CENTER
 48
0.5
370
    13
100
AcDbLine
 10
4225.713999999999
 20
5473.714000000001
 30
0.0
 11
4414.239000000001
 21
5473.714000000001
 31
0.0
  0
LINE
  5
115A
330
1E
100
AcDbEntity
  8
0
  6
CENTER
 48
0.5
370
    13
100
AcDbLine
 10
4312.499999999999
 20
5379.713999999999
 30
0.0
 11
4312.499999999999
 21
5567.713999999999
 31
0.0
  0
LINE
  5
115B
330
1E
100
AcDbEntity
  8
0
  6
CENTER
 48
0.5
370
    13
100
AcDbLine
 10
3262.5
 20
5379.713999999999
 30
0.0
 11
3262.5
 21
5567.713999999999
 31
0.0
  0
CIRCLE
  5
115C
330
1E
100
AcDbEntity
  8
0
  6
Continuous
370
    13
100
AcDbCircle
 10
4312.499999999999
 20
5473.714000000001
 30
0.0
 40
37.5
  0
CIRCLE
  5
115D
330
1E
100
AcDbEntity
  8
0
  6
Continuous
370
    13
100
AcDbCircle
 10
3262.5
 20
5473.714000000001
 30
0.0
 40
37.5
  0
LINE
  5
115E
330
1E
100
AcDbEntity
  8
0
  6
HIDDEN
370
    13
100
AcDbLine
 10
1136.117
 20
5511.213999999998
 30
0.0
 11
1256.117
 21
5511.213999999998
 31
0.0
  0
LINE
  5
115F
330
1E
100
AcDbEntity
  8
0
  6
HIDDEN
370
    13
100
AcDbLine
 10
1136.117
 20
5436.214
 30
0.0
 11
1257.680000000002
 21
5436.214
 31
0.0
  0
LINE
  5
1160
330
1E
100
AcDbEntity
  8
0
  6
Continuous
370
    13
100
AcDbLine
 10
1218.186000000001
 20
5473.714000000001
 30
0.0
 11
1318.993999999999
 21
5473.714000000001
 31
0.0
  0
LINE
  5
1161
330
1E
100
AcDbEntity
  8
0
  6
Continuous
370
    13
100
AcDbLine
 10
1085.566
 20
5473.714000000001
 30
0.0
 11
1186.374
 21
5473.714000000001
 31
0.0
  0
LINE
  5
1162
330
1E
100
AcDbEntity
  8
0
  6
Continuous
370
    13
100
AcDbLine
 10
1194.800000000001
 20
5473.714000000001
 30
0.0
 11
1208.121000000001
 21
5473.714000000001
 31
0.0
  0
LINE
  5
1163
330
1E
100
AcDbEntity
  8
0
  6
Continuous
370
    13
100
AcDbLine
 10
788.1710000000002
 20
5018.816
 30
0.0
 11
788.1710000000002
 21
5057.714
 31
0.0
  0
LINE
  5
1164
330
1E
100
AcDbEntity
  8
0
  6
Continuous
370
    13
100
AcDbLine
 10
1117.5
 20
5057.714
 30
0.0
 11
772.1710000000002
 21
5057.714
 31
0.0
  0
LINE
  5
1165
330
1E
100
AcDbEntity
  8
0
  6
Continuous
370
    13
100
AcDbLine
 10
788.1710000000002
 20
5018.816
 30
0.0
 11
788.1710000000002
 21
5018.816
 31
0.0
  0
LINE
  5
1166
330
1E
100
AcDbEntity
  8
0
  6
Continuous
370
    13
100
AcDbLine
 10
788.1710000000002
 20
5105.713999999998
 30
0.0
 11
788.1710000000002
 21
5057.714
 31
0.0
  0
LINE
  5
1167
330
1E
100
AcDbEntity
  8
0
  6
Continuous
370
    13
100
AcDbLine
 10
781.7494000000024
 20
5081.706
 30
0.0
 11
788.1800000000021
 21
5057.706
 31
0.0
  0
LINE
  5
1168
330
1E
100
AcDbEntity
  8
0
  6
Continuous
370
    13
100
AcDbLine
 10
788.1800000000021
 20
5057.706
 30
0.0
 11
794.6108000000004
 21
5081.706
 31
0.0
  0
LINE
  5
1169
330
1E
100
AcDbEntity
  8
0
  6
Continuous
370
    13
100
AcDbLine
 10
788.1710000000002
 20
5018.816
 30
0.0
 11
788.1710000000002
 21
4970.815999999999
 31
0.0
  0
LINE
  5
116A
330
1E
100
AcDbEntity
  8
0
  6
Continuous
370
    13
100
AcDbLine
 10
794.6108000000004
 20
4994.805999999999
 30
0.0
 11
788.1800000000021
 21
5018.805999999998
 31
0.0
  0
LINE
  5
116B
330
1E
100
AcDbEntity
  8
0
  6
Continuous
370
    13
100
AcDbLine
 10
788.1800000000021
 20
5018.805999999998
 30
0.0
 11
781.7494000000024
 21
4994.805999999999
 31
0.0
  0
LINE
  5
116C
330
1E
100
AcDbEntity
  8
0
  6
Continuous
370
    13
100
AcDbLine
 10
788.1710000000002
 20
4970.815999999999
 30
0.0
 11
788.1710000000002
 21
4850.816
 31
0.0
  0
TEXT
  5
116D
330
1E
100
AcDbEntity
  8
0
  6
Continuous
370
    13
100
AcDbText
 10
776.1710000000002
 20
4850.816
 30
0.0
 40
64.0
  1
41
 50
90.0
 41
0.875
  7
BIGFONT
100
AcDbText
  0
LINE
  5
116E
330
1E
100
AcDbEntity
  8
0
  6
Continuous
370
    13
100
AcDbLine
 10
788.1710000000002
 20
5057.714
 30
0.0
 11
788.1710000000002
 21
5307.714
 31
0.0
  0
LINE
  5
116F
330
1E
100
AcDbEntity
  8
0
  6
Continuous
370
    13
100
AcDbLine
 10
1117.5
 20
5307.714
 30
0.0
 11
772.1710000000002
 21
5307.714
 31
0.0
  0
LINE
  5
1170
330
1E
100
AcDbEntity
  8
0
  6
Continuous
370
    13
100
AcDbLine
 10
794.6108000000004
 20
5283.706
 30
0.0
 11
788.1800000000021
 21
5307.706
 31
0.0
  0
LINE
  5
1171
330
1E
100
AcDbEntity
  8
0
  6
Continuous
370
    13
100
AcDbLine
 10
788.1800000000021
 20
5307.706
 30
0.0
 11
781.7494000000024
 21
5283.706
 31
0.0
  0
TEXT
  5
1172
330
1E
100
AcDbEntity
  8
0
  6
Continuous
370
    13
100
AcDbText
 10
776.1710000000002
 20
5098.714000000001
 30
0.0
 40
64.0
  1
250
 50
90.0
 41
0.875
  7
BIGFONT
100
AcDbText
  0
LINE
  5
1173
330
1E
100
AcDbEntity
  8
0
  6
Continuous
370
    13
100
AcDbLine
 10
788.1710000000002
 20
5307.714
 30
0.0
 11
788.1710000000002
 21
5560.714
 31
0.0
  0
LINE
  5
1174
330
1E
100
AcDbEntity
  8
0
  6
Continuous
370
    13
100
AcDbLine
 10
1117.5
 20
5560.714
 30
0.0
 11
772.1710000000002
 21
5560.714
 31
0.0
  0
LINE
  5
1175
330
1E
100
AcDbEntity
  8
0
  6
Continuous
370
    13
100
AcDbLine
 10
794.6108000000004
 20
5536.705999999999
 30
0.0
 11
788.1800000000021
 21
5560.706
 31
0.0
  0
LINE
  5
1176
330
1E
100
AcDbEntity
  8
0
  6
Continuous
370
    13
100
AcDbLine
 10
788.1800000000021
 20
5560.706
 30
0.0
 11
781.7494000000024
 21
5536.705999999999
 31
0.0
  0
LINE
  5
1177
330
1E
100
AcDbEntity
  8
0
  6
Continuous
370
    13
100
AcDbLine
 10
781.7494000000024
 20
5331.706
 30
0.0
 11
788.1800000000021
 21
5307.706
 31
0.0
  0
LINE
  5
1178
330
1E
100
AcDbEntity
  8
0
  6
Continuous
370
    13
100
AcDbLine
 10
788.1800000000021
 20
5307.706
 30
0.0
 11
794.6108000000004
 21
5331.706
 31
0.0
  0
TEXT
  5
1179
330
1E
100
AcDbEntity
  8
0
  6
Continuous
370
    13
100
AcDbText
 10
864.1710000000003
 20
5350.214
 30
0.0
 40
64.0
  1
250
 50
90.0
 41
0.875
  7
BIGFONT
100
AcDbText
  0
LINE
  5
117A
330
1E
100
AcDbEntity
  8
0
  6
Continuous
370
    13
100
AcDbLine
 10
788.1710000000002
 20
5560.714
 30
0.0
 11
788.1710000000002
 21
5670.457
 31
0.0
  0
LINE
  5
117B
330
1E
100
AcDbEntity
  8
0
  6
Continuous
370
    13
100
AcDbLine
 10
788.1710000000002
 20
5670.457
 30
0.0
 11
788.1710000000002
 21
5670.457
 31
0.0
  0
LINE
  5
117C
330
1E
100
AcDbEntity
  8
0
  6
Continuous
370
    13
100
AcDbLine
 10
788.1710000000002
 20
5718.457
 30
0.0
 11
788.1710000000002
 21
5670.457
 31
0.0
  0
LINE
  5
117D
330
1E
100
AcDbEntity
  8
0
  6
Continuous
370
    13
100
AcDbLine
 10
781.7494000000024
 20
5694.446
 30
0.0
 11
788.1800000000021
 21
5670.446
 31
0.0
  0
LINE
  5
117E
330
1E
100
AcDbEntity
  8
0
  6
Continuous
370
    13
100
AcDbLine
 10
788.1800000000021
 20
5670.446
 30
0.0
 11
794.6108000000004
 21
5694.446
 31
0.0
  0
TEXT
  5
117F
330
1E
100
AcDbEntity
  8
0
  6
Continuous
370
    13
100
AcDbText
 10
776.1710000000002
 20
5558.787352632521
 30
0.0
 40
64.0
  1
110
 50
90.0
 41
0.875
  7
BIGFONT
100
AcDbText
  0
LINE
  5
1180
330
1E
100
AcDbEntity
  8
0
  6
Continuous
370
    13
100
AcDbLine
 10
3493.001
 20
5307.714
 30
0.0
 11
3493.001
 21
5558.411
 31
0.0
  0
LINE
  5
1181
330
1E
100
AcDbEntity
  8
0
  6
Continuous
370
    13
100
AcDbLine
 10
3499.4508
 20
5534.406
 30
0.0
 11
3493.019999999999
 21
5558.405999999997
 31
0.0
  0
LINE
  5
1182
330
1E
100
AcDbEntity
  8
0
  6
Continuous
370
    13
100
AcDbLine
 10
3493.019999999999
 20
5558.405999999997
 30
0.0
 11
3486.589399999999
 21
5534.406
 31
0.0
  0
LINE
  5
1183
330
1E
100
AcDbEntity
  8
2
  6
Continuous
370
    13
100
AcDbLine
 10
2707.884000000004
 20
1759.165999999996
 30
0.0
 11
4927.883999999998
 21
1759.165999999996
 31
0.0
  0
CIRCLE
  5
1184
330
1E
100
AcDbEntity
  8
2
  6
Continuous
370
    13
100
AcDbCircle
 10
2817.884000000002
 20
1819.165999999999
 30
0.0
 40
52.0
  0
TEXT
  5
1185
330
1E
100
AcDbEntity
  8
2
  6
Continuous
370
    13
100
AcDbText
 10
2824.816000000001
 20
1786.567999999999
 30
0.0
 40
40.0
  1
８
  7
BIGFONT
100
AcDbText
  0
TEXT
  5
1186
330
1E
100
AcDbEntity
  8
2
  6
Continuous
370
    13
100
AcDbText
 10
2763.371999999999
 20
1780.331999999999
 30
0.0
 40
80.0
  1
Ｓ
  7
BIGFONT
100
AcDbText
  0
TEXT
  5
1187
330
1E
100
AcDbEntity
  8
2
  6
Continuous
370
    13
100
AcDbText
 10
2969.068
 20
1783.205999999999
 30
0.0
 40
64.0
  1
D10
  7
BIGFONT
100
AcDbText
  0
TEXT
  5
1188
330
1E
100
AcDbEntity
  8
2
  6
Continuous
370
    13
100
AcDbText
 10
3297.067214538427
 20
1783.417999999999
 30
0.0
 40
64.0
  1
430
  7
BIGFONT
100
AcDbText
  0
TEXT
  5
1189
330
1E
100
AcDbEntity
  8
2
  6
Continuous
370
    13
100
AcDbText
 10
3607.998
 20
1783.799999999999
 30
0.0
 40
64.0
  1
２
  7
BIGFONT
100
AcDbText
  0
TEXT
  5
118A
330
1E
100
AcDbEntity
  8
2
  6
Continuous
370
    13
100
AcDbText
 10
3839.730000000002
 20
1783.465999999999
 30
0.0
 40
64.0
  1
0.560
  7
BIGFONT
100
AcDbText
  0
TEXT
  5
118B
330
1E
100
AcDbEntity
  8
2
  6
Continuous
370
    13
100
AcDbText
 10
4315.298000000001
 20
1782.979999999999
 30
0.0
 40
64.0
  1
0.48
  7
BIGFONT
100
AcDbText
  0
LINE
  5
118C
330
1E
100
AcDbEntity
  8
2
  6
Continuous
370
    13
100
AcDbLine
 10
4705.104000000001
 20
1819.165999999999
 30
0.0
 11
4859.98
 21
1819.165999999999
 31
0.0
  0
LINE
  5
118D
330
1E
100
AcDbEntity
  8
0
  6
Continuous
 62
     1
370
    25
100
AcDbLine
 10
1209.329000000001
 20
3097.705
 30
0.0
 11
1629.329
 21
3097.705
 31
0.0
  0
LINE
  5
118E
330
1E
100
AcDbEntity
  8
0
  6
Continuous
370
    13
100
AcDbLine
 10
1320.868700580246
 20
3600.046830194254
 30
0.0
 11
1320.868700580246
 21
3097.705
 31
0.0
  0
LINE
  5
118F
330
1E
100
AcDbEntity
  8
0
  6
Continuous
370
    13
100
AcDbLine
 10
1320.868700580246
 20
3600.046830194254
 30
0.0
 11
1724.745700580246
 21
3600.046830194254
 31
0.0
  0
TEXT
  5
1190
330
1E
100
AcDbEntity
  8
0
  6
Continuous
370
    13
100
AcDbText
 10
1364.114700580245
 20
3617.581830194259
 30
0.0
 40
72.0
  1
Ｓ
  7
BIGFONT
100
AcDbText
  0
CIRCLE
  5
1191
330
1E
100
AcDbEntity
  8
0
  6
Continuous
 62
     7
370
    13
100
AcDbCircle
 10
1417.791700580244
 20
3654.710830194257
 30
0.0
 40
55.0
  0
TEXT
  5
1192
330
1E
100
AcDbEntity
  8
0
  6
Continuous
370
    13
100
AcDbText
 10
1424.424700580244
 20
3622.362830194256
 30
0.0
 40
40.0
  1
８
  7
BIGFONT
100
AcDbText
  0
TEXT
  5
1193
330
1E
100
AcDbEntity
  8
0
  6
Continuous
370
    13
100
AcDbText
 10
1523.418700580247
 20
3622.546830194258
 30
0.0
 40
64.0
  1
D10
  7
BIGFONT
100
AcDbText
  0
LINE
  5
1194
330
1E
100
AcDbEntity
  8
0
  6
Continuous
370
    13
100
AcDbLine
 10
1320.870700580246
 20
3097.712999999999
 30
0.0
 11
1327.301500580244
 21
3121.712999999998
 31
0.0
  0
LINE
  5
1195
330
1E
100
AcDbEntity
  8
0
  6
Continuous
370
    13
100
AcDbLine
 10
1314.440100580245
 20
3121.712999999998
 30
0.0
 11
1320.870700580246
 21
3097.712999999999
 31
0.0
  0
TEXT
  5
1196
330
1E
100
AcDbEntity
  8
2
  6
Continuous
370
    13
100
AcDbText
 10
9790.458295063414
 20
1792.32163076174
 30
0.0
 40
50.0
  1
kN/m
 41
0.75
  7
BIGFONT
100
AcDbText
  0
TEXT
  5
1197
330
1E
100
AcDbEntity
  8
2
  6
Continuous
370
    13
100
AcDbText
 10
9925.014126497314
 20
1822.522000000002
 30
0.0
 40
26.0
  1
３
  7
BIGFONT
100
AcDbText
  0
TEXT
  5
1198
330
1E
100
AcDbEntity
  8
2
  6
Continuous
370
    13
100
AcDbText
 10
9798.242542312234
 20
1551.269435582471
 30
0.0
 40
47.99999999999998
  1
N/mm
 41
0.7
  7
BIGFONT
100
AcDbText
  0
TEXT
  5
1199
330
1E
100
AcDbEntity
  8
2
  6
Continuous
370
    13
100
AcDbText
 10
9798.242542312234
 20
1431.269435582471
 30
0.0
 40
47.99999999999998
  1
N/mm
 41
0.7
  7
BIGFONT
100
AcDbText
  0
TEXT
  5
119A
330
1E
100
AcDbEntity
  8
2
  6
Continuous
370
    13
100
AcDbText
 10
9798.242542312234
 20
1311.269435582473
 30
0.0
 40
47.99999999999998
  1
N/mm
 41
0.7
  7
BIGFONT
100
AcDbText
  0
LWPOLYLINE
  5
119B
330
1E
100
AcDbEntity
  8
0
  6
HIDDEN
370
    13
100
AcDbPolyline
 90
        4
 70
     1
 43
0.0
 10
6255.0
 20
5723.714000000001
 10
6240.0
 20
5723.714000000001
 10
6240.0
 20
5673.714000000002
 10
6255.0
 20
5673.714000000002
  0
LINE
  5
119C
330
1E
100
AcDbEntity
  8
0
  6
Continuous
 62
     7
370
    13
100
AcDbLine
 10
6247.506000000001
 20
5723.719999999997
 30
0.0
 11
6414.718204097622
 21
6040.506926804035
 31
0.0
  0
TEXT
  5
119D
330
1E
100
AcDbEntity
  8
0
  6
Continuous
 62
     7
370
    13
100
AcDbText
 10
6415.11271127274
 20
6058.506926804038
 30
0.0
 40
64.0
  1
M10インサート
 41
0.875
  7
BIGFONT
100
AcDbText
  0
LINE
  5
119E
330
1E
100
AcDbEntity
  8
0
  6
Continuous
 62
     7
370
    13
100
AcDbLine
 10
6414.718204097622
 20
6040.506926804035
 30
0.0
 11
6900.345861974158
 21
6040.506926804035
 31
0.0
  0
LINE
  5
119F
330
1E
100
AcDbEntity
  8
0
  6
Continuous
 62
     7
370
    13
100
AcDbLine
 10
6247.500896082595
 20
5723.713221355063
 30
0.0
 11
6274.947551097175
 21
5753.325089475129
 31
0.0
  0
LINE
  5
11A0
330
1E
100
AcDbEntity
  8
0
  6
Continuous
 62
     7
370
    13
100
AcDbLine
 10
6256.464376830092
 20
5763.081345395956
 30
0.0
 11
6247.500896082595
 21
5723.713221355063
 31
0.0
  0
ENDSEC
  0
SECTION
  2
OBJECTS
  0
DICTIONARY
  5
C
330
0
100
AcDbDictionary
281
     1
  3
ACAD_COLOR
350
64A
  3
ACAD_GROUP
350
D
  3
ACAD_LAYOUT
350
64D
  3
ACAD_MATERIAL
350
635
  3
ACAD_MLINESTYLE
350
16
  3
ACAD_PLOTSETTINGS
350
18
  3
ACAD_PLOTSTYLENAME
350
633
  3
ACAD_TABLESTYLE
350
64B
  3
ACAD_VISUALSTYLE
350
639
  3
AcDbVariableDictionary
350
11A1
  3
DWGPROPS
350
11A6
1001
ACAD
1000
TREAT_AS_HARD
1070
     0
1000
TREAT_AS_HARD
1070
     0
1000
TREAT_AS_HARD
1070
     0
1000
TREAT_AS_HARD
1070
     0
1000
TREAT_AS_HARD
1070
     0
1000
TREAT_AS_HARD
1070
     0
  0
DICTIONARY
  5
5D1
330
1E
100
AcDbDictionary
281
     1
  3
ACAD_LAYOUTSELFREF
350
62F
1001
ACAD
1000
TREAT_AS_HARD
1070
     0
1000
TREAT_AS_HARD
1070
     0
1000
TREAT_AS_HARD
1070
     0
1000
TREAT_AS_HARD
1070
     0
1000
TREAT_AS_HARD
1070
     0
  0
DICTIONARY
  5
5CF
330
1A
100
AcDbDictionary
281
     1
  3
ACAD_LAYOUTSELFREF
350
62E
1001
ACAD
1000
TREAT_AS_HARD
1070
     0
1000
TREAT_AS_HARD
1070
     0
1000
TREAT_AS_HARD
1070
     0
1000
TREAT_AS_HARD
1070
     0
1000
TREAT_AS_HARD
1070
     0
  0
DICTIONARY
  5
64A
102
{ACAD_REACTORS
330
C
102
}
330
C
100
AcDbDictionary
281
     1
  0
DICTIONARY
  5
D
102
{ACAD_REACTORS
330
C
102
}
330
C
100
AcDbDictionary
281
     1
1001
ACAD
1000
TREAT_AS_HARD
1070
     0
1000
TREAT_AS_HARD
1070
     0
1000
TREAT_AS_HARD
1070
     0
1000
TREAT_AS_HARD
1070
     0
1000
TREAT_AS_HARD
1070
     0
1000
TREAT_AS_HARD
1070
     0
  0
DICTIONARY
  5
64D
102
{ACAD_REACTORS
330
C
102
}
330
C
100
AcDbDictionary
281
     1
  3
Model
350
64E
  3
レイアウト1
350
64F
  0
DICTIONARY
  5
635
102
{ACAD_REACTORS
330
C
102
}
330
C
100
AcDbDictionary
281
     1
  3
ByBlock
350
637
  3
ByLayer
350
636
  3
Global
350
638
  0
DICTIONARY
  5
16
102
{ACAD_REACTORS
330
C
102
}
330
C
100
AcDbDictionary
281
     1
  3
STANDARD
350
17
1001
ACAD
1000
TREAT_AS_HARD
1070
     0
1000
TREAT_AS_HARD
1070
     0
1000
TREAT_AS_HARD
1070
     0
1000
TREAT_AS_HARD
1070
     0
1000
TREAT_AS_HARD
1070
     0
1000
TREAT_AS_HARD
1070
     0
  0
DICTIONARY
  5
18
102
{ACAD_REACTORS
330
C
102
}
330
C
100
AcDbDictionary
281
     1
1001
ACAD
1000
TREAT_AS_HARD
1070
     0
1000
TREAT_AS_HARD
1070
     0
1000
TREAT_AS_HARD
1070
     0
1000
TREAT_AS_HARD
1070
     0
1000
TREAT_AS_HARD
1070
     0
1000
TREAT_AS_HARD
1070
     0
  0
ACDBDICTIONARYWDFLT
  5
633
102
{ACAD_REACTORS
330
C
102
}
330
C
100
AcDbDictionary
281
     1
  3
Normal
350
634
100
AcDbDictionaryWithDefault
340
634
  0
DICTIONARY
  5
64B
102
{ACAD_REACTORS
330
C
102
}
330
C
100
AcDbDictionary
281
     1
  3
Standard
350
64C
  0
DICTIONARY
  5
639
102
{ACAD_REACTORS
330
C
102
}
330
C
100
AcDbDictionary
281
     1
  3
2dWireframe
350
63F
  3
3D Hidden
350
641
  3
3dWireframe
350
640
  3
Basic
350
63E
  3
Brighten
350
645
  3
ColorChange
350
649
  3
Conceptual
350
642
  3
Dim
350
644
  3
Facepattern
350
648
  3
Flat
350
63A
  3
FlatWithEdges
350
63B
  3
Gouraud
350
63C
  3
GouraudWithEdges
350
63D
  3
Linepattern
350
647
  3
Realistic
350
643
  3
Thicken
350
646
  0
DICTIONARY
  5
11A1
102
{ACAD_REACTORS
330
C
102
}
330
C
100
AcDbDictionary
281
     1
  3
CTABLESTYLE
350
11A2
  3
DIMASSOC
350
11A5
  3
INDEXCTL
350
11A4
  3
SORTENTS
350
11A3
  0
XRECORD
  5
11A6
102
{ACAD_REACTORS
330
C
102
}
330
C
100
AcDbXrecord
280
     1
  1
DWGPROPS COOKIE
  2

  3

  4

  6

  7

  8
段本
  9

300
=
301
=
302
=
303
=
304
=
305
=
306
=
307
=
308
=
309
=
 40
0.054584537037037
 41
2452128.650444329
 42
2455111.367982489
  1

 90
        0
  0
XRECORD
  5
62F
102
{ACAD_REACTORS
330
5D1
102
}
330
5D1
100
AcDbXrecord
280
     1
340
1E
  0
XRECORD
  5
62E
102
{ACAD_REACTORS
330
5CF
102
}
330
5CF
100
AcDbXrecord
280
     1
340
1A
  0
LAYOUT
  5
64E
102
{ACAD_XDICTIONARY
360
11AF
102
}
102
{ACAD_REACTORS
330
64D
102
}
330
64D
100
AcDbPlotSettings
  1

  2
自動 RICOH IPSiO NX700 RPDL (YOUR-5FBDA9497F 上)
  4

  6

 40
0.0
 41
0.0
 42
0.0
 43
0.0
 44
0.0
 45
0.0
 46
0.0
 47
0.0
 48
0.0
 49
0.0
140
0.0
141
0.0
142
1.0
143
1.0
 70
  1712
 72
     0
 73
     0
 74
     0
  7

 75
     0
147
1.0
148
0.0
149
0.0
100
AcDbLayout
  1
Model
 70
     1
 71
     0
 10
0.0
 20
0.0
 11
12.0
 21
9.0
 12
0.0
 22
0.0
 32
0.0
 14
0.0
 24
0.0
 34
0.0
 15
0.0
 25
0.0
 35
0.0
146
0.0
 13
0.0
 23
0.0
 33
0.0
 16
1.0
 26
0.0
 36
0.0
 17
0.0
 27
1.0
 37
0.0
 76
     0
330
1E
331
62D
  0
LAYOUT
  5
64F
102
{ACAD_XDICTIONARY
360
11B1
102
}
102
{ACAD_REACTORS
330
64D
102
}
330
64D
100
AcDbPlotSettings
  1

  2
自動 RICOH IPSiO NX700 RPDL (YOUR-5FBDA9497F 上)
  4

  6

 40
0.0
 41
0.0
 42
0.0
 43
0.0
 44
0.0
 45
0.0
 46
0.0
 47
0.0
 48
0.0
 49
0.0
140
0.0
141
0.0
142
1.0
143
1.0
 70
   688
 72
     0
 73
     0
 74
     5
  7

 75
    16
147
1.0
148
0.0
149
0.0
100
AcDbLayout
  1
レイアウト1
 70
     1
 71
     1
 10
0.0
 20
0.0
 11
12.0
 21
9.0
 12
0.0
 22
0.0
 32
0.0
 14
1.000000000000000E+20
 24
1.000000000000000E+20
 34
1.000000000000000E+20
 15
-1.000000000000000E+20
 25
-1.000000000000000E+20
 35
-1.000000000000000E+20
146
0.0
 13
0.0
 23
0.0
 33
0.0
 16
1.0
 26
0.0
 36
0.0
 17
0.0
 27
1.0
 37
0.0
 76
     0
330
1A
  0
MATERIAL
  5
637
102
{ACAD_XDICTIONARY
360
11A9
102
}
102
{ACAD_REACTORS
330
635
102
}
330
635
100
AcDbMaterial
  1
ByBlock
  0
MATERIAL
  5
636
102
{ACAD_XDICTIONARY
360
11A7
102
}
102
{ACAD_REACTORS
330
635
102
}
330
635
100
AcDbMaterial
  1
ByLayer
  0
MATERIAL
  5
638
102
{ACAD_XDICTIONARY
360
11AB
102
}
102
{ACAD_REACTORS
330
635
102
}
330
635
100
AcDbMaterial
  1
Global
  0
MLINESTYLE
  5
17
102
{ACAD_REACTORS
330
16
102
}
330
16
100
AcDbMlineStyle
  2
STANDARD
 70
     0
  3

 62
   256
 51
90.0
 52
90.0
 71
     2
 49
0.5
 62
   256
  6
BYLAYER
 49
-0.5
 62
   256
  6
BYLAYER
  0
ACDBPLACEHOLDER
  5
634
102
{ACAD_REACTORS
330
633
102
}
330
633
  0
TABLESTYLE
  5
64C
102
{ACAD_XDICTIONARY
360
11AD
102
}
102
{ACAD_REACTORS
330
64B
102
}
330
64B
100
AcDbTableStyle
  3
Standard
 70
     0
 71
     0
 40
0.06
 41
0.06
280
     0
281
     0
  7
STANDARD
140
0.18
170
     2
 62
     0
 63
     7
283
     0
274
    -2
284
     1
 64
     0
275
    -2
285
     1
 65
     0
276
    -2
286
     1
 66
     0
277
    -2
287
     1
 67
     0
278
    -2
288
     1
 68
     0
279
    -2
289
     1
 69
     0
  7
STANDARD
140
0.25
170
     5
 62
     0
 63
     7
283
     0
274
    -2
284
     1
 64
     0
275
    -2
285
     1
 65
     0
276
    -2
286
     1
 66
     0
277
    -2
287
     1
 67
     0
278
    -2
288
     1
 68
     0
279
    -2
289
     1
 69
     0
  7
STANDARD
140
0.18
170
     5
 62
     0
 63
     7
283
     0
274
    -2
284
     1
 64
     0
275
    -2
285
     1
 65
     0
276
    -2
286
     1
 66
     0
277
    -2
287
     1
 67
     0
278
    -2
288
     1
 68
     0
279
    -2
289
     1
 69
     0
  0
VISUALSTYLE
  5
63F
102
{ACAD_REACTORS
330
639
102
}
330
639
100
AcDbVisualStyle
  2
2dWireframe
 70
     4
 71
     0
 72
     2
 73
     0
 90
        0
 40
-0.6
 41
-30.0
 62
     5
 63
     7
 74
     1
 91
        4
 64
     7
 65
   257
 75
     1
175
     1
 42
1.0
 92
        0
 66
   257
 43
1.0
 76
     1
 77
     6
 78
     2
 67
     7
 79
     5
170
     0
171
     0
290
     0
174
     0
 93
        1
 44
0.0
173
     0
291
     0
 45
0.0
1001
ACAD
1000
AcDbSavedByObjectVersion
1070
     0
  0
VISUALSTYLE
  5
641
102
{ACAD_REACTORS
330
639
102
}
330
639
100
AcDbVisualStyle
  2
3D Hidden
 70
     6
 71
     1
 72
     2
 73
     2
 90
        0
 40
-0.6
 41
-30.0
 62
     5
 63
     7
 74
     2
 91
        2
 64
     7
 65
   257
 75
     2
175
     1
 42
40.0
 92
        0
 66
   257
 43
1.0
 76
     1
 77
     6
 78
     2
 67
     7
 79
     3
170
     0
171
     0
290
     0
174
     0
 93
        1
 44
0.0
173
     0
291
     0
 45
0.0
1001
ACAD
1000
AcDbSavedByObjectVersion
1070
     0
  0
VISUALSTYLE
  5
640
102
{ACAD_REACTORS
330
639
102
}
330
639
100
AcDbVisualStyle
  2
3dWireframe
 70
     5
 71
     0
 72
     2
 73
     0
 90
        0
 40
-0.6
 41
-30.0
 62
     5
 63
     7
 74
     1
 91
        4
 64
     7
 65
   257
 75
     1
175
     1
 42
1.0
 92
        0
 66
   257
 43
1.0
 76
     1
 77
     6
 78
     2
 67
     7
 79
     5
170
     0
171
     0
290
     0
174
     0
 93
        1
 44
0.0
173
     0
291
     0
 45
0.0
1001
ACAD
1000
AcDbSavedByObjectVersion
1070
     0
  0
VISUALSTYLE
  5
63E
102
{ACAD_REACTORS
330
639
102
}
330
639
100
AcDbVisualStyle
  2
Basic
 70
     7
 71
     1
 72
     0
 73
     1
 90
        0
 40
-0.6
 41
-30.0
 62
     5
 63
     7
 74
     0
 91
        4
 64
     7
 65
   257
 75
     1
175
     1
 42
1.0
 92
        8
 66
     7
 43
1.0
 76
     1
 77
     6
 78
     2
 67
     7
 79
     5
170
     0
171
     0
290
     0
174
     0
 93
        1
 44
0.0
173
     0
291
     1
 45
0.0
1001
ACAD
1000
AcDbSavedByObjectVersion
1070
     0
  0
VISUALSTYLE
  5
645
102
{ACAD_REACTORS
330
639
102
}
330
639
100
AcDbVisualStyle
  2
Brighten
 70
    12
 71
     2
 72
     2
 73
     0
 90
        0
 40
-0.6
 41
-30.0
 62
     5
 63
     7
 74
     1
 91
        4
 64
     7
 65
   257
 75
     1
175
     1
 42
1.0
 92
        8
 66
     7
 43
1.0
 76
     1
 77
     6
 78
     2
 67
     7
 79
     5
170
     0
171
     0
290
     0
174
     0
 93
        1
 44
50.0
173
     0
291
     1
 45
0.0
1001
ACAD
1000
AcDbSavedByObjectVersion
1070
     0
  0
VISUALSTYLE
  5
649
102
{ACAD_REACTORS
330
639
102
}
330
639
100
AcDbVisualStyle
  2
ColorChange
 70
    16
 71
     2
 72
     2
 73
     3
 90
        0
 40
-0.6
 41
-30.0
 62
     5
 63
     8
 74
     1
 91
        4
 64
     7
 65
   257
 75
     1
175
     1
 42
1.0
 92
        8
 66
     8
 43
1.0
 76
     1
 77
     6
 78
     2
 67
     7
 79
     5
170
     0
171
     0
290
     0
174
     0
 93
        1
 44
0.0
173
     0
291
     1
 45
0.0
1001
ACAD
1000
AcDbSavedByObjectVersion
1070
     0
  0
VISUALSTYLE
  5
642
102
{ACAD_REACTORS
330
639
102
}
330
639
100
AcDbVisualStyle
  2
Conceptual
 70
     9
 71
     3
 72
     2
 73
     0
 90
        0
 40
-0.6
 41
-30.0
 62
     5
 63
     7
 74
     2
 91
        2
 64
     7
 65
   257
 75
     1
175
     1
 42
40.0
 92
        8
 66
     7
 43
1.0
 76
     1
 77
     6
 78
     2
 67
     7
 79
     3
170
     0
171
     0
290
     0
174
     0
 93
        1
 44
0.0
173
     0
291
     0
 45
0.0
1001
ACAD
1000
AcDbSavedByObjectVersion
1070
     0
  0
VISUALSTYLE
  5
644
102
{ACAD_REACTORS
330
639
102
}
330
639
100
AcDbVisualStyle
  2
Dim
 70
    11
 71
     2
 72
     2
 73
     0
 90
        0
 40
-0.6
 41
-30.0
 62
     5
 63
     7
 74
     1
 91
        4
 64
     7
 65
   257
 75
     1
175
     1
 42
1.0
 92
        8
 66
     7
 43
1.0
 76
     1
 77
     6
 78
     2
 67
     7
 79
     5
170
     0
171
     0
290
     0
174
     0
 93
        1
 44
-50.0
173
     0
291
     1
 45
0.0
1001
ACAD
1000
AcDbSavedByObjectVersion
1070
     0
  0
VISUALSTYLE
  5
648
102
{ACAD_REACTORS
330
639
102
}
330
639
100
AcDbVisualStyle
  2
Facepattern
 70
    15
 71
     2
 72
     2
 73
     0
 90
        0
 40
-0.6
 41
-30.0
 62
     5
 63
     7
 74
     1
 91
        4
 64
     7
 65
   257
 75
     1
175
     1
 42
1.0
 92
        8
 66
     7
 43
1.0
 76
     1
 77
     6
 78
     2
 67
     7
 79
     5
170
     0
171
     0
290
     0
174
     0
 93
        1
 44
0.0
173
     0
291
     1
 45
0.0
1001
ACAD
1000
AcDbSavedByObjectVersion
1070
     0
  0
VISUALSTYLE
  5
63A
102
{ACAD_REACTORS
330
639
102
}
330
639
100
AcDbVisualStyle
  2
Flat
 70
     0
 71
     2
 72
     1
 73
     1
 90
        2
 40
-0.6
 41
30.0
 62
     5
 63
     7
 74
     0
 91
        4
 64
     7
 65
   257
 75
     1
175
     1
 42
1.0
 92
        8
 66
     7
 43
1.0
 76
     1
 77
     6
 78
     2
 67
     7
 79
     5
170
     0
171
     0
290
     0
174
     0
 93
       13
 44
0.0
173
     0
291
     1
 45
0.0
1001
ACAD
1000
AcDbSavedByObjectVersion
1070
     0
  0
VISUALSTYLE
  5
63B
102
{ACAD_REACTORS
330
639
102
}
330
639
100
AcDbVisualStyle
  2
FlatWithEdges
 70
     1
 71
     2
 72
     1
 73
     1
 90
        2
 40
-0.6
 41
30.0
 62
     5
 63
     7
 74
     1
 91
        4
 64
     7
 65
   257
 75
     1
175
     1
 42
1.0
 92
        0
 66
   257
 43
1.0
 76
     1
 77
     6
 78
     2
 67
     7
 79
     5
170
     0
171
     0
290
     0
174
     0
 93
       13
 44
0.0
173
     0
291
     1
 45
0.0
1001
ACAD
1000
AcDbSavedByObjectVersion
1070
     0
  0
VISUALSTYLE
  5
63C
102
{ACAD_REACTORS
330
639
102
}
330
639
100
AcDbVisualStyle
  2
Gouraud
 70
     2
 71
     2
 72
     2
 73
     1
 90
        2
 40
-0.6
 41
30.0
 62
     5
 63
     7
 74
     0
 91
        4
 64
     7
 65
   257
 75
     1
175
     1
 42
1.0
 92
        0
 66
     7
 43
1.0
 76
     1
 77
     6
 78
     2
 67
     7
 79
     5
170
     0
171
     0
290
     0
174
     0
 93
       13
 44
0.0
173
     0
291
     1
 45
0.0
1001
ACAD
1000
AcDbSavedByObjectVersion
1070
     0
  0
VISUALSTYLE
  5
63D
102
{ACAD_REACTORS
330
639
102
}
330
639
100
AcDbVisualStyle
  2
GouraudWithEdges
 70
     3
 71
     2
 72
     2
 73
     1
 90
        2
 40
-0.6
 41
30.0
 62
     5
 63
     7
 74
     1
 91
        4
 64
     7
 65
   257
 75
     1
175
     1
 42
1.0
 92
        0
 66
   257
 43
1.0
 76
     1
 77
     6
 78
     2
 67
     7
 79
     5
170
     0
171
     0
290
     0
174
     0
 93
       13
 44
0.0
173
     0
291
     1
 45
0.0
1001
ACAD
1000
AcDbSavedByObjectVersion
1070
     0
  0
VISUALSTYLE
  5
647
102
{ACAD_REACTORS
330
639
102
}
330
639
100
AcDbVisualStyle
  2
Linepattern
 70
    14
 71
     2
 72
     2
 73
     0
 90
        0
 40
-0.6
 41
-30.0
 62
     5
 63
     7
 74
     1
 91
        4
 64
     7
 65
   257
 75
     7
175
     7
 42
1.0
 92
        8
 66
     7
 43
1.0
 76
     1
 77
     6
 78
     2
 67
     7
 79
     5
170
     0
171
     0
290
     0
174
     0
 93
        1
 44
0.0
173
     0
291
     1
 45
0.0
1001
ACAD
1000
AcDbSavedByObjectVersion
1070
     0
  0
VISUALSTYLE
  5
643
102
{ACAD_REACTORS
330
639
102
}
330
639
100
AcDbVisualStyle
  2
Realistic
 70
     8
 71
     2
 72
     2
 73
     0
 90
        0
 40
-0.6
 41
-30.0
 62
     5
 63
     7
 74
     1
 91
        0
 64
     7
 65
   257
 75
     1
175
     1
 42
1.0
 92
        8
 66
     8
 43
1.0
 76
     1
 77
     6
 78
     2
 67
     7
 79
     5
170
     0
171
     0
290
     0
174
     0
 93
       13
 44
0.0
173
     0
291
     0
 45
0.0
1001
ACAD
1000
AcDbSavedByObjectVersion
1070
     0
  0
VISUALSTYLE
  5
646
102
{ACAD_REACTORS
330
639
102
}
330
639
100
AcDbVisualStyle
  2
Thicken
 70
    13
 71
     2
 72
     2
 73
     0
 90
        0
 40
-0.6
 41
-30.0
 62
     5
 63
     7
 74
     1
 91
        4
 64
     7
 65
   257
 75
     1
175
     1
 42
1.0
 92
       12
 66
     7
 43
1.0
 76
     1
 77
     6
 78
     2
 67
     7
 79
     5
170
     0
171
     0
290
     0
174
     0
 93
        1
 44
0.0
173
     0
291
     1
 45
0.0
1001
ACAD
1000
AcDbSavedByObjectVersion
1070
     0
  0
DICTIONARYVAR
  5
11A2
102
{ACAD_REACTORS
330
11A1
102
}
330
11A1
100
DictionaryVariables
280
     0
  1
STANDARD
  0
DICTIONARYVAR
  5
11A5
102
{ACAD_REACTORS
330
11A1
102
}
330
11A1
100
DictionaryVariables
280
     0
  1
1
  0
DICTIONARYVAR
  5
11A4
102
{ACAD_REACTORS
330
11A1
102
}
330
11A1
100
DictionaryVariables
280
     0
  1
0
  0
DICTIONARYVAR
  5
11A3
102
{ACAD_REACTORS
330
11A1
102
}
330
11A1
100
DictionaryVariables
280
     0
  1
127
  0
DICTIONARY
  5
11AF
330
64E
100
AcDbDictionary
280
     1
281
     1
  3
ACAD_XREC_ROUNDTRIP
360
11B0
  0
DICTIONARY
  5
11B1
330
64F
100
AcDbDictionary
280
     1
281
     1
  3
ACAD_XREC_ROUNDTRIP
360
11B2
  0
DICTIONARY
  5
11A9
330
637
100
AcDbDictionary
280
     1
281
     1
  3
ACAD_XREC_ROUNDTRIP
360
11AA
  0
DICTIONARY
  5
11A7
330
636
100
AcDbDictionary
280
     1
281
     1
  3
ACAD_XREC_ROUNDTRIP
360
11A8
  0
DICTIONARY
  5
11AB
330
638
100
AcDbDictionary
280
     1
281
     1
  3
ACAD_XREC_ROUNDTRIP
360
11AC
  0
DICTIONARY
  5
11AD
330
64C
100
AcDbDictionary
280
     1
281
     1
  3
ACAD_XREC_ROUNDTRIP
360
11AE
  0
XRECORD
  5
11B0
102
{ACAD_REACTORS
330
11AF
102
}
330
11AF
100
AcDbXrecord
280
     1
102
SHADEPLOT
 70
     0
102
SHADEPLOTRESLEVEL
 70
     2
102
SHADEPLOTCUSTOMDPI
 70
   300
  0
XRECORD
  5
11B2
102
{ACAD_REACTORS
330
11B1
102
}
330
11B1
100
AcDbXrecord
280
     1
102
SHADEPLOT
 70
     0
102
SHADEPLOTRESLEVEL
 70
     2
102
SHADEPLOTCUSTOMDPI
 70
   300
  0
XRECORD
  5
11AA
102
{ACAD_REACTORS
330
11A9
102
}
330
11A9
100
AcDbXrecord
280
     1
102
MATERIAL
148
0.0
149
0.0
149
0.0
 93
        0
 94
       63
282
     0
 72
     1
 77
     1
171
     1
175
     1
179
     1
273
     0
  0
XRECORD
  5
11A8
102
{ACAD_REACTORS
330
11A7
102
}
330
11A7
100
AcDbXrecord
280
     1
102
MATERIAL
148
0.0
149
0.0
149
0.0
 93
        0
 94
       63
282
     0
 72
     1
 77
     1
171
     1
175
     1
179
     1
273
     0
  0
XRECORD
  5
11AC
102
{ACAD_REACTORS
330
11AB
102
}
330
11AB
100
AcDbXrecord
280
     1
102
MATERIAL
148
0.0
149
0.0
149
0.0
 93
        0
 94
       63
282
     0
 72
     1
 77
     1
171
     1
175
     1
179
     1
273
     0
  0
XRECORD
  5
11AE
102
{ACAD_REACTORS
330
11AD
102
}
330
11AD
100
AcDbXrecord
280
     1
102
ACAD_ROUNDTRIP_PRE2007_TABLESTYLE
 90
      512
 91
        0
  1

 92
      512
 93
        0
  2

 94
      512
 95
        0
  3

  0
ENDSEC
  0
EOF
