  0
SECTION
  2
HEADER
  9
$ACADVER
  1
AC1012
  9
$DWGCODEPAGE
  3
dos932
  9
$INSBASE
 10
0.0
 20
0.0
 30
0.0
  9
$EXTMIN
 10
-270.8692917994564
 20
-193.8949574994562
 30
-0.0000000000112498
  9
$EXTMAX
 10
270.8692945654845
 20
193.8308725410966
 30
0.0000000000002956
  9
$LIMMIN
 10
-297.0
 20
-210.0
  9
$LIMMAX
 10
297.0
 20
210.0
  9
$ORTHOMODE
 70
     1
  9
$REGENMODE
 70
     1
  9
$FILLMODE
 70
     1
  9
$QTEXTMODE
 70
     0
  9
$MIRRTEXT
 70
     1
  9
$DRAGMODE
 70
     2
  9
$LTSCALE
 40
1.0
  9
$OSMODE
 70
  2471
  9
$ATTMODE
 70
     1
  9
$TEXTSIZE
 40
1.0
  9
$TRACEWID
 40
0.05
  9
$TEXTSTYLE
  7
BIGFONT
  9
$CLAYER
  8
0
  9
$CELTYPE
  6
CONTINUOUS
  9
$CECOLOR
 62
   256
  9
$CELTSCALE
 40
1.0
  9
$DELOBJ
 70
     1
  9
$DISPSILH
 70
     0
  9
$DIMSCALE
 40
1.0
  9
$DIMASZ
 40
0.18
  9
$DIMEXO
 40
0.0625
  9
$DIMDLI
 40
0.38
  9
$DIMRND
 40
0.0
  9
$DIMDLE
 40
0.0
  9
$DIMEXE
 40
0.18
  9
$DIMTP
 40
0.0
  9
$DIMTM
 40
0.0
  9
$DIMTXT
 40
0.18
  9
$DIMCEN
 40
0.09
  9
$DIMTSZ
 40
0.0
  9
$DIMTOL
 70
     0
  9
$DIMLIM
 70
     0
  9
$DIMTIH
 70
     1
  9
$DIMTOH
 70
     1
  9
$DIMSE1
 70
     0
  9
$DIMSE2
 70
     0
  9
$DIMTAD
 70
     0
  9
$DIMZIN
 70
     0
  9
$DIMBLK
  1

  9
$DIMASO
 70
     1
  9
$DIMSHO
 70
     1
  9
$DIMPOST
  1

  9
$DIMAPOST
  1

  9
$DIMALT
 70
     0
  9
$DIMALTD
 70
     2
  9
$DIMALTF
 40
25.4
  9
$DIMLFAC
 40
1.0
  9
$DIMTOFL
 70
     0
  9
$DIMTVP
 40
0.0
  9
$DIMTIX
 70
     0
  9
$DIMSOXD
 70
     0
  9
$DIMSAH
 70
     0
  9
$DIMBLK1
  1

  9
$DIMBLK2
  1

  9
$DIMSTYLE
  2
STANDARD
  9
$DIMCLRD
 70
     0
  9
$DIMCLRE
 70
     0
  9
$DIMCLRT
 70
     0
  9
$DIMTFAC
 40
1.0
  9
$DIMGAP
 40
0.09
  9
$DIMJUST
 70
     0
  9
$DIMSD1
 70
     0
  9
$DIMSD2
 70
     0
  9
$DIMTOLJ
 70
     1
  9
$DIMTZIN
 70
     0
  9
$DIMALTZ
 70
     0
  9
$DIMALTTZ
 70
     0
  9
$DIMFIT
 70
     3
  9
$DIMUPT
 70
     0
  9
$DIMUNIT
 70
     2
  9
$DIMDEC
 70
     4
  9
$DIMTDEC
 70
     4
  9
$DIMALTU
 70
     2
  9
$DIMALTTD
 70
     2
  9
$DIMTXSTY
  7
STANDARD
  9
$DIMAUNIT
 70
     0
  9
$LUNITS
 70
     2
  9
$LUPREC
 70
     4
  9
$SKETCHINC
 40
0.1
  9
$FILLETRAD
 40
0.0
  9
$AUNITS
 70
     0
  9
$AUPREC
 70
     0
  9
$MENU
  1
.
  9
$ELEVATION
 40
0.0
  9
$PELEVATION
 40
0.0
  9
$THICKNESS
 40
0.0
  9
$LIMCHECK
 70
     0
  9
$BLIPMODE
 70
     0
  9
$CHAMFERA
 40
0.0
  9
$CHAMFERB
 40
0.0
  9
$CHAMFERC
 40
0.0
  9
$CHAMFERD
 40
0.0
  9
$SKPOLY
 70
     0
  9
$TDCREATE
 40
2452140.675665509
  9
$TDUPDATE
 40
2453203.395321065
  9
$TDINDWG
 40
0.0269756944
  9
$TDUSRTIMER
 40
0.0269744213
  9
$USRTIMER
 70
     1
  9
$ANGBASE
 50
0.0
  9
$ANGDIR
 70
     0
  9
$PDMODE
 70
     0
  9
$PDSIZE
 40
0.0
  9
$PLINEWID
 40
0.0
  9
$COORDS
 70
     1
  9
$SPLFRAME
 70
     0
  9
$SPLINETYPE
 70
     6
  9
$SPLINESEGS
 70
     8
  9
$ATTDIA
 70
     0
  9
$ATTREQ
 70
     1
  9
$HANDLING
 70
-16383
  9
$HANDSEED
  5
849
  9
$SURFTAB1
 70
     6
  9
$SURFTAB2
 70
     6
  9
$SURFTYPE
 70
     6
  9
$SURFU
 70
     6
  9
$SURFV
 70
     6
  9
$UCSNAME
  2

  9
$UCSORG
 10
0.0
 20
0.0
 30
0.0
  9
$UCSXDIR
 10
1.0
 20
0.0
 30
0.0
  9
$UCSYDIR
 10
0.0
 20
1.0
 30
0.0
  9
$PUCSNAME
  2

  9
$PUCSORG
 10
0.0
 20
0.0
 30
0.0
  9
$PUCSXDIR
 10
1.0
 20
0.0
 30
0.0
  9
$PUCSYDIR
 10
0.0
 20
1.0
 30
0.0
  9
$USERI1
 70
     0
  9
$USERI2
 70
     0
  9
$USERI3
 70
     0
  9
$USERI4
 70
     0
  9
$USERI5
 70
     0
  9
$USERR1
 40
0.0
  9
$USERR2
 40
0.0
  9
$USERR3
 40
0.0
  9
$USERR4
 40
0.0
  9
$USERR5
 40
0.0
  9
$WORLDVIEW
 70
     1
  9
$SHADEDGE
 70
     3
  9
$SHADEDIF
 70
    70
  9
$TILEMODE
 70
     1
  9
$MAXACTVP
 70
    64
  9
$PINSBASE
 10
0.0
 20
0.0
 30
0.0
  9
$PLIMCHECK
 70
     0
  9
$PEXTMIN
 10
1.000000000000000E+20
 20
1.000000000000000E+20
 30
1.000000000000000E+20
  9
$PEXTMAX
 10
-1.000000000000000E+20
 20
-1.000000000000000E+20
 30
-1.000000000000000E+20
  9
$PLIMMIN
 10
0.0
 20
0.0
  9
$PLIMMAX
 10
12.0
 20
9.0
  9
$UNITMODE
 70
     0
  9
$VISRETAIN
 70
     1
  9
$PLINEGEN
 70
     0
  9
$PSLTSCALE
 70
     1
  9
$TREEDEPTH
 70
  3020
  9
$PICKSTYLE
 70
     3
  9
$CMLSTYLE
  2
STANDARD
  9
$CMLJUST
 70
     0
  9
$CMLSCALE
 40
1.0
  9
$SAVEIMAGES
 70
     1
  0
ENDSEC
  0
SECTION
  2
CLASSES
  0
CLASS
  1
ACDBDICTIONARYWDFLT
  2
AcDbDictionaryWithDefault
  3
AutoCAD 2000
 90
    32768
280
     0
281
     0
  0
CLASS
  1
ACDBPLACEHOLDER
  2
AcDbPlaceHolder
  3
AutoCAD 2000
 90
    32768
280
     0
281
     0
  0
CLASS
  1
LAYOUT
  2
AcDbLayout
  3
AutoCAD 2000
 90
    32768
280
     0
281
     0
  0
CLASS
  1
LONG_TRANSACTION
  2
AcDbLongTransaction
  3
AutoCAD 2000
 90
    32768
280
     0
281
     0
  0
CLASS
  1
LWPOLYLINE
  2
AcDbPolyline
  3
AutoCAD 2000
 90
    32768
280
     0
281
     1
  0
CLASS
  1
HATCH
  2
AcDbHatch
  3
AutoCAD 2000
 90
    32768
280
     0
281
     1
  0
CLASS
  1
XRECORD
  2
AcDbXrecord
  3
AutoCAD 2000
 90
    32768
280
     0
281
     0
  0
CLASS
  1
LONG_TRANSACTION
  2
AcDbLongTransaction
  3
AutoCAD 2000
 90
    32768
280
     0
281
     0
  0
CLASS
  1
LWPOLYLINE
  2
AcDbPolyline
  3
AutoCAD 2000
 90
    32768
280
     0
281
     1
  0
CLASS
  1
HATCH
  2
AcDbHatch
  3
AutoCAD 2000
 90
    32768
280
     0
281
     1
  0
CLASS
  1
XRECORD
  2
AcDbXrecord
  3
AutoCAD 2000
 90
    32768
280
     0
281
     0
  0
CLASS
  1
LONG_TRANSACTION
  2
AcDbLongTransaction
  3
AutoCAD 2000
 90
    32768
280
     0
281
     0
  0
CLASS
  1
LWPOLYLINE
  2
AcDbPolyline
  3
AutoCAD 2000
 90
    32768
280
     0
281
     1
  0
CLASS
  1
HATCH
  2
AcDbHatch
  3
AutoCAD 2000
 90
    32768
280
     0
281
     1
  0
CLASS
  1
XRECORD
  2
AcDbXrecord
  3
AutoCAD 2000
 90
    32768
280
     0
281
     0
  0
ENDSEC
  0
SECTION
  2
TABLES
  0
TABLE
  2
VPORT
  5
8
330
0
100
AcDbSymbolTable
 70
     2
  0
VPORT
  5
846
330
8
100
AcDbSymbolTableRecord
100
AcDbViewportTableRecord
  2
*ACTIVE
 70
     0
 10
0.0
 20
0.0
 11
1.0
 21
1.0
 12
0.0000013830140251
 22
-0.0320424791798359
 13
0.0
 23
0.0
 14
1.0
 24
1.0
 15
0.0
 25
0.0
 16
0.0
 26
0.0
 36
1.0
 17
0.0
 27
0.0
 37
0.0
 40
392.2518124923881
 41
1.432748538011695
 42
50.0
 43
0.0
 44
0.0
 50
0.0
 51
0.0
 71
     0
 72
   100
 73
     1
 74
     1
 75
     0
 76
     0
 77
     0
 78
     0
  0
ENDTAB
  0
TABLE
  2
LTYPE
  5
5
330
0
100
AcDbSymbolTable
 70
     5
  0
LTYPE
  5
13
330
5
100
AcDbSymbolTableRecord
100
AcDbLinetypeTableRecord
  2
BYBLOCK
 70
     0
  3

 72
    65
 73
     0
 40
0.0
  0
LTYPE
  5
14
330
5
100
AcDbSymbolTableRecord
100
AcDbLinetypeTableRecord
  2
BYLAYER
 70
     0
  3

 72
    65
 73
     0
 40
0.0
  0
LTYPE
  5
15
330
5
100
AcDbSymbolTableRecord
100
AcDbLinetypeTableRecord
  2
CONTINUOUS
 70
     0
  3
実線
 72
    65
 73
     0
 40
0.0
  0
LTYPE
  5
23
330
5
100
AcDbSymbolTableRecord
100
AcDbLinetypeTableRecord
  2
HIDDEN
 70
     0
  3
_ _ _ _ _ _ _ _ _ _ _ _ _ _ _ _ _ _ _ _ _ _ _
 72
    65
 73
     2
 40
0.375
 49
0.25
 74
     0
 49
-0.125
 74
     0
  0
LTYPE
  5
24
330
5
100
AcDbSymbolTableRecord
100
AcDbLinetypeTableRecord
  2
DASHED
 70
     0
  3
__ __ __ __ __ __ __ __ __ __ __ __ __ __ __
 72
    65
 73
     2
 40
0.75
 49
0.5
 74
     0
 49
-0.25
 74
     0
  0
LTYPE
  5
25
330
5
100
AcDbSymbolTableRecord
100
AcDbLinetypeTableRecord
  2
CENTER
 70
     0
  3
____ _ ____ _ ____ _ ____ _ ____ _ ____ _ ____
 72
    65
 73
     4
 40
2.0
 49
1.25
 74
     0
 49
-0.25
 74
     0
 49
0.25
 74
     0
 49
-0.25
 74
     0
  0
LTYPE
  5
26
330
5
100
AcDbSymbolTableRecord
100
AcDbLinetypeTableRecord
  2
PHANTOM
 70
     0
  3
_____ _ _ _____ _ _ _____ _ _ _____ _ _ ____
 72
    65
 73
     6
 40
2.5
 49
1.25
 74
     0
 49
-0.25
 74
     0
 49
0.25
 74
     0
 49
-0.25
 74
     0
 49
0.25
 74
     0
 49
-0.25
 74
     0
  0
ENDTAB
  0
TABLE
  2
LAYER
  5
2
330
0
100
AcDbSymbolTable
 70
     4
  0
LAYER
  5
10
330
2
100
AcDbSymbolTableRecord
100
AcDbLayerTableRecord
  2
0
 70
     0
 62
     7
  6
CONTINUOUS
  0
LAYER
  5
27
330
2
100
AcDbSymbolTableRecord
100
AcDbLayerTableRecord
  2
1
 70
     0
 62
     7
  6
CONTINUOUS
  0
LAYER
  5
28
330
2
100
AcDbSymbolTableRecord
100
AcDbLayerTableRecord
  2
2
 70
     0
 62
     7
  6
CONTINUOUS
  0
LAYER
  5
29
330
2
100
AcDbSymbolTableRecord
100
AcDbLayerTableRecord
  2
3
 70
     0
 62
     7
  6
CONTINUOUS
  0
ENDTAB
  0
TABLE
  2
STYLE
  5
3
330
0
100
AcDbSymbolTable
 70
     2
  0
STYLE
  5
11
330
3
100
AcDbSymbolTableRecord
100
AcDbTextStyleTableRecord
  2
STANDARD
 70
     0
 40
0.0
 41
1.0
 50
0.0
 71
     0
 42
0.2
  3
txt
  4

  0
STYLE
  5
22
330
3
100
AcDbSymbolTableRecord
100
AcDbTextStyleTableRecord
  2
BIGFONT
 70
     0
 40
0.0
 41
1.0
 50
0.0
 71
     0
 42
1.0
  3

  4
bigfont
  0
ENDTAB
  0
TABLE
  2
VIEW
  5
6
330
0
100
AcDbSymbolTable
 70
     0
  0
ENDTAB
  0
TABLE
  2
UCS
  5
7
330
0
100
AcDbSymbolTable
 70
     0
  0
ENDTAB
  0
TABLE
  2
APPID
  5
9
330
0
100
AcDbSymbolTable
 70
     1
  0
APPID
  5
12
330
9
100
AcDbSymbolTableRecord
100
AcDbRegAppTableRecord
  2
ACAD
 70
     0
  0
ENDTAB
  0
TABLE
  2
DIMSTYLE
  5
A
330
0
100
AcDbSymbolTable
 70
     1
  0
DIMSTYLE
105
6E8
330
A
100
AcDbSymbolTableRecord
100
AcDbDimStyleTableRecord
  2
STANDARD
 70
     0
  3

  4

  5

  6

  7

 40
1.0
 41
0.18
 42
0.0625
 43
0.38
 44
0.18
 45
0.0
 46
0.0
 47
0.0
 48
0.0
140
0.18
141
0.09
142
0.0
143
25.4
144
1.0
145
0.0
146
1.0
147
0.09
 71
     0
 72
     0
 73
     1
 74
     1
 75
     0
 76
     0
 77
     0
 78
     0
170
     0
171
     2
172
     0
173
     0
174
     0
175
     0
176
     0
177
     0
178
     0
270
     2
271
     4
272
     4
273
     2
274
     2
340
11
275
     0
280
     0
281
     0
282
     0
283
     1
284
     0
285
     0
286
     0
287
     3
288
     0
  0
ENDTAB
  0
TABLE
  2
BLOCK_RECORD
  5
1
330
0
100
AcDbSymbolTable
 70
     0
  0
BLOCK_RECORD
  5
1E
102
{ACAD_XDICTIONARY
360
82F
102
}
330
1
100
AcDbSymbolTableRecord
100
AcDbBlockTableRecord
  2
*MODEL_SPACE
  0
BLOCK_RECORD
  5
1A
102
{ACAD_XDICTIONARY
360
82D
102
}
330
1
100
AcDbSymbolTableRecord
100
AcDbBlockTableRecord
  2
*PAPER_SPACE
  0
ENDTAB
  0
ENDSEC
  0
SECTION
  2
BLOCKS
  0
BLOCK
  5
1F
330
1E
100
AcDbEntity
  8
0
100
AcDbBlockBegin
  2
*MODEL_SPACE
 70
     0
 10
0.0
 20
0.0
 30
0.0
  3
*MODEL_SPACE
  1

  0
ENDBLK
  5
20
330
1E
100
AcDbEntity
  8
0
100
AcDbBlockEnd
  0
BLOCK
  5
1B
330
1A
100
AcDbEntity
 67
     1
  8
0
100
AcDbBlockBegin
  2
*PAPER_SPACE
 70
     0
 10
0.0
 20
0.0
 30
0.0
  3
*PAPER_SPACE
  1

  0
ENDBLK
  5
1C
330
1A
100
AcDbEntity
 67
     1
  8
0
100
AcDbBlockEnd
  0
ENDSEC
  0
SECTION
  2
ENTITIES
  0
LINE
  5
2D
330
1E
100
AcDbEntity
  8
0
  6
CONTINUOUS
 62
     7
100
AcDbLine
 10
171.85143
 20
47.67463
 30
0.0
 11
171.85143
 21
130.70796
 31
0.0
  0
LINE
  5
2E
330
1E
100
AcDbEntity
  8
0
  6
CONTINUOUS
 62
     7
100
AcDbLine
 10
171.85143
 20
47.67463
 30
0.0
 11
240.1847599999999
 21
47.67463
 31
0.0
  0
LINE
  5
2F
330
1E
100
AcDbEntity
  8
0
  6
CONTINUOUS
 62
     7
100
AcDbLine
 10
171.85143
 20
130.70796
 30
0.0
 11
172.15143
 21
131.0079599999999
 31
0.0
  0
LINE
  5
30
330
1E
100
AcDbEntity
  8
0
  6
CONTINUOUS
 62
     7
100
AcDbLine
 10
177.2180999999999
 20
131.0079599999999
 30
0.0
 11
177.5181
 21
130.70796
 31
0.0
  0
LINE
  5
31
330
1E
100
AcDbEntity
  8
0
  6
CONTINUOUS
 62
     7
100
AcDbLine
 10
139.3514299999999
 20
47.67463
 30
0.0
 11
139.3514299999999
 21
131.0079599999999
 31
0.0
  0
LINE
  5
32
330
1E
100
AcDbEntity
  8
0
  6
CONTINUOUS
 62
     7
100
AcDbLine
 10
170.85143
 20
131.0079599999999
 30
0.0
 11
138.55143
 21
131.0079599999999
 31
0.0
  0
LINE
  5
33
330
1E
100
AcDbEntity
  8
0
  6
CONTINUOUS
 62
     7
100
AcDbLine
 10
170.85143
 20
47.67463
 30
0.0
 11
138.55143
 21
47.67463
 31
0.0
  0
LINE
  5
34
330
1E
100
AcDbEntity
  8
0
  6
CONTINUOUS
 62
     7
100
AcDbLine
 10
139.6725299999999
 20
129.8069999999997
 30
0.0
 11
139.351
 21
131.007
 31
0.0
  0
LINE
  5
35
330
1E
100
AcDbEntity
  8
0
  6
CONTINUOUS
 62
     7
100
AcDbLine
 10
139.351
 20
131.007
 30
0.0
 11
139.02946
 21
129.8069999999997
 31
0.0
  0
LINE
  5
36
330
1E
100
AcDbEntity
  8
0
  6
CONTINUOUS
 62
     7
100
AcDbLine
 10
139.02946
 20
48.87399999999999
 30
0.0
 11
139.351
 21
47.674
 31
0.0
  0
LINE
  5
37
330
1E
100
AcDbEntity
  8
0
  6
CONTINUOUS
 62
     7
100
AcDbLine
 10
139.351
 20
47.674
 30
0.0
 11
139.6725299999999
 21
48.87399999999999
 31
0.0
  0
TEXT
  5
38
330
1E
100
AcDbEntity
  8
0
  6
CONTINUOUS
 62
     7
100
AcDbText
 10
138.95143
 20
84.1413
 30
0.0
 40
3.2
  1
2500
 50
90.0
 41
0.8125
  7
BIGFONT
100
AcDbText
  0
LINE
  5
39
330
1E
100
AcDbEntity
  8
0
  6
CONTINUOUS
 62
     7
100
AcDbLine
 10
240.1847599999999
 20
117.67463
 30
0.0
 11
240.1847599999999
 21
131.0079599999999
 31
0.0
  0
LINE
  5
3A
330
1E
100
AcDbEntity
  8
0
  6
CONTINUOUS
 62
     7
100
AcDbLine
 10
240.08476
 20
117.5746299999999
 30
0.0
 11
240.1847599999999
 21
117.67463
 31
0.0
  0
LINE
  5
3B
330
1E
100
AcDbEntity
  8
0
  6
CONTINUOUS
 62
     7
100
AcDbLine
 10
240.08476
 20
66.77433
 30
0.0
 11
240.1847599999999
 21
66.67432999999999
 31
0.0
  0
LINE
  5
3C
330
1E
100
AcDbEntity
  8
0
  6
CONTINUOUS
 62
     7
100
AcDbLine
 10
240.08476
 20
66.77433
 30
0.0
 11
240.08476
 21
117.5746299999999
 31
0.0
  0
LINE
  5
3D
330
1E
100
AcDbEntity
  8
0
  6
CONTINUOUS
 62
     7
100
AcDbLine
 10
171.85143
 20
59.341
 30
0.0
 11
173.5179999999999
 21
59.341
 31
0.0
  0
LINE
  5
3E
330
1E
100
AcDbEntity
  8
0
  6
CONTINUOUS
 62
     7
100
AcDbLine
 10
173.5179999999999
 20
59.341
 30
0.0
 11
173.5179999999999
 21
66.67432999999999
 31
0.0
  0
LINE
  5
3F
330
1E
100
AcDbEntity
  8
0
  6
CONTINUOUS
 62
     7
100
AcDbLine
 10
170.0407299999999
 20
88.50796
 30
0.0
 11
173.9989999999997
 21
88.50796
 31
0.0
  0
LINE
  5
40
330
1E
100
AcDbEntity
  8
0
  6
CONTINUOUS
 62
     7
100
AcDbLine
 10
174.5408999999999
 20
88.50796
 30
0.0
 11
174.63513
 21
88.50796
 31
0.0
  0
LINE
  5
41
330
1E
100
AcDbEntity
  8
0
  6
CONTINUOUS
 62
     7
100
AcDbLine
 10
175.15346
 20
88.50796
 30
0.0
 11
178.7582999999999
 21
88.50796
 31
0.0
  0
LINE
  5
42
330
1E
100
AcDbEntity
  8
0
  6
CONTINUOUS
 62
     7
100
AcDbLine
 10
161.83333
 20
63.2875
 30
0.0
 11
161.83333
 21
119.9931999999999
 31
0.0
  0
LINE
  5
43
330
1E
100
AcDbEntity
  8
0
  6
CONTINUOUS
 62
     7
100
AcDbLine
 10
170.85143
 20
119.9931999999999
 30
0.0
 11
161.03333
 21
119.9931999999999
 31
0.0
  0
LINE
  5
44
330
1E
100
AcDbEntity
  8
0
  6
CONTINUOUS
 62
     7
100
AcDbLine
 10
170.85143
 20
63.2875
 30
0.0
 11
161.03333
 21
63.2875
 31
0.0
  0
LINE
  5
45
330
1E
100
AcDbEntity
  8
0
  6
CONTINUOUS
 62
     7
100
AcDbLine
 10
162.15453
 20
118.7929999999999
 30
0.0
 11
161.833
 21
119.9929999999999
 31
0.0
  0
LINE
  5
46
330
1E
100
AcDbEntity
  8
0
  6
CONTINUOUS
 62
     7
100
AcDbLine
 10
161.833
 20
119.9929999999999
 30
0.0
 11
161.51146
 21
118.7929999999999
 31
0.0
  0
LINE
  5
47
330
1E
100
AcDbEntity
  8
0
  6
CONTINUOUS
 62
     7
100
AcDbLine
 10
161.51146
 20
64.48699999999999
 30
0.0
 11
161.833
 21
63.287
 31
0.0
  0
LINE
  5
48
330
1E
100
AcDbEntity
  8
0
  6
CONTINUOUS
 62
     7
100
AcDbLine
 10
161.833
 20
63.287
 30
0.0
 11
162.15453
 21
64.48699999999999
 31
0.0
  0
TEXT
  5
49
330
1E
100
AcDbEntity
  8
0
  6
CONTINUOUS
 62
     7
100
AcDbText
 10
161.43333
 20
86.44035
 30
0.0
 40
3.2
  1
1700
 50
90.0
 41
0.8125
  7
BIGFONT
100
AcDbText
  0
LINE
  5
4A
330
1E
100
AcDbEntity
  8
0
  6
CONTINUOUS
 62
     7
100
AcDbLine
 10
161.83333
 20
119.9931999999999
 30
0.0
 11
161.83333
 21
131.0079599999999
 31
0.0
  0
LINE
  5
4B
330
1E
100
AcDbEntity
  8
0
  6
CONTINUOUS
 62
     7
100
AcDbLine
 10
163.72386
 20
131.0079599999999
 30
0.0
 11
161.03333
 21
131.0079599999999
 31
0.0
  0
LINE
  5
4C
330
1E
100
AcDbEntity
  8
0
  6
CONTINUOUS
 62
     7
100
AcDbLine
 10
162.15453
 20
129.8069999999997
 30
0.0
 11
161.833
 21
131.007
 31
0.0
  0
LINE
  5
4D
330
1E
100
AcDbEntity
  8
0
  6
CONTINUOUS
 62
     7
100
AcDbLine
 10
161.833
 20
131.007
 30
0.0
 11
161.51146
 21
129.8069999999997
 31
0.0
  0
LINE
  5
4E
330
1E
100
AcDbEntity
  8
0
  6
CONTINUOUS
 62
     7
100
AcDbLine
 10
161.51146
 20
121.1929999999999
 30
0.0
 11
161.833
 21
119.9929999999999
 31
0.0
  0
LINE
  5
4F
330
1E
100
AcDbEntity
  8
0
  6
CONTINUOUS
 62
     7
100
AcDbLine
 10
161.833
 20
119.9929999999999
 30
0.0
 11
162.15453
 21
121.1929999999999
 31
0.0
  0
TEXT
  5
50
330
1E
100
AcDbEntity
  8
0
  6
CONTINUOUS
 62
     7
100
AcDbText
 10
161.43333
 20
121.60058
 30
0.0
 40
3.2
  1
330
 50
90.0
 41
0.8125
  7
BIGFONT
100
AcDbText
  0
LINE
  5
51
330
1E
100
AcDbEntity
  8
0
  6
CONTINUOUS
 62
     7
100
AcDbLine
 10
154.33333
 20
47.67463
 30
0.0
 11
154.33333
 21
59.341
 31
0.0
  0
LINE
  5
52
330
1E
100
AcDbEntity
  8
0
  6
CONTINUOUS
 62
     7
100
AcDbLine
 10
170.85143
 20
59.341
 30
0.0
 11
153.53333
 21
59.341
 31
0.0
  0
LINE
  5
53
330
1E
100
AcDbEntity
  8
0
  6
CONTINUOUS
 62
     7
100
AcDbLine
 10
156.50003
 20
47.67463
 30
0.0
 11
153.53333
 21
47.67463
 31
0.0
  0
LINE
  5
54
330
1E
100
AcDbEntity
  8
0
  6
CONTINUOUS
 62
     7
100
AcDbLine
 10
154.65453
 20
58.14099999999999
 30
0.0
 11
154.333
 21
59.341
 31
0.0
  0
LINE
  5
55
330
1E
100
AcDbEntity
  8
0
  6
CONTINUOUS
 62
     7
100
AcDbLine
 10
154.333
 20
59.341
 30
0.0
 11
154.01146
 21
58.14099999999999
 31
0.0
  0
LINE
  5
56
330
1E
100
AcDbEntity
  8
0
  6
CONTINUOUS
 62
     7
100
AcDbLine
 10
154.01146
 20
48.87399999999999
 30
0.0
 11
154.333
 21
47.674
 31
0.0
  0
LINE
  5
57
330
1E
100
AcDbEntity
  8
0
  6
CONTINUOUS
 62
     7
100
AcDbLine
 10
154.333
 20
47.674
 30
0.0
 11
154.65453
 21
48.87399999999999
 31
0.0
  0
TEXT
  5
58
330
1E
100
AcDbEntity
  8
0
  6
CONTINUOUS
 62
     7
100
AcDbText
 10
153.93333
 20
49.60781
 30
0.0
 40
3.2
  1
350
 50
90.0
 41
0.8125
  7
BIGFONT
100
AcDbText
  0
LINE
  5
59
330
1E
100
AcDbEntity
  8
0
  6
CONTINUOUS
 62
     7
100
AcDbLine
 10
154.33333
 20
59.341
 30
0.0
 11
154.33333
 21
66.61109999999999
 31
0.0
  0
LINE
  5
5A
330
1E
100
AcDbEntity
  8
0
  6
CONTINUOUS
 62
     7
100
AcDbLine
 10
158.76196
 20
66.61109999999999
 30
0.0
 11
153.53333
 21
66.61109999999999
 31
0.0
  0
LINE
  5
5B
330
1E
100
AcDbEntity
  8
0
  6
CONTINUOUS
 62
     7
100
AcDbLine
 10
154.65453
 20
65.411
 30
0.0
 11
154.333
 21
66.61100000000001
 31
0.0
  0
LINE
  5
5C
330
1E
100
AcDbEntity
  8
0
  6
CONTINUOUS
 62
     7
100
AcDbLine
 10
154.333
 20
66.61100000000001
 30
0.0
 11
154.01146
 21
65.411
 31
0.0
  0
LINE
  5
5D
330
1E
100
AcDbEntity
  8
0
  6
CONTINUOUS
 62
     7
100
AcDbLine
 10
154.01146
 20
60.541
 30
0.0
 11
154.333
 21
59.341
 31
0.0
  0
LINE
  5
5E
330
1E
100
AcDbEntity
  8
0
  6
CONTINUOUS
 62
     7
100
AcDbLine
 10
154.333
 20
59.341
 30
0.0
 11
154.65453
 21
60.541
 31
0.0
  0
TEXT
  5
5F
330
1E
100
AcDbEntity
  8
0
  6
CONTINUOUS
 62
     7
100
AcDbText
 10
157.93333
 20
59.07605
 30
0.0
 40
3.2
  1
220
 50
90.0
 41
0.8125
  7
BIGFONT
100
AcDbText
  0
LINE
  5
60
330
1E
100
AcDbEntity
  8
0
  6
CONTINUOUS
 62
     7
100
AcDbLine
 10
154.33333
 20
66.61109999999999
 30
0.0
 11
154.33333
 21
117.67463
 31
0.0
  0
LINE
  5
61
330
1E
100
AcDbEntity
  8
0
  6
CONTINUOUS
 62
     7
100
AcDbLine
 10
158.83736
 20
117.67463
 30
0.0
 11
153.53333
 21
117.67463
 31
0.0
  0
LINE
  5
62
330
1E
100
AcDbEntity
  8
0
  6
CONTINUOUS
 62
     7
100
AcDbLine
 10
154.65453
 20
116.4739999999998
 30
0.0
 11
154.333
 21
117.6739999999999
 31
0.0
  0
LINE
  5
63
330
1E
100
AcDbEntity
  8
0
  6
CONTINUOUS
 62
     7
100
AcDbLine
 10
154.333
 20
117.6739999999999
 30
0.0
 11
154.01146
 21
116.4739999999998
 31
0.0
  0
LINE
  5
64
330
1E
100
AcDbEntity
  8
0
  6
CONTINUOUS
 62
     7
100
AcDbLine
 10
154.01146
 20
67.81100000000001
 30
0.0
 11
154.333
 21
66.61100000000001
 31
0.0
  0
LINE
  5
65
330
1E
100
AcDbEntity
  8
0
  6
CONTINUOUS
 62
     7
100
AcDbLine
 10
154.333
 20
66.61100000000001
 30
0.0
 11
154.65453
 21
67.81100000000001
 31
0.0
  0
TEXT
  5
66
330
1E
100
AcDbEntity
  8
0
  6
CONTINUOUS
 62
     7
100
AcDbText
 10
153.93333
 20
86.94285999999998
 30
0.0
 40
3.2
  1
1530
 50
90.0
 41
0.8125
  7
BIGFONT
100
AcDbText
  0
LINE
  5
67
330
1E
100
AcDbEntity
  8
0
  6
CONTINUOUS
 62
     7
100
AcDbLine
 10
154.33333
 20
117.67463
 30
0.0
 11
154.33333
 21
131.0079599999999
 31
0.0
  0
LINE
  5
68
330
1E
100
AcDbEntity
  8
0
  6
CONTINUOUS
 62
     7
100
AcDbLine
 10
155.9722299999999
 20
131.0079599999999
 30
0.0
 11
153.53333
 21
131.0079599999999
 31
0.0
  0
LINE
  5
69
330
1E
100
AcDbEntity
  8
0
  6
CONTINUOUS
 62
     7
100
AcDbLine
 10
154.65453
 20
129.8069999999997
 30
0.0
 11
154.333
 21
131.007
 31
0.0
  0
LINE
  5
6A
330
1E
100
AcDbEntity
  8
0
  6
CONTINUOUS
 62
     7
100
AcDbLine
 10
154.333
 20
131.007
 30
0.0
 11
154.01146
 21
129.8069999999997
 31
0.0
  0
LINE
  5
6B
330
1E
100
AcDbEntity
  8
0
  6
CONTINUOUS
 62
     7
100
AcDbLine
 10
154.01146
 20
118.8739999999999
 30
0.0
 11
154.333
 21
117.6739999999999
 31
0.0
  0
LINE
  5
6C
330
1E
100
AcDbEntity
  8
0
  6
CONTINUOUS
 62
     7
100
AcDbLine
 10
154.333
 20
117.6739999999999
 30
0.0
 11
154.65453
 21
118.8739999999999
 31
0.0
  0
TEXT
  5
6D
330
1E
100
AcDbEntity
  8
0
  6
CONTINUOUS
 62
     7
100
AcDbText
 10
153.93333
 20
120.4412999999999
 30
0.0
 40
3.2
  1
400
 50
90.0
 41
0.8125
  7
BIGFONT
100
AcDbText
  0
LINE
  5
6E
330
1E
100
AcDbEntity
  8
0
  6
CONTINUOUS
 62
     7
100
AcDbLine
 10
163.87616
 20
117.67463
 30
0.0
 11
170.8977999999999
 21
117.67463
 31
0.0
  0
LINE
  5
6F
330
1E
100
AcDbEntity
  8
0
  6
CONTINUOUS
 62
     7
100
AcDbLine
 10
163.87616
 20
66.67463000000001
 30
0.0
 11
170.8977999999999
 21
66.67463000000001
 31
0.0
  0
LINE
  5
70
330
1E
100
AcDbEntity
  8
0
  6
CONTINUOUS
 62
     7
100
AcDbLine
 10
156.08283
 20
53.3413
 30
0.0
 11
170.88843
 21
53.3413
 31
0.0
  0
LINE
  5
71
330
1E
100
AcDbEntity
  8
0
  6
CONTINUOUS
 62
     7
100
AcDbLine
 10
201.85133
 20
37.67463
 30
0.0
 11
226.85143
 21
37.67463
 31
0.0
  0
LINE
  5
72
330
1E
100
AcDbEntity
  8
0
  6
CONTINUOUS
 62
     7
100
AcDbLine
 10
226.85143
 20
37.67463
 30
0.0
 11
226.85143
 21
36.87462999999999
 31
0.0
  0
LINE
  5
73
330
1E
100
AcDbEntity
  8
0
  6
CONTINUOUS
 62
     7
100
AcDbLine
 10
201.85133
 20
46.67463
 30
0.0
 11
201.85133
 21
36.87462999999999
 31
0.0
  0
LINE
  5
74
330
1E
100
AcDbEntity
  8
0
  6
CONTINUOUS
 62
     7
100
AcDbLine
 10
225.651
 20
37.35246
 30
0.0
 11
226.851
 21
37.674
 31
0.0
  0
LINE
  5
75
330
1E
100
AcDbEntity
  8
0
  6
CONTINUOUS
 62
     7
100
AcDbLine
 10
226.851
 20
37.674
 30
0.0
 11
225.651
 21
37.99553
 31
0.0
  0
LINE
  5
76
330
1E
100
AcDbEntity
  8
0
  6
CONTINUOUS
 62
     7
100
AcDbLine
 10
203.051
 20
37.99553
 30
0.0
 11
201.851
 21
37.674
 31
0.0
  0
LINE
  5
77
330
1E
100
AcDbEntity
  8
0
  6
CONTINUOUS
 62
     7
100
AcDbLine
 10
201.851
 20
37.674
 30
0.0
 11
203.051
 21
37.35246
 31
0.0
  0
TEXT
  5
78
330
1E
100
AcDbEntity
  8
0
  6
CONTINUOUS
 62
     7
100
AcDbText
 10
210.4513799999998
 20
38.07463
 30
0.0
 40
3.2
  1
750
 41
0.8125
  7
BIGFONT
100
AcDbText
  0
LINE
  5
79
330
1E
100
AcDbEntity
  8
0
  6
CONTINUOUS
 62
     7
100
AcDbLine
 10
186.8527
 20
88.50796
 30
0.0
 11
193.49936
 21
88.50796
 31
0.0
  0
CIRCLE
  5
7A
330
1E
100
AcDbEntity
  8
0
  6
CONTINUOUS
 62
     7
100
AcDbCircle
 10
190.18476
 20
88.51295999999996
 30
0.0
 40
1.25
  0
LINE
  5
7B
330
1E
100
AcDbEntity
  8
0
  6
CONTINUOUS
 62
     7
100
AcDbLine
 10
190.18476
 20
85.25795999999997
 30
0.0
 11
190.18476
 21
91.90462999999999
 31
0.0
  0
LINE
  5
7C
330
1E
100
AcDbEntity
  8
0
  6
CONTINUOUS
 62
     7
100
AcDbLine
 10
220.1860299999999
 20
88.50796
 30
0.0
 11
226.8326999999999
 21
88.50796
 31
0.0
  0
CIRCLE
  5
7D
330
1E
100
AcDbEntity
  8
0
  6
CONTINUOUS
 62
     7
100
AcDbCircle
 10
223.5181
 20
88.51295999999996
 30
0.0
 40
1.25
  0
LINE
  5
7E
330
1E
100
AcDbEntity
  8
0
  6
CONTINUOUS
 62
     7
100
AcDbLine
 10
223.5181
 20
85.25795999999997
 30
0.0
 11
223.5181
 21
91.90462999999999
 31
0.0
  0
LINE
  5
7F
330
1E
100
AcDbEntity
  8
0
  6
HIDDEN
 62
     7
100
AcDbLine
 10
171.85143
 20
89.75796
 30
0.0
 11
177.42656
 21
89.75655999999998
 31
0.0
  0
LINE
  5
80
330
1E
100
AcDbEntity
  8
0
  6
HIDDEN
 62
     7
100
AcDbLine
 10
171.85143
 20
87.25796
 30
0.0
 11
177.51816
 21
87.2572
 31
0.0
  0
LINE
  5
81
330
1E
100
AcDbEntity
  8
3
  6
CONTINUOUS
 62
     7
100
AcDbLine
 10
169.449
 20
-192.479
 30
0.0
 11
169.449
 21
-142.4789999999999
 31
0.0
  0
LINE
  5
82
330
1E
100
AcDbEntity
  8
3
  6
CONTINUOUS
 62
     7
100
AcDbLine
 10
169.449
 20
-192.479
 30
0.0
 11
169.449
 21
-142.4789999999999
 31
0.0
  0
LINE
  5
83
330
1E
100
AcDbEntity
  8
3
  6
CONTINUOUS
 62
     7
100
AcDbLine
 10
169.449
 20
-192.479
 30
0.0
 11
169.449
 21
-142.4789999999999
 31
0.0
  0
LINE
  5
84
330
1E
100
AcDbEntity
  8
3
  6
CONTINUOUS
 62
     7
100
AcDbLine
 10
169.449
 20
-192.479
 30
0.0
 11
169.449
 21
-142.4789999999999
 31
0.0
  0
LINE
  5
85
330
1E
100
AcDbEntity
  8
3
  6
CONTINUOUS
 62
     7
100
AcDbLine
 10
169.449
 20
-192.479
 30
0.0
 11
169.449
 21
-142.4789999999999
 31
0.0
  0
LINE
  5
86
330
1E
100
AcDbEntity
  8
3
  6
CONTINUOUS
 62
     7
100
AcDbLine
 10
169.449
 20
-192.479
 30
0.0
 11
169.449
 21
-142.4789999999999
 31
0.0
  0
LINE
  5
87
330
1E
100
AcDbEntity
  8
3
  6
CONTINUOUS
 62
     7
100
AcDbLine
 10
169.449
 20
-142.4789999999999
 30
0.0
 11
269.449
 21
-142.4789999999999
 31
0.0
  0
LINE
  5
88
330
1E
100
AcDbEntity
  8
3
  6
CONTINUOUS
 62
     7
100
AcDbLine
 10
269.449
 20
-192.479
 30
0.0
 11
269.449
 21
-142.4789999999999
 31
0.0
  0
LINE
  5
89
330
1E
100
AcDbEntity
  8
3
  6
CONTINUOUS
 62
     7
100
AcDbLine
 10
169.449
 20
-192.479
 30
0.0
 11
269.449
 21
-192.479
 31
0.0
  0
LINE
  5
8A
330
1E
100
AcDbEntity
  8
3
  6
CONTINUOUS
 62
     7
100
AcDbLine
 10
169.449
 20
-192.479
 30
0.0
 11
169.449
 21
-142.4789999999999
 31
0.0
  0
LINE
  5
8B
330
1E
100
AcDbEntity
  8
3
  6
CONTINUOUS
 62
     7
100
AcDbLine
 10
169.449
 20
-192.479
 30
0.0
 11
269.449
 21
-192.479
 31
0.0
  0
LINE
  5
8C
330
1E
100
AcDbEntity
  8
3
  6
CONTINUOUS
 62
     7
100
AcDbLine
 10
169.449
 20
-192.479
 30
0.0
 11
169.449
 21
-142.4789999999999
 31
0.0
  0
LINE
  5
8D
330
1E
100
AcDbEntity
  8
3
  6
CONTINUOUS
 62
     7
100
AcDbLine
 10
169.449
 20
-152.4789999999998
 30
0.0
 11
269.449
 21
-152.4789999999998
 31
0.0
  0
LINE
  5
8E
330
1E
100
AcDbEntity
  8
3
  6
CONTINUOUS
 62
     7
100
AcDbLine
 10
169.449
 20
-160.4789999999999
 30
0.0
 11
269.449
 21
-160.4789999999999
 31
0.0
  0
LINE
  5
8F
330
1E
100
AcDbEntity
  8
3
  6
CONTINUOUS
 62
     7
100
AcDbLine
 10
169.449
 20
-168.479
 30
0.0
 11
269.449
 21
-168.479
 31
0.0
  0
LINE
  5
90
330
1E
100
AcDbEntity
  8
3
  6
CONTINUOUS
 62
     7
100
AcDbLine
 10
169.449
 20
-181.479
 30
0.0
 11
269.449
 21
-181.479
 31
0.0
  0
LINE
  5
91
330
1E
100
AcDbEntity
  8
3
  6
CONTINUOUS
 62
     7
100
AcDbLine
 10
196.4489999999999
 20
-181.479
 30
0.0
 11
196.4489999999999
 21
-142.4789999999999
 31
0.0
  0
LINE
  5
92
330
1E
100
AcDbEntity
  8
3
  6
CONTINUOUS
 62
     7
100
AcDbLine
 10
189.449
 20
-181.479
 30
0.0
 11
189.449
 21
-168.479
 31
0.0
  0
LINE
  5
93
330
1E
100
AcDbEntity
  8
3
  6
CONTINUOUS
 62
     7
100
AcDbLine
 10
176.449
 20
-181.479
 30
0.0
 11
176.449
 21
-168.479
 31
0.0
  0
LINE
  5
94
330
1E
100
AcDbEntity
  8
3
  6
CONTINUOUS
 62
     7
100
AcDbLine
 10
209.4489999999999
 20
-181.479
 30
0.0
 11
209.4489999999999
 21
-168.479
 31
0.0
  0
LINE
  5
95
330
1E
100
AcDbEntity
  8
3
  6
CONTINUOUS
 62
     7
100
AcDbLine
 10
216.449
 20
-181.479
 30
0.0
 11
216.449
 21
-168.479
 31
0.0
  0
LINE
  5
96
330
1E
100
AcDbEntity
  8
3
  6
CONTINUOUS
 62
     7
100
AcDbLine
 10
229.449
 20
-181.479
 30
0.0
 11
229.449
 21
-168.479
 31
0.0
  0
LINE
  5
97
330
1E
100
AcDbEntity
  8
3
  6
CONTINUOUS
 62
     7
100
AcDbLine
 10
236.4489999999999
 20
-181.479
 30
0.0
 11
236.4489999999999
 21
-168.479
 31
0.0
  0
LINE
  5
98
330
1E
100
AcDbEntity
  8
3
  6
CONTINUOUS
 62
     7
100
AcDbLine
 10
249.449
 20
-181.479
 30
0.0
 11
249.449
 21
-168.479
 31
0.0
  0
LINE
  5
99
330
1E
100
AcDbEntity
  8
3
  6
CONTINUOUS
 62
     7
100
AcDbLine
 10
256.449
 20
-181.479
 30
0.0
 11
256.449
 21
-168.479
 31
0.0
  0
LINE
  5
9A
330
1E
100
AcDbEntity
  8
3
  6
CONTINUOUS
 62
     7
100
AcDbLine
 10
221.449
 20
-160.4789999999999
 30
0.0
 11
221.449
 21
-152.4789999999998
 31
0.0
  0
LINE
  5
9B
330
1E
100
AcDbEntity
  8
3
  6
CONTINUOUS
 62
     7
100
AcDbLine
 10
244.449
 20
-160.4789999999999
 30
0.0
 11
244.449
 21
-152.4789999999998
 31
0.0
  0
TEXT
  5
9C
330
1E
100
AcDbEntity
  8
3
  6
CONTINUOUS
 62
     7
100
AcDbText
 10
172.764
 20
-150.3429999999999
 30
0.0
 40
5.0
  1
図面名
  7
BIGFONT
100
AcDbText
  0
TEXT
  5
9D
330
1E
100
AcDbEntity
  8
3
  6
CONTINUOUS
 62
     7
100
AcDbText
 10
173.2439999999999
 20
-158.705
 30
0.0
 40
4.0
  1
縮尺
  7
BIGFONT
100
AcDbText
  0
TEXT
  5
9E
330
1E
100
AcDbEntity
  8
3
  6
CONTINUOUS
 62
     7
100
AcDbText
 10
223.68
 20
-158.609
 30
0.0
 40
4.0
  1
図面番号
  7
BIGFONT
100
AcDbText
  0
TEXT
  5
9F
330
1E
100
AcDbEntity
  8
3
  6
CONTINUOUS
 62
     7
100
AcDbText
 10
173.052
 20
-166.683
 30
0.0
 40
4.0
  1
設計年月日
  7
BIGFONT
100
AcDbText
  0
TEXT
  5
A0
330
1E
100
AcDbEntity
  8
3
  6
CONTINUOUS
 62
     7
100
AcDbText
 10
205.139
 20
-166.683
 30
0.0
 40
4.0
  1
平成　　年　　月　　日
  7
BIGFONT
100
AcDbText
  0
TEXT
  5
A1
330
1E
100
AcDbEntity
  8
3
  6
CONTINUOUS
 62
     7
100
AcDbText
 10
190.9917885542754
 20
-190.4129999999999
 30
0.0
 40
6.0
  1
千葉窯業株式会社
  7
BIGFONT
100
AcDbText
  0
TEXT
  5
A2
330
1E
100
AcDbEntity
  8
3
  6
CONTINUOUS
 62
     7
100
AcDbText
 10
171.1309999999999
 20
-170.24
 30
0.0
 40
4.0
  1
部長
 50
270.0
  7
BIGFONT
100
AcDbText
  0
TEXT
  5
A3
330
1E
100
AcDbEntity
  8
3
  6
CONTINUOUS
 62
     7
100
AcDbText
 10
191.1129999999999
 20
-170.24
 30
0.0
 40
4.0
  1
課長
 50
270.0
  7
BIGFONT
100
AcDbText
  0
TEXT
  5
A4
330
1E
100
AcDbEntity
  8
3
  6
CONTINUOUS
 62
     7
100
AcDbText
 10
211.0949999999998
 20
-170.24
 30
0.0
 40
4.0
  1
検図
 50
270.0
  7
BIGFONT
100
AcDbText
  0
TEXT
  5
A5
330
1E
100
AcDbEntity
  8
3
  6
CONTINUOUS
 62
     7
100
AcDbText
 10
231.2699999999999
 20
-170.24
 30
0.0
 40
4.0
  1
設計
 50
270.0
  7
BIGFONT
100
AcDbText
  0
TEXT
  5
A6
330
1E
100
AcDbEntity
  8
3
  6
CONTINUOUS
 62
     7
100
AcDbText
 10
251.1559999999999
 20
-170.144
 30
0.0
 40
4.0
  1
製図
 50
270.0
  7
BIGFONT
100
AcDbText
  0
LINE
  5
A7
330
1E
100
AcDbEntity
  8
3
  6
CONTINUOUS
 62
     7
100
AcDbLine
 10
169.449
 20
-192.479
 30
0.0
 11
269.449
 21
-192.479
 31
0.0
  0
LINE
  5
A8
330
1E
100
AcDbEntity
  8
3
  6
CONTINUOUS
 62
     7
100
AcDbLine
 10
169.449
 20
-192.479
 30
0.0
 11
169.449
 21
-142.4789999999999
 31
0.0
  0
TEXT
  5
B8
330
1E
100
AcDbEntity
  8
3
  6
CONTINUOUS
 62
     7
100
AcDbText
 10
219.584
 20
-166.71
 30
0.0
 40
3.799999999999998
  1
３
  7
BIGFONT
100
AcDbText
  0
TEXT
  5
B9
330
1E
100
AcDbEntity
  8
3
  6
CONTINUOUS
 62
     7
100
AcDbText
 10
234.8819999999999
 20
-166.7109999999999
 30
0.0
 40
3.799999999999998
  1
６
  7
BIGFONT
100
AcDbText
  0
TEXT
  5
BA
330
1E
100
AcDbEntity
  8
3
  6
CONTINUOUS
 62
     7
100
AcDbText
 10
250.214
 20
-166.7259999999999
 30
0.0
 40
3.799999999999998
  1
１
  7
BIGFONT
100
AcDbText
  0
TEXT
  5
BB
330
1E
100
AcDbEntity
  8
3
  6
CONTINUOUS
 62
     7
100
AcDbText
 10
202.258
 20
-158.847
 30
0.0
 40
4.0
  1
１：３０
  7
BIGFONT
100
AcDbText
  0
LINE
  5
BC
330
1E
100
AcDbEntity
  8
0
  6
CONTINUOUS
 62
     7
100
AcDbLine
 10
-270.82566
 20
193.8241999999999
 30
0.0
 11
270.8488299999999
 21
193.8241999999999
 31
0.0
  0
LINE
  5
BD
330
1E
100
AcDbEntity
  8
0
  6
CONTINUOUS
 62
     7
100
AcDbLine
 10
270.8488299999999
 20
-193.88633
 30
0.0
 11
270.8488299999999
 21
193.8241999999999
 31
0.0
  0
LINE
  5
BE
330
1E
100
AcDbEntity
  8
0
  6
CONTINUOUS
 62
     7
100
AcDbLine
 10
-270.82566
 20
-193.88633
 30
0.0
 11
270.8488299999999
 21
-193.88633
 31
0.0
  0
LINE
  5
BF
330
1E
100
AcDbEntity
  8
0
  6
CONTINUOUS
 62
     7
100
AcDbLine
 10
-270.82566
 20
-193.88633
 30
0.0
 11
-270.82566
 21
193.8241999999999
 31
0.0
  0
TEXT
  5
C0
330
1E
100
AcDbEntity
  8
0
  6
CONTINUOUS
 62
     7
100
AcDbText
 10
121.7961999999999
 20
175.59803
 30
0.0
 40
5.5
  1
Ｓ＝１：３０
  7
BIGFONT
100
AcDbText
  0
TEXT
  5
C1
330
1E
100
AcDbEntity
  8
0
  6
CONTINUOUS
 62
     7
100
AcDbText
 10
-154.39106
 20
174.8109999999999
 30
0.0
 40
10.0
  1
ＫＬウォール３型．コーナー部構造図
  7
BIGFONT
100
AcDbText
  0
LINE
  5
C2
330
1E
100
AcDbEntity
  8
0
  6
CONTINUOUS
 62
     7
100
AcDbLine
 10
-158.7709
 20
172.5710999999999
 30
0.0
 11
158.7849999999999
 21
172.5710999999999
 31
0.0
  0
TEXT
  5
C3
330
1E
100
AcDbEntity
  8
0
  6
CONTINUOUS
 62
     7
100
AcDbText
 10
53.5166987712023
 20
175.5454999999999
 30
0.0
 40
6.5
  1
(H=2500-90°)
 41
0.9
  7
BIGFONT
100
AcDbText
  0
TEXT
  5
C4
330
1E
100
AcDbEntity
  8
0
  6
CONTINUOUS
 62
     7
100
AcDbText
 10
192.284779750563
 20
157.18303
 30
0.0
 40
6.2
  1
側面図
  7
BIGFONT
100
AcDbText
  0
LINE
  5
C5
330
1E
100
AcDbEntity
  8
0
  6
CONTINUOUS
 62
     7
100
AcDbLine
 10
190.2683599999999
 20
156.23546
 30
0.0
 11
216.7751299999999
 21
156.23546
 31
0.0
  0
LINE
  5
C6
330
1E
100
AcDbEntity
  8
0
  6
CONTINUOUS
 62
     7
100
AcDbLine
 10
190.19876
 20
-10.22866
 30
0.0
 11
216.7055299999999
 21
-10.22866
 31
0.0
  0
TEXT
  5
C7
330
1E
100
AcDbEntity
  8
0
  6
CONTINUOUS
 62
     7
100
AcDbText
 10
192.3001926619701
 20
-9.22323
 30
0.0
 40
6.2
  1
平面図
  7
BIGFONT
100
AcDbText
  0
LINE
  5
C8
330
1E
100
AcDbEntity
  8
0
  6
CONTINUOUS
 62
     7
100
AcDbLine
 10
240.1847599999999
 20
47.67463
 30
0.0
 11
240.1847599999999
 21
53.3413
 31
0.0
  0
LINE
  5
C9
330
1E
100
AcDbEntity
  8
0
  6
CONTINUOUS
 62
     7
100
AcDbLine
 10
177.5181
 20
58.3413
 30
0.0
 11
177.5181
 21
130.70796
 31
0.0
  0
LINE
  5
CA
330
1E
100
AcDbEntity
  8
0
  6
CONTINUOUS
 62
     7
100
AcDbLine
 10
177.5181
 20
58.3413
 30
0.0
 11
182.5181
 21
53.3413
 31
0.0
  0
LINE
  5
CB
330
1E
100
AcDbEntity
  8
0
  6
CONTINUOUS
 62
     7
100
AcDbLine
 10
182.5181
 20
53.3413
 30
0.0
 11
240.1847599999999
 21
53.3413
 31
0.0
  0
LINE
  5
CC
330
1E
100
AcDbEntity
  8
0
  6
CONTINUOUS
 62
     7
100
AcDbLine
 10
171.8491999999999
 20
147.67463
 30
0.0
 11
177.5140299999999
 21
147.67463
 31
0.0
  0
LINE
  5
CD
330
1E
100
AcDbEntity
  8
0
  6
CONTINUOUS
 62
     7
100
AcDbLine
 10
177.5140299999999
 20
132.0173
 30
0.0
 11
177.5140299999999
 21
148.4746299999999
 31
0.0
  0
LINE
  5
CE
330
1E
100
AcDbEntity
  8
0
  6
CONTINUOUS
 62
     7
100
AcDbLine
 10
171.8491999999999
 20
132.0079599999999
 30
0.0
 11
171.8491999999999
 21
148.4746299999999
 31
0.0
  0
LINE
  5
CF
330
1E
100
AcDbEntity
  8
0
  6
CONTINUOUS
 62
     7
100
AcDbLine
 10
176.3139999999999
 20
147.35246
 30
0.0
 11
177.514
 21
147.674
 31
0.0
  0
LINE
  5
D0
330
1E
100
AcDbEntity
  8
0
  6
CONTINUOUS
 62
     7
100
AcDbLine
 10
177.514
 20
147.674
 30
0.0
 11
176.3139999999999
 21
147.99553
 31
0.0
  0
LINE
  5
D1
330
1E
100
AcDbEntity
  8
0
  6
CONTINUOUS
 62
     7
100
AcDbLine
 10
173.049
 20
147.99553
 30
0.0
 11
171.8489999999999
 21
147.674
 31
0.0
  0
LINE
  5
D2
330
1E
100
AcDbEntity
  8
0
  6
CONTINUOUS
 62
     7
100
AcDbLine
 10
171.8489999999999
 20
147.674
 30
0.0
 11
173.049
 21
147.35246
 31
0.0
  0
TEXT
  5
D3
330
1E
100
AcDbEntity
  8
0
  6
CONTINUOUS
 62
     7
100
AcDbText
 10
170.78161
 20
148.07463
 30
0.0
 40
3.2
  1
170
 41
0.8125
  7
BIGFONT
100
AcDbText
  0
LINE
  5
D4
330
1E
100
AcDbEntity
  8
0
  6
CONTINUOUS
 62
     7
100
AcDbLine
 10
171.85143
 20
-104.34533
 30
0.0
 11
171.85143
 21
-36.012
 31
0.0
  0
LINE
  5
D5
330
1E
100
AcDbEntity
  8
0
  6
CONTINUOUS
 62
     7
100
AcDbLine
 10
171.85143
 20
-36.012
 30
0.0
 11
240.1847599999999
 21
-36.012
 31
0.0
  0
LINE
  5
D6
330
1E
100
AcDbEntity
  8
0
  6
CONTINUOUS
 62
     7
100
AcDbLine
 10
171.85143
 20
-104.34533
 30
0.0
 11
226.85143
 21
-104.34533
 31
0.0
  0
LINE
  5
D7
330
1E
100
AcDbEntity
  8
0
  6
CONTINUOUS
 62
     7
100
AcDbLine
 10
182.5181
 20
-104.34533
 30
0.0
 11
182.5181
 21
-52.67866
 31
0.0
  0
LINE
  5
D8
330
1E
100
AcDbEntity
  8
0
  6
CONTINUOUS
 62
     7
100
AcDbLine
 10
177.5181
 20
-52.67866
 30
0.0
 11
182.5181
 21
-52.67866
 31
0.0
  0
LINE
  5
D9
330
1E
100
AcDbEntity
  8
0
  6
CONTINUOUS
 62
     7
100
AcDbLine
 10
188.5181
 20
-46.67866
 30
0.0
 11
240.1847599999999
 21
-46.67866
 31
0.0
  0
LINE
  5
DA
330
1E
100
AcDbEntity
  8
0
  6
CONTINUOUS
 62
     7
100
AcDbLine
 10
188.5181
 20
-46.67866
 30
0.0
 11
188.5181
 21
-41.67866
 31
0.0
  0
LINE
  5
DB
330
1E
100
AcDbEntity
  8
0
  6
CONTINUOUS
 62
     7
100
AcDbLine
 10
171.85143
 20
-121.8453299999999
 30
0.0
 11
226.85143
 21
-121.8453299999999
 31
0.0
  0
LINE
  5
DC
330
1E
100
AcDbEntity
  8
0
  6
CONTINUOUS
 62
     7
100
AcDbLine
 10
226.85143
 20
-105.34533
 30
0.0
 11
226.85143
 21
-122.6453299999999
 31
0.0
  0
LINE
  5
DD
330
1E
100
AcDbEntity
  8
0
  6
CONTINUOUS
 62
     7
100
AcDbLine
 10
171.85143
 20
-105.34533
 30
0.0
 11
171.85143
 21
-122.6453299999999
 31
0.0
  0
LINE
  5
DE
330
1E
100
AcDbEntity
  8
0
  6
CONTINUOUS
 62
     7
100
AcDbLine
 10
225.651
 20
-122.16653
 30
0.0
 11
226.851
 21
-121.845
 31
0.0
  0
LINE
  5
DF
330
1E
100
AcDbEntity
  8
0
  6
CONTINUOUS
 62
     7
100
AcDbLine
 10
226.851
 20
-121.845
 30
0.0
 11
225.651
 21
-121.52346
 31
0.0
  0
LINE
  5
E0
330
1E
100
AcDbEntity
  8
0
  6
CONTINUOUS
 62
     7
100
AcDbLine
 10
173.0509999999999
 20
-121.52346
 30
0.0
 11
171.851
 21
-121.845
 31
0.0
  0
LINE
  5
E1
330
1E
100
AcDbEntity
  8
0
  6
CONTINUOUS
 62
     7
100
AcDbLine
 10
171.851
 20
-121.845
 30
0.0
 11
173.0509999999999
 21
-122.16653
 31
0.0
  0
TEXT
  5
E2
330
1E
100
AcDbEntity
  8
0
  6
CONTINUOUS
 62
     7
100
AcDbText
 10
194.15143
 20
-121.4453299999999
 30
0.0
 40
3.2
  1
1650
 41
0.8125
  7
BIGFONT
100
AcDbText
  0
LINE
  5
E3
330
1E
100
AcDbEntity
  8
0
  6
CONTINUOUS
 62
     7
100
AcDbLine
 10
171.85143
 20
-114.34533
 30
0.0
 11
177.5181
 21
-114.34533
 31
0.0
  0
LINE
  5
E4
330
1E
100
AcDbEntity
  8
0
  6
CONTINUOUS
 62
     7
100
AcDbLine
 10
177.5181
 20
-105.34533
 30
0.0
 11
177.5181
 21
-115.14533
 31
0.0
  0
LINE
  5
E5
330
1E
100
AcDbEntity
  8
0
  6
CONTINUOUS
 62
     7
100
AcDbLine
 10
171.85143
 20
-112.9501
 30
0.0
 11
171.85143
 21
-115.14533
 31
0.0
  0
LINE
  5
E6
330
1E
100
AcDbEntity
  8
0
  6
CONTINUOUS
 62
     7
100
AcDbLine
 10
176.318
 20
-114.66653
 30
0.0
 11
177.5179999999999
 21
-114.345
 31
0.0
  0
LINE
  5
E7
330
1E
100
AcDbEntity
  8
0
  6
CONTINUOUS
 62
     7
100
AcDbLine
 10
177.5179999999999
 20
-114.345
 30
0.0
 11
176.318
 21
-114.02346
 31
0.0
  0
LINE
  5
E8
330
1E
100
AcDbEntity
  8
0
  6
CONTINUOUS
 62
     7
100
AcDbLine
 10
173.0509999999999
 20
-114.02346
 30
0.0
 11
171.851
 21
-114.345
 31
0.0
  0
LINE
  5
E9
330
1E
100
AcDbEntity
  8
0
  6
CONTINUOUS
 62
     7
100
AcDbLine
 10
171.851
 20
-114.345
 30
0.0
 11
173.0509999999999
 21
-114.66653
 31
0.0
  0
TEXT
  5
EA
330
1E
100
AcDbEntity
  8
0
  6
CONTINUOUS
 62
     7
100
AcDbText
 10
172.2396002445659
 20
-113.94533
 30
0.0
 40
3.2
  1
170
 41
0.8125
  7
BIGFONT
100
AcDbText
  0
LINE
  5
EB
330
1E
100
AcDbEntity
  8
0
  6
CONTINUOUS
 62
     7
100
AcDbLine
 10
177.5181
 20
-114.34533
 30
0.0
 11
182.5181
 21
-114.34533
 31
0.0
  0
LINE
  5
EC
330
1E
100
AcDbEntity
  8
0
  6
CONTINUOUS
 62
     7
100
AcDbLine
 10
182.5181
 20
-105.34533
 30
0.0
 11
182.5181
 21
-115.14533
 31
0.0
  0
LINE
  5
ED
330
1E
100
AcDbEntity
  8
0
  6
CONTINUOUS
 62
     7
100
AcDbLine
 10
184.9181
 20
-114.34533
 30
0.0
 11
182.5181
 21
-114.34533
 31
0.0
  0
LINE
  5
EE
330
1E
100
AcDbEntity
  8
0
  6
CONTINUOUS
 62
     7
100
AcDbLine
 10
183.718
 20
-114.02346
 30
0.0
 11
182.5179999999999
 21
-114.345
 31
0.0
  0
LINE
  5
EF
330
1E
100
AcDbEntity
  8
0
  6
CONTINUOUS
 62
     7
100
AcDbLine
 10
182.5179999999999
 20
-114.345
 30
0.0
 11
183.718
 21
-114.66653
 31
0.0
  0
LINE
  5
F0
330
1E
100
AcDbEntity
  8
0
  6
CONTINUOUS
 62
     7
100
AcDbLine
 10
177.5181
 20
-114.34533
 30
0.0
 11
175.1181
 21
-114.34533
 31
0.0
  0
LINE
  5
F1
330
1E
100
AcDbEntity
  8
0
  6
CONTINUOUS
 62
     7
100
AcDbLine
 10
176.318
 20
-114.66653
 30
0.0
 11
177.5179999999999
 21
-114.345
 31
0.0
  0
LINE
  5
F2
330
1E
100
AcDbEntity
  8
0
  6
CONTINUOUS
 62
     7
100
AcDbLine
 10
177.5179999999999
 20
-114.345
 30
0.0
 11
176.318
 21
-114.02346
 31
0.0
  0
LINE
  5
F3
330
1E
100
AcDbEntity
  8
0
  6
CONTINUOUS
 62
     7
100
AcDbLine
 10
184.9181
 20
-114.34533
 30
0.0
 11
190.8381
 21
-114.34533
 31
0.0
  0
TEXT
  5
F4
330
1E
100
AcDbEntity
  8
0
  6
CONTINUOUS
 62
     7
100
AcDbText
 10
183.0380999999999
 20
-113.94533
 30
0.0
 40
3.2
  1
150
 41
0.8125
  7
BIGFONT
100
AcDbText
  0
LINE
  5
F5
330
1E
100
AcDbEntity
  8
0
  6
CONTINUOUS
 62
     7
100
AcDbLine
 10
154.33333
 20
-104.34533
 30
0.0
 11
154.33333
 21
-36.012
 31
0.0
  0
LINE
  5
F6
330
1E
100
AcDbEntity
  8
0
  6
CONTINUOUS
 62
     7
100
AcDbLine
 10
170.85143
 20
-36.012
 30
0.0
 11
153.53333
 21
-36.012
 31
0.0
  0
LINE
  5
F7
330
1E
100
AcDbEntity
  8
0
  6
CONTINUOUS
 62
     7
100
AcDbLine
 10
170.85143
 20
-104.34533
 30
0.0
 11
153.53333
 21
-104.34533
 31
0.0
  0
LINE
  5
F8
330
1E
100
AcDbEntity
  8
0
  6
CONTINUOUS
 62
     7
100
AcDbLine
 10
154.65453
 20
-37.21199999999999
 30
0.0
 11
154.333
 21
-36.012
 31
0.0
  0
LINE
  5
F9
330
1E
100
AcDbEntity
  8
0
  6
CONTINUOUS
 62
     7
100
AcDbLine
 10
154.333
 20
-36.012
 30
0.0
 11
154.01146
 21
-37.21199999999999
 31
0.0
  0
LINE
  5
FA
330
1E
100
AcDbEntity
  8
0
  6
CONTINUOUS
 62
     7
100
AcDbLine
 10
154.01146
 20
-103.1449999999999
 30
0.0
 11
154.333
 21
-104.3449999999999
 31
0.0
  0
LINE
  5
FB
330
1E
100
AcDbEntity
  8
0
  6
CONTINUOUS
 62
     7
100
AcDbLine
 10
154.333
 20
-104.3449999999999
 30
0.0
 11
154.65453
 21
-103.1449999999999
 31
0.0
  0
TEXT
  5
FC
330
1E
100
AcDbEntity
  8
0
  6
CONTINUOUS
 62
     7
100
AcDbText
 10
153.93333
 20
-75.37866
 30
0.0
 40
3.2
  1
2050
 50
90.0
 41
0.8125
  7
BIGFONT
100
AcDbText
  0
LINE
  5
FD
330
1E
100
AcDbEntity
  8
0
  6
CONTINUOUS
 62
     7
100
AcDbLine
 10
161.83333
 20
-104.34533
 30
0.0
 11
161.83333
 21
-52.64635999999999
 31
0.0
  0
LINE
  5
FE
330
1E
100
AcDbEntity
  8
0
  6
CONTINUOUS
 62
     7
100
AcDbLine
 10
170.85143
 20
-52.64635999999999
 30
0.0
 11
161.03333
 21
-52.64635999999999
 31
0.0
  0
LINE
  5
FF
330
1E
100
AcDbEntity
  8
0
  6
CONTINUOUS
 62
     7
100
AcDbLine
 10
164.24246
 20
-104.34533
 30
0.0
 11
161.03333
 21
-104.34533
 31
0.0
  0
LINE
  5
100
330
1E
100
AcDbEntity
  8
0
  6
CONTINUOUS
 62
     7
100
AcDbLine
 10
162.15453
 20
-53.84599999999998
 30
0.0
 11
161.833
 21
-52.646
 31
0.0
  0
LINE
  5
101
330
1E
100
AcDbEntity
  8
0
  6
CONTINUOUS
 62
     7
100
AcDbLine
 10
161.833
 20
-52.646
 30
0.0
 11
161.51146
 21
-53.84599999999998
 31
0.0
  0
LINE
  5
102
330
1E
100
AcDbEntity
  8
0
  6
CONTINUOUS
 62
     7
100
AcDbLine
 10
161.51146
 20
-103.1449999999999
 30
0.0
 11
161.833
 21
-104.3449999999999
 31
0.0
  0
LINE
  5
103
330
1E
100
AcDbEntity
  8
0
  6
CONTINUOUS
 62
     7
100
AcDbLine
 10
161.833
 20
-104.3449999999999
 30
0.0
 11
162.15453
 21
-103.1449999999999
 31
0.0
  0
TEXT
  5
104
330
1E
100
AcDbEntity
  8
0
  6
CONTINUOUS
 62
     7
100
AcDbText
 10
161.43333
 20
-83.69584999999998
 30
0.0
 40
3.2
  1
1550
 50
90.0
 41
0.8125
  7
BIGFONT
100
AcDbText
  0
LINE
  5
105
330
1E
100
AcDbEntity
  8
0
  6
CONTINUOUS
 62
     7
100
AcDbLine
 10
226.85143
 20
47.67463
 30
0.0
 11
226.85143
 21
53.3413
 31
0.0
  0
LINE
  5
106
330
1E
100
AcDbEntity
  8
0
  6
CONTINUOUS
 62
     7
100
AcDbLine
 10
171.85143
 20
22.67463
 30
0.0
 11
226.85143
 21
22.67463
 31
0.0
  0
LINE
  5
107
330
1E
100
AcDbEntity
  8
0
  6
CONTINUOUS
 62
     7
100
AcDbLine
 10
226.85143
 20
46.67463
 30
0.0
 11
226.85143
 21
21.87463
 31
0.0
  0
LINE
  5
108
330
1E
100
AcDbEntity
  8
0
  6
CONTINUOUS
 62
     7
100
AcDbLine
 10
171.85143
 20
46.67463
 30
0.0
 11
171.85143
 21
21.87463
 31
0.0
  0
LINE
  5
109
330
1E
100
AcDbEntity
  8
0
  6
CONTINUOUS
 62
     7
100
AcDbLine
 10
225.651
 20
22.35246
 30
0.0
 11
226.851
 21
22.67399999999998
 31
0.0
  0
LINE
  5
10A
330
1E
100
AcDbEntity
  8
0
  6
CONTINUOUS
 62
     7
100
AcDbLine
 10
226.851
 20
22.67399999999998
 30
0.0
 11
225.651
 21
22.99552999999999
 31
0.0
  0
LINE
  5
10B
330
1E
100
AcDbEntity
  8
0
  6
CONTINUOUS
 62
     7
100
AcDbLine
 10
173.0509999999999
 20
22.99552999999999
 30
0.0
 11
171.851
 21
22.67399999999998
 31
0.0
  0
LINE
  5
10C
330
1E
100
AcDbEntity
  8
0
  6
CONTINUOUS
 62
     7
100
AcDbLine
 10
171.851
 20
22.67399999999998
 30
0.0
 11
173.0509999999999
 21
22.35246
 31
0.0
  0
TEXT
  5
10D
330
1E
100
AcDbEntity
  8
0
  6
CONTINUOUS
 62
     7
100
AcDbText
 10
194.15143
 20
23.07462999999999
 30
0.0
 40
3.2
  1
1650
 41
0.8125
  7
BIGFONT
100
AcDbText
  0
LINE
  5
10E
330
1E
100
AcDbEntity
  8
0
  6
CONTINUOUS
 62
     7
100
AcDbLine
 10
171.85143
 20
37.67463
 30
0.0
 11
201.85133
 21
37.67463
 31
0.0
  0
LINE
  5
10F
330
1E
100
AcDbEntity
  8
0
  6
CONTINUOUS
 62
     7
100
AcDbLine
 10
201.85133
 20
38.19962999999999
 30
0.0
 11
201.85133
 21
36.87462999999999
 31
0.0
  0
LINE
  5
110
330
1E
100
AcDbEntity
  8
0
  6
CONTINUOUS
 62
     7
100
AcDbLine
 10
171.85143
 20
38.12749999999999
 30
0.0
 11
171.85143
 21
36.87462999999999
 31
0.0
  0
LINE
  5
111
330
1E
100
AcDbEntity
  8
0
  6
CONTINUOUS
 62
     7
100
AcDbLine
 10
200.651
 20
37.35246
 30
0.0
 11
201.851
 21
37.674
 31
0.0
  0
LINE
  5
112
330
1E
100
AcDbEntity
  8
0
  6
CONTINUOUS
 62
     7
100
AcDbLine
 10
201.851
 20
37.674
 30
0.0
 11
200.651
 21
37.99553
 31
0.0
  0
LINE
  5
113
330
1E
100
AcDbEntity
  8
0
  6
CONTINUOUS
 62
     7
100
AcDbLine
 10
173.0509999999999
 20
37.99553
 30
0.0
 11
171.851
 21
37.674
 31
0.0
  0
LINE
  5
114
330
1E
100
AcDbEntity
  8
0
  6
CONTINUOUS
 62
     7
100
AcDbLine
 10
171.851
 20
37.674
 30
0.0
 11
173.0509999999999
 21
37.35246
 31
0.0
  0
TEXT
  5
115
330
1E
100
AcDbEntity
  8
0
  6
CONTINUOUS
 62
     7
100
AcDbText
 10
182.9513799999999
 20
38.07463
 30
0.0
 40
3.2
  1
900
 41
0.8125
  7
BIGFONT
100
AcDbText
  0
LINE
  5
116
330
1E
100
AcDbEntity
  8
0
  6
CONTINUOUS
 62
     7
100
AcDbLine
 10
240.1847599999999
 20
52.81693
 30
0.0
 11
240.1847599999999
 21
66.67432999999999
 31
0.0
  0
LINE
  5
117
330
1E
100
AcDbEntity
  8
0
  6
CONTINUOUS
 62
     7
100
AcDbLine
 10
172.15143
 20
131.0079599999999
 30
0.0
 11
177.2180999999999
 21
131.0079599999999
 31
0.0
  0
LINE
  5
118
330
1E
100
AcDbEntity
  8
0
  6
CONTINUOUS
 62
     7
100
AcDbLine
 10
174.95716
 20
131.0079599999999
 30
0.0
 11
240.1847599999999
 21
131.0079599999999
 31
0.0
  0
LINE
  5
119
330
1E
100
AcDbEntity
  8
0
  6
CONTINUOUS
 62
     7
100
AcDbLine
 10
171.85143
 20
117.66816
 30
0.0
 11
177.5181
 21
117.66816
 31
0.0
  0
LINE
  5
11A
330
1E
100
AcDbEntity
  8
0
  6
CONTINUOUS
 62
     7
100
AcDbLine
 10
177.5140299999999
 20
147.67463
 30
0.0
 11
182.59333
 21
147.67463
 31
0.0
  0
LINE
  5
11B
330
1E
100
AcDbEntity
  8
0
  6
CONTINUOUS
 62
     7
100
AcDbLine
 10
182.59333
 20
132.0079599999999
 30
0.0
 11
182.59333
 21
148.4746299999999
 31
0.0
  0
LINE
  5
11C
330
1E
100
AcDbEntity
  8
0
  6
CONTINUOUS
 62
     7
100
AcDbLine
 10
177.5140299999999
 20
145.89456
 30
0.0
 11
177.5140299999999
 21
148.4746299999999
 31
0.0
  0
LINE
  5
11D
330
1E
100
AcDbEntity
  8
0
  6
CONTINUOUS
 62
     7
100
AcDbLine
 10
184.99333
 20
147.67463
 30
0.0
 11
182.59333
 21
147.67463
 31
0.0
  0
LINE
  5
11E
330
1E
100
AcDbEntity
  8
0
  6
CONTINUOUS
 62
     7
100
AcDbLine
 10
183.793
 20
147.99553
 30
0.0
 11
182.5929999999999
 21
147.674
 31
0.0
  0
LINE
  5
11F
330
1E
100
AcDbEntity
  8
0
  6
CONTINUOUS
 62
     7
100
AcDbLine
 10
182.5929999999999
 20
147.674
 30
0.0
 11
183.793
 21
147.35246
 31
0.0
  0
LINE
  5
120
330
1E
100
AcDbEntity
  8
0
  6
CONTINUOUS
 62
     7
100
AcDbLine
 10
177.5140299999999
 20
147.67463
 30
0.0
 11
175.11403
 21
147.67463
 31
0.0
  0
LINE
  5
121
330
1E
100
AcDbEntity
  8
0
  6
CONTINUOUS
 62
     7
100
AcDbLine
 10
176.3139999999999
 20
147.35246
 30
0.0
 11
177.514
 21
147.674
 31
0.0
  0
LINE
  5
122
330
1E
100
AcDbEntity
  8
0
  6
CONTINUOUS
 62
     7
100
AcDbLine
 10
177.514
 20
147.674
 30
0.0
 11
176.3139999999999
 21
147.99553
 31
0.0
  0
LINE
  5
123
330
1E
100
AcDbEntity
  8
0
  6
CONTINUOUS
 62
     7
100
AcDbLine
 10
184.99333
 20
147.67463
 30
0.0
 11
190.65333
 21
147.67463
 31
0.0
  0
TEXT
  5
124
330
1E
100
AcDbEntity
  8
0
  6
CONTINUOUS
 62
     7
100
AcDbText
 10
182.85333
 20
148.07463
 30
0.0
 40
3.2
  1
150
 41
0.8125
  7
BIGFONT
100
AcDbText
  0
LINE
  5
125
330
1E
100
AcDbEntity
  8
0
  6
CONTINUOUS
 62
     7
100
AcDbLine
 10
173.5179999999999
 20
66.67432999999999
 30
0.0
 11
177.5181
 21
66.67570000000001
 31
0.0
  0
LINE
  5
126
330
1E
100
AcDbEntity
  8
0
  6
CONTINUOUS
 62
     7
100
AcDbLine
 10
102.0721999999999
 20
117.67463
 30
0.0
 11
102.0721999999999
 21
131.0079599999999
 31
0.0
  0
LINE
  5
127
330
1E
100
AcDbEntity
  8
0
  6
CONTINUOUS
 62
     7
100
AcDbLine
 10
101.9722
 20
117.5746299999999
 30
0.0
 11
102.0721999999999
 21
117.67463
 31
0.0
  0
LINE
  5
128
330
1E
100
AcDbEntity
  8
0
  6
CONTINUOUS
 62
     7
100
AcDbLine
 10
101.9722
 20
66.77433
 30
0.0
 11
102.0721999999999
 21
66.67432999999999
 31
0.0
  0
LINE
  5
129
330
1E
100
AcDbEntity
  8
0
  6
CONTINUOUS
 62
     7
100
AcDbLine
 10
101.9722
 20
66.77433
 30
0.0
 11
101.9722
 21
117.5746299999999
 31
0.0
  0
LINE
  5
12A
330
1E
100
AcDbEntity
  8
0
  6
CONTINUOUS
 62
     7
100
AcDbLine
 10
102.0721999999999
 20
47.67463
 30
0.0
 11
102.0721999999999
 21
53.3413
 31
0.0
  0
LINE
  5
12B
330
1E
100
AcDbEntity
  8
0
  6
CONTINUOUS
 62
     7
100
AcDbLine
 10
88.73886
 20
47.67463
 30
0.0
 11
88.73886
 21
53.3413
 31
0.0
  0
LINE
  5
12C
330
1E
100
AcDbEntity
  8
0
  6
CONTINUOUS
 62
     7
100
AcDbLine
 10
102.0721999999999
 20
52.81693
 30
0.0
 11
102.0721999999999
 21
66.67432999999999
 31
0.0
  0
LINE
  5
12D
330
1E
100
AcDbEntity
  8
0
  6
CONTINUOUS
 62
     7
100
AcDbLine
 10
171.85143
 20
30.17463
 30
0.0
 11
177.5181
 21
30.17463
 31
0.0
  0
LINE
  5
12E
330
1E
100
AcDbEntity
  8
0
  6
CONTINUOUS
 62
     7
100
AcDbLine
 10
177.5181
 20
36.95095999999999
 30
0.0
 11
177.5181
 21
29.37463
 31
0.0
  0
LINE
  5
12F
330
1E
100
AcDbEntity
  8
0
  6
CONTINUOUS
 62
     7
100
AcDbLine
 10
171.85143
 20
32.19623
 30
0.0
 11
171.85143
 21
29.37463
 31
0.0
  0
LINE
  5
130
330
1E
100
AcDbEntity
  8
0
  6
CONTINUOUS
 62
     7
100
AcDbLine
 10
176.318
 20
29.85246
 30
0.0
 11
177.5179999999999
 21
30.174
 31
0.0
  0
LINE
  5
131
330
1E
100
AcDbEntity
  8
0
  6
CONTINUOUS
 62
     7
100
AcDbLine
 10
177.5179999999999
 20
30.174
 30
0.0
 11
176.318
 21
30.49552999999999
 31
0.0
  0
LINE
  5
132
330
1E
100
AcDbEntity
  8
0
  6
CONTINUOUS
 62
     7
100
AcDbLine
 10
173.0509999999999
 20
30.49552999999999
 30
0.0
 11
171.851
 21
30.174
 31
0.0
  0
LINE
  5
133
330
1E
100
AcDbEntity
  8
0
  6
CONTINUOUS
 62
     7
100
AcDbLine
 10
171.851
 20
30.174
 30
0.0
 11
173.0509999999999
 21
29.85246
 31
0.0
  0
TEXT
  5
134
330
1E
100
AcDbEntity
  8
0
  6
CONTINUOUS
 62
     7
100
AcDbText
 10
170.78476
 20
30.57463
 30
0.0
 40
3.2
  1
170
 41
0.8125
  7
BIGFONT
100
AcDbText
  0
LINE
  5
135
330
1E
100
AcDbEntity
  8
0
  6
CONTINUOUS
 62
     7
100
AcDbLine
 10
177.5181
 20
30.17463
 30
0.0
 11
226.85143
 21
30.17463
 31
0.0
  0
LINE
  5
136
330
1E
100
AcDbEntity
  8
0
  6
CONTINUOUS
 62
     7
100
AcDbLine
 10
226.85143
 20
34.7472
 30
0.0
 11
226.85143
 21
29.37463
 31
0.0
  0
LINE
  5
137
330
1E
100
AcDbEntity
  8
0
  6
CONTINUOUS
 62
     7
100
AcDbLine
 10
225.651
 20
29.85246
 30
0.0
 11
226.851
 21
30.174
 31
0.0
  0
LINE
  5
138
330
1E
100
AcDbEntity
  8
0
  6
CONTINUOUS
 62
     7
100
AcDbLine
 10
226.851
 20
30.174
 30
0.0
 11
225.651
 21
30.49552999999999
 31
0.0
  0
LINE
  5
139
330
1E
100
AcDbEntity
  8
0
  6
CONTINUOUS
 62
     7
100
AcDbLine
 10
178.718
 20
30.49552999999999
 30
0.0
 11
177.5179999999999
 21
30.174
 31
0.0
  0
LINE
  5
13A
330
1E
100
AcDbEntity
  8
0
  6
CONTINUOUS
 62
     7
100
AcDbLine
 10
177.5179999999999
 20
30.174
 30
0.0
 11
178.718
 21
29.85246
 31
0.0
  0
TEXT
  5
13B
330
1E
100
AcDbEntity
  8
0
  6
CONTINUOUS
 62
     7
100
AcDbText
 10
196.98476
 20
30.57463
 30
0.0
 40
3.2
  1
1480
 41
0.8125
  7
BIGFONT
100
AcDbText
  0
LINE
  5
13C
330
1E
100
AcDbEntity
  8
0
  6
CONTINUOUS
 62
     7
100
AcDbLine
 10
177.5181
 20
38.49645999999999
 30
0.0
 11
177.5181
 21
46.71376
 31
0.0
  0
ARC
  5
13D
330
1E
100
AcDbEntity
  8
0
  6
CONTINUOUS
 62
     7
100
AcDbCircle
 10
171.85143
 20
-36.012
 30
0.0
 40
6.294929999999999
100
AcDbArc
 50
270.0
 51
0.0
  0
ARC
  5
13E
330
1E
100
AcDbEntity
  8
0
  6
CONTINUOUS
 62
     7
100
AcDbCircle
 10
170.2219899999998
 20
-36.22645999999999
 30
0.0
 40
6.293999999999997
100
AcDbArc
 50
285.0
 51
295.9238799999998
  0
ARC
  5
13F
330
1E
100
AcDbEntity
  8
0
  6
CONTINUOUS
 62
     7
100
AcDbCircle
 10
173.4799999999999
 20
-36.22645999999999
 30
0.0
 40
6.293999999999997
100
AcDbArc
 50
255.0
 51
265.92388
  0
ARC
  5
140
330
1E
100
AcDbEntity
  8
0
  6
CONTINUOUS
 62
     7
100
AcDbCircle
 10
172.0654899999999
 20
-37.64125999999999
 30
0.0
 40
6.294999999999999
100
AcDbArc
 50
4.0778498
 51
15.0
  0
ARC
  5
141
330
1E
100
AcDbEntity
  8
0
  6
CONTINUOUS
 62
     7
100
AcDbCircle
 10
172.0654899999999
 20
-34.38273
 30
0.0
 40
6.294999999999999
100
AcDbArc
 50
334.07785
 51
345.0
  0
LINE
  5
142
330
1E
100
AcDbEntity
  8
0
  6
CONTINUOUS
 62
     7
100
AcDbLine
 10
188.5181
 20
53.3413
 30
0.0
 11
188.5181
 21
58.3413
 31
0.0
  0
LINE
  5
143
330
1E
100
AcDbEntity
  8
0
  6
CONTINUOUS
 62
     7
100
AcDbLine
 10
188.5181
 20
58.3413
 30
0.0
 11
240.1847599999999
 21
58.3413
 31
0.0
  0
TEXT
  5
144
330
1E
100
AcDbEntity
  8
0
  6
CONTINUOUS
 62
     7
100
AcDbText
 10
176.44426
 20
-44.99753
 30
0.0
 40
3.2
  1
90゜
 50
45.0
  7
BIGFONT
100
AcDbText
  0
LINE
  5
145
330
1E
100
AcDbEntity
  8
0
  6
CONTINUOUS
 62
     7
100
AcDbLine
 10
251.85143
 20
47.67463
 30
0.0
 11
251.85143
 21
53.3413
 31
0.0
  0
LINE
  5
146
330
1E
100
AcDbEntity
  8
0
  6
CONTINUOUS
 62
     7
100
AcDbLine
 10
241.18476
 20
53.3413
 30
0.0
 11
252.6514299999999
 21
53.3413
 31
0.0
  0
LINE
  5
147
330
1E
100
AcDbEntity
  8
0
  6
CONTINUOUS
 62
     7
100
AcDbLine
 10
241.18476
 20
47.67463
 30
0.0
 11
252.6514299999999
 21
47.67463
 31
0.0
  0
LINE
  5
148
330
1E
100
AcDbEntity
  8
0
  6
CONTINUOUS
 62
     7
100
AcDbLine
 10
252.1725299999999
 20
52.14100000000001
 30
0.0
 11
251.851
 21
53.341
 31
0.0
  0
LINE
  5
149
330
1E
100
AcDbEntity
  8
0
  6
CONTINUOUS
 62
     7
100
AcDbLine
 10
251.851
 20
53.341
 30
0.0
 11
251.52946
 21
52.14100000000001
 31
0.0
  0
LINE
  5
14A
330
1E
100
AcDbEntity
  8
0
  6
CONTINUOUS
 62
     7
100
AcDbLine
 10
251.52946
 20
48.87399999999999
 30
0.0
 11
251.851
 21
47.674
 31
0.0
  0
LINE
  5
14B
330
1E
100
AcDbEntity
  8
0
  6
CONTINUOUS
 62
     7
100
AcDbLine
 10
251.851
 20
47.674
 30
0.0
 11
252.1725299999999
 21
48.87399999999999
 31
0.0
  0
TEXT
  5
14C
330
1E
100
AcDbEntity
  8
0
  6
CONTINUOUS
 62
     7
100
AcDbText
 10
251.45143
 20
48.19901328059853
 30
0.0
 40
3.2
  1
170
 50
90.0
 41
0.8125
  7
BIGFONT
100
AcDbText
  0
LINE
  5
14D
330
1E
100
AcDbEntity
  8
0
  6
CONTINUOUS
 62
     7
100
AcDbLine
 10
251.85143
 20
53.3413
 30
0.0
 11
251.85143
 21
58.3413
 31
0.0
  0
LINE
  5
14E
330
1E
100
AcDbEntity
  8
0
  6
CONTINUOUS
 62
     7
100
AcDbLine
 10
241.18476
 20
58.3413
 30
0.0
 11
252.6514299999999
 21
58.3413
 31
0.0
  0
LINE
  5
14F
330
1E
100
AcDbEntity
  8
0
  6
CONTINUOUS
 62
     7
100
AcDbLine
 10
251.85143
 20
60.7413
 30
0.0
 11
251.85143
 21
58.3413
 31
0.0
  0
LINE
  5
150
330
1E
100
AcDbEntity
  8
0
  6
CONTINUOUS
 62
     7
100
AcDbLine
 10
251.52946
 20
59.541
 30
0.0
 11
251.851
 21
58.341
 31
0.0
  0
LINE
  5
151
330
1E
100
AcDbEntity
  8
0
  6
CONTINUOUS
 62
     7
100
AcDbLine
 10
251.851
 20
58.341
 30
0.0
 11
252.1725299999999
 21
59.541
 31
0.0
  0
LINE
  5
152
330
1E
100
AcDbEntity
  8
0
  6
CONTINUOUS
 62
     7
100
AcDbLine
 10
251.85143
 20
53.3413
 30
0.0
 11
251.85143
 21
50.94129999999999
 31
0.0
  0
LINE
  5
153
330
1E
100
AcDbEntity
  8
0
  6
CONTINUOUS
 62
     7
100
AcDbLine
 10
252.1725299999999
 20
52.14100000000001
 30
0.0
 11
251.851
 21
53.341
 31
0.0
  0
LINE
  5
154
330
1E
100
AcDbEntity
  8
0
  6
CONTINUOUS
 62
     7
100
AcDbLine
 10
251.851
 20
53.341
 30
0.0
 11
251.52946
 21
52.14100000000001
 31
0.0
  0
LINE
  5
155
330
1E
100
AcDbEntity
  8
0
  6
CONTINUOUS
 62
     7
100
AcDbLine
 10
251.85143
 20
60.7413
 30
0.0
 11
251.85143
 21
66.9213
 31
0.0
  0
TEXT
  5
156
330
1E
100
AcDbEntity
  8
0
  6
CONTINUOUS
 62
     7
100
AcDbText
 10
251.45143
 20
60.1004100872485
 30
0.0
 40
3.2
  1
150
 50
90.0
 41
0.8125
  7
BIGFONT
100
AcDbText
  0
TEXT
  5
157
330
1E
100
AcDbEntity
  8
3
  6
CONTINUOUS
 62
     7
100
AcDbText
 10
198.955
 20
-151.8529999999999
 30
0.0
 40
3.7
  1
コーナー部構造図
  7
BIGFONT
100
AcDbText
  0
TEXT
  5
158
330
1E
100
AcDbEntity
  8
3
  6
CONTINUOUS
 62
     7
100
AcDbText
 10
198.9749999999999
 20
-147.1729999999999
 30
0.0
 40
3.7
  1
ＫＬウォール３型
  7
BIGFONT
100
AcDbText
  0
TEXT
  5
15B
330
1E
100
AcDbEntity
  8
3
  6
CONTINUOUS
 62
     7
100
AcDbText
 10
235.6783947218372
 20
-151.821
 30
0.0
 40
3.7
  1
(H=2500-90°)
 41
0.8
  7
BIGFONT
100
AcDbText
  0
LINE
  5
15C
330
1E
100
AcDbEntity
  8
0
  6
CONTINUOUS
 62
     7
100
AcDbLine
 10
146.83333
 20
47.67463
 30
0.0
 11
146.83333
 21
53.35355999999999
 31
0.0
  0
LINE
  5
15D
330
1E
100
AcDbEntity
  8
0
  6
CONTINUOUS
 62
     7
100
AcDbLine
 10
149.94086
 20
53.35355999999999
 30
0.0
 11
146.03333
 21
53.35355999999999
 31
0.0
  0
LINE
  5
15E
330
1E
100
AcDbEntity
  8
0
  6
CONTINUOUS
 62
     7
100
AcDbLine
 10
147.0192
 20
47.67463
 30
0.0
 11
146.03333
 21
47.67463
 31
0.0
  0
LINE
  5
15F
330
1E
100
AcDbEntity
  8
0
  6
CONTINUOUS
 62
     7
100
AcDbLine
 10
147.15453
 20
52.153
 30
0.0
 11
146.8329999999999
 21
53.353
 31
0.0
  0
LINE
  5
160
330
1E
100
AcDbEntity
  8
0
  6
CONTINUOUS
 62
     7
100
AcDbLine
 10
146.8329999999999
 20
53.353
 30
0.0
 11
146.5114599999999
 21
52.153
 31
0.0
  0
LINE
  5
161
330
1E
100
AcDbEntity
  8
0
  6
CONTINUOUS
 62
     7
100
AcDbLine
 10
146.5114599999999
 20
48.87399999999999
 30
0.0
 11
146.8329999999999
 21
47.674
 31
0.0
  0
LINE
  5
162
330
1E
100
AcDbEntity
  8
0
  6
CONTINUOUS
 62
     7
100
AcDbLine
 10
146.8329999999999
 20
47.674
 30
0.0
 11
147.15453
 21
48.87399999999999
 31
0.0
  0
TEXT
  5
163
330
1E
100
AcDbEntity
  8
0
  6
CONTINUOUS
 62
     7
100
AcDbText
 10
146.43333
 20
46.6141
 30
0.0
 40
3.2
  1
170
 50
90.0
 41
0.8125
  7
BIGFONT
100
AcDbText
  0
LINE
  5
164
330
1E
100
AcDbEntity
  8
0
  6
CONTINUOUS
 62
     7
100
AcDbLine
 10
146.83333
 20
53.35355999999999
 30
0.0
 11
146.83333
 21
131.0079599999999
 31
0.0
  0
LINE
  5
165
330
1E
100
AcDbEntity
  8
0
  6
CONTINUOUS
 62
     7
100
AcDbLine
 10
147.26043
 20
131.0079599999999
 30
0.0
 11
146.03333
 21
131.0079599999999
 31
0.0
  0
LINE
  5
166
330
1E
100
AcDbEntity
  8
0
  6
CONTINUOUS
 62
     7
100
AcDbLine
 10
147.15453
 20
129.8069999999997
 30
0.0
 11
146.8329999999999
 21
131.007
 31
0.0
  0
LINE
  5
167
330
1E
100
AcDbEntity
  8
0
  6
CONTINUOUS
 62
     7
100
AcDbLine
 10
146.8329999999999
 20
131.007
 30
0.0
 11
146.5114599999999
 21
129.8069999999997
 31
0.0
  0
LINE
  5
168
330
1E
100
AcDbEntity
  8
0
  6
CONTINUOUS
 62
     7
100
AcDbLine
 10
146.5114599999999
 20
54.55300000000001
 30
0.0
 11
146.8329999999999
 21
53.353
 31
0.0
  0
LINE
  5
169
330
1E
100
AcDbEntity
  8
0
  6
CONTINUOUS
 62
     7
100
AcDbLine
 10
146.8329999999999
 20
53.353
 30
0.0
 11
147.15453
 21
54.55300000000001
 31
0.0
  0
TEXT
  5
16A
330
1E
100
AcDbEntity
  8
0
  6
CONTINUOUS
 62
     7
100
AcDbText
 10
146.43333
 20
86.98076
 30
0.0
 40
3.2
  1
2330
 50
90.0
 41
0.8125
  7
BIGFONT
100
AcDbText
  0
TEXT
  5
16B
330
1E
100
AcDbEntity
  8
0
  6
CONTINUOUS
 62
     7
100
AcDbText
 10
-196.40586
 20
157.27456
 30
0.0
 40
6.0
  1
断面図
  7
BIGFONT
100
AcDbText
  0
LINE
  5
16C
330
1E
100
AcDbEntity
  8
0
  6
CONTINUOUS
 62
     7
100
AcDbLine
 10
-223.01076
 20
156.23546
 30
0.0
 11
-170.57946
 21
156.23546
 31
0.0
  0
TEXT
  5
16D
330
1E
100
AcDbEntity
  8
0
  6
CONTINUOUS
 62
     7
100
AcDbText
 10
-67.1598
 20
157.27456
 30
0.0
 40
6.0
  1
断面図
  7
BIGFONT
100
AcDbText
  0
LINE
  5
16E
330
1E
100
AcDbEntity
  8
0
  6
CONTINUOUS
 62
     7
100
AcDbLine
 10
-93.76470000000001
 20
156.23546
 30
0.0
 11
-41.33339999999999
 21
156.23546
 31
0.0
  0
TEXT
  5
16F
330
1E
100
AcDbEntity
  8
0
  6
CONTINUOUS
 62
     7
100
AcDbText
 10
-67.11213
 20
-9.15423
 30
0.0
 40
6.0
  1
断面図
  7
BIGFONT
100
AcDbText
  0
LINE
  5
170
330
1E
100
AcDbEntity
  8
0
  6
CONTINUOUS
 62
     7
100
AcDbLine
 10
-93.71703000000001
 20
-10.19333
 30
0.0
 11
-41.28573
 21
-10.19333
 31
0.0
  0
TEXT
  5
171
330
1E
100
AcDbEntity
  8
0
  6
CONTINUOUS
 62
     7
100
AcDbText
 10
-196.40856
 20
-9.15423
 30
0.0
 40
6.0
  1
断面図
  7
BIGFONT
100
AcDbText
  0
LINE
  5
172
330
1E
100
AcDbEntity
  8
0
  6
CONTINUOUS
 62
     7
100
AcDbLine
 10
-223.0134599999999
 20
-10.19333
 30
0.0
 11
-170.58216
 21
-10.19333
 31
0.0
  0
TEXT
  5
173
330
1E
100
AcDbEntity
  8
0
  6
CONTINUOUS
 62
     7
100
AcDbText
 10
-219.9447999999999
 20
156.9784999999999
 30
0.0
 40
6.0
  1
Ａ－Ａ
 41
0.8666665999999999
  7
BIGFONT
100
AcDbText
  0
TEXT
  5
174
330
1E
100
AcDbEntity
  8
0
  6
CONTINUOUS
 62
     7
100
AcDbText
 10
-90.64363
 20
156.81623
 30
0.0
 40
6.0
  1
Ｂ－Ｂ
 41
0.8666665999999999
  7
BIGFONT
100
AcDbText
  0
TEXT
  5
175
330
1E
100
AcDbEntity
  8
0
  6
CONTINUOUS
 62
     7
100
AcDbText
 10
-220.0768299999999
 20
-9.38123
 30
0.0
 40
6.0
  1
Ｃ－Ｃ
 41
0.8666665999999999
  7
BIGFONT
100
AcDbText
  0
TEXT
  5
176
330
1E
100
AcDbEntity
  8
0
  6
CONTINUOUS
 62
     7
100
AcDbText
 10
-90.88509999999999
 20
-9.35346
 30
0.0
 40
6.0
  1
Ｄ－Ｄ
 41
0.8666665999999999
  7
BIGFONT
100
AcDbText
  0
LINE
  5
177
330
1E
100
AcDbEntity
  8
0
  6
CONTINUOUS
 62
     7
100
AcDbLine
 10
-101.67743
 20
22.6718
 30
0.0
 11
-33.344
 21
22.6718
 31
0.0
  0
LINE
  5
178
330
1E
100
AcDbEntity
  8
0
  6
CONTINUOUS
 62
     7
100
AcDbLine
 10
-33.344
 20
46.6718
 30
0.0
 11
-33.344
 21
21.8718
 31
0.0
  0
LINE
  5
179
330
1E
100
AcDbEntity
  8
0
  6
CONTINUOUS
 62
     7
100
AcDbLine
 10
-101.67743
 20
46.6718
 30
0.0
 11
-101.67743
 21
21.8718
 31
0.0
  0
LINE
  5
17A
330
1E
100
AcDbEntity
  8
0
  6
CONTINUOUS
 62
     7
100
AcDbLine
 10
-34.54399999999999
 20
22.34946
 30
0.0
 11
-33.344
 21
22.671
 31
0.0
  0
LINE
  5
17B
330
1E
100
AcDbEntity
  8
0
  6
CONTINUOUS
 62
     7
100
AcDbLine
 10
-33.344
 20
22.671
 30
0.0
 11
-34.54399999999999
 21
22.99252999999999
 31
0.0
  0
LINE
  5
17C
330
1E
100
AcDbEntity
  8
0
  6
CONTINUOUS
 62
     7
100
AcDbLine
 10
-100.477
 20
22.99252999999999
 30
0.0
 11
-101.677
 21
22.671
 31
0.0
  0
LINE
  5
17D
330
1E
100
AcDbEntity
  8
0
  6
CONTINUOUS
 62
     7
100
AcDbLine
 10
-101.677
 20
22.671
 30
0.0
 11
-100.477
 21
22.34946
 31
0.0
  0
TEXT
  5
17E
330
1E
100
AcDbEntity
  8
0
  6
CONTINUOUS
 62
     7
100
AcDbText
 10
-72.71070999999998
 20
23.0718
 30
0.0
 40
3.2
  1
2050
 41
0.8125
  7
BIGFONT
100
AcDbText
  0
LINE
  5
17F
330
1E
100
AcDbEntity
  8
0
  6
CONTINUOUS
 62
     7
100
AcDbLine
 10
-230.9431599999999
 20
22.67463
 30
0.0
 11
-162.6098599999999
 21
22.67463
 31
0.0
  0
LINE
  5
180
330
1E
100
AcDbEntity
  8
0
  6
CONTINUOUS
 62
     7
100
AcDbLine
 10
-162.6098599999999
 20
46.67463
 30
0.0
 11
-162.6098599999999
 21
21.87463
 31
0.0
  0
LINE
  5
181
330
1E
100
AcDbEntity
  8
0
  6
CONTINUOUS
 62
     7
100
AcDbLine
 10
-230.9431599999999
 20
46.67463
 30
0.0
 11
-230.9431599999999
 21
21.87463
 31
0.0
  0
LINE
  5
182
330
1E
100
AcDbEntity
  8
0
  6
CONTINUOUS
 62
     7
100
AcDbLine
 10
-163.809
 20
22.35246
 30
0.0
 11
-162.609
 21
22.67399999999998
 31
0.0
  0
LINE
  5
183
330
1E
100
AcDbEntity
  8
0
  6
CONTINUOUS
 62
     7
100
AcDbLine
 10
-162.609
 20
22.67399999999998
 30
0.0
 11
-163.809
 21
22.99552999999999
 31
0.0
  0
LINE
  5
184
330
1E
100
AcDbEntity
  8
0
  6
CONTINUOUS
 62
     7
100
AcDbLine
 10
-229.7429999999998
 20
22.99552999999999
 30
0.0
 11
-230.9429999999999
 21
22.67399999999998
 31
0.0
  0
LINE
  5
185
330
1E
100
AcDbEntity
  8
0
  6
CONTINUOUS
 62
     7
100
AcDbLine
 10
-230.9429999999999
 20
22.67399999999998
 30
0.0
 11
-229.7429999999998
 21
22.35246
 31
0.0
  0
TEXT
  5
186
330
1E
100
AcDbEntity
  8
0
  6
CONTINUOUS
 62
     7
100
AcDbText
 10
-201.97651
 20
23.07462999999999
 30
0.0
 40
3.2
  1
2050
 41
0.8125
  7
BIGFONT
100
AcDbText
  0
LINE
  5
187
330
1E
100
AcDbEntity
  8
0
  6
CONTINUOUS
 62
     7
100
AcDbLine
 10
-230.94393
 20
48.0718
 30
0.0
 11
-230.94393
 21
58.33846
 31
0.0
  0
LINE
  5
188
330
1E
100
AcDbEntity
  8
0
  6
CONTINUOUS
 62
     7
100
AcDbLine
 10
-230.94393
 20
58.33846
 30
0.0
 11
-230.8439299999999
 21
58.43846
 31
0.0
  0
LINE
  5
189
330
1E
100
AcDbEntity
  8
0
  6
CONTINUOUS
 62
     7
100
AcDbLine
 10
-230.8439299999999
 20
58.43846
 30
0.0
 11
-230.8439299999999
 21
117.47456
 31
0.0
  0
LINE
  5
18A
330
1E
100
AcDbEntity
  8
0
  6
CONTINUOUS
 62
     7
100
AcDbLine
 10
-230.94393
 20
117.57456
 30
0.0
 11
-230.8439299999999
 21
117.47456
 31
0.0
  0
LINE
  5
18B
330
1E
100
AcDbEntity
  8
0
  6
CONTINUOUS
 62
     7
100
AcDbLine
 10
-230.94393
 20
117.57456
 30
0.0
 11
-230.94393
 21
131.00513
 31
0.0
  0
LINE
  5
18C
330
1E
100
AcDbEntity
  8
0
  6
CONTINUOUS
 62
     7
100
AcDbLine
 10
-162.59426
 20
53.24123
 30
0.0
 11
-162.59426
 21
131.00513
 31
0.0
  0
LINE
  5
18D
330
1E
100
AcDbEntity
  8
0
  6
CONTINUOUS
 62
     7
100
AcDbLine
 10
-162.59426
 20
48.0718
 30
0.0
 11
-162.59426
 21
58.33846
 31
0.0
  0
LINE
  5
18E
330
1E
100
AcDbEntity
  8
0
  6
CONTINUOUS
 62
     7
100
AcDbLine
 10
-230.5439299999999
 20
47.67179999999998
 30
0.0
 11
-162.9942599999999
 21
47.67179999999998
 31
0.0
  0
LINE
  5
18F
330
1E
100
AcDbEntity
  8
0
  6
CONTINUOUS
 62
     7
100
AcDbLine
 10
-230.94393
 20
48.0718
 30
0.0
 11
-230.5439299999999
 21
47.67179999999998
 31
0.0
  0
LINE
  5
190
330
1E
100
AcDbEntity
  8
0
  6
CONTINUOUS
 62
     7
100
AcDbLine
 10
-162.9942599999999
 20
47.67179999999998
 30
0.0
 11
-162.59426
 21
48.0718
 31
0.0
  0
LINE
  5
191
330
1E
100
AcDbEntity
  8
0
  6
CONTINUOUS
 62
     7
100
AcDbLine
 10
-230.8439299999999
 20
70.1718
 30
0.0
 11
-230.8439299999999
 21
73.1718
 31
0.0
  0
LINE
  5
192
330
1E
100
AcDbEntity
  8
0
  6
CONTINUOUS
 62
     7
100
AcDbLine
 10
-230.94393
 20
131.00513
 30
0.0
 11
-162.59426
 21
131.00513
 31
0.0
  0
LINE
  5
193
330
1E
100
AcDbEntity
  8
0
  6
CONTINUOUS
 62
     7
100
AcDbLine
 10
-101.6701
 20
48.06896
 30
0.0
 11
-101.6701
 21
58.33563
 31
0.0
  0
LINE
  5
194
330
1E
100
AcDbEntity
  8
0
  6
CONTINUOUS
 62
     7
100
AcDbLine
 10
-101.6701
 20
58.33563
 30
0.0
 11
-101.5700999999999
 21
58.43563
 31
0.0
  0
LINE
  5
195
330
1E
100
AcDbEntity
  8
0
  6
CONTINUOUS
 62
     7
100
AcDbLine
 10
-101.5700999999999
 20
58.43563
 30
0.0
 11
-101.5700999999999
 21
117.47473
 31
0.0
  0
LINE
  5
196
330
1E
100
AcDbEntity
  8
0
  6
CONTINUOUS
 62
     7
100
AcDbLine
 10
-101.6701
 20
117.57473
 30
0.0
 11
-101.5700999999999
 21
117.47473
 31
0.0
  0
LINE
  5
197
330
1E
100
AcDbEntity
  8
0
  6
CONTINUOUS
 62
     7
100
AcDbLine
 10
-101.6701
 20
117.57473
 30
0.0
 11
-101.6701
 21
131.0053
 31
0.0
  0
LINE
  5
198
330
1E
100
AcDbEntity
  8
0
  6
CONTINUOUS
 62
     7
100
AcDbLine
 10
-33.34343
 20
54.57473
 30
0.0
 11
-33.34343
 21
131.0053
 31
0.0
  0
LINE
  5
199
330
1E
100
AcDbEntity
  8
0
  6
CONTINUOUS
 62
     7
100
AcDbLine
 10
-33.34343
 20
48.06896
 30
0.0
 11
-33.34343
 21
58.33563
 31
0.0
  0
LINE
  5
19A
330
1E
100
AcDbEntity
  8
0
  6
CONTINUOUS
 62
     7
100
AcDbLine
 10
-101.2701
 20
47.66896
 30
0.0
 11
-33.74342999999999
 21
47.66896
 31
0.0
  0
LINE
  5
19B
330
1E
100
AcDbEntity
  8
0
  6
CONTINUOUS
 62
     7
100
AcDbLine
 10
-101.6701
 20
48.06896
 30
0.0
 11
-101.2701
 21
47.66896
 31
0.0
  0
LINE
  5
19C
330
1E
100
AcDbEntity
  8
0
  6
CONTINUOUS
 62
     7
100
AcDbLine
 10
-33.74342999999999
 20
47.66896
 30
0.0
 11
-33.34343
 21
48.06896
 31
0.0
  0
LINE
  5
19D
330
1E
100
AcDbEntity
  8
0
  6
CONTINUOUS
 62
     7
100
AcDbLine
 10
-101.5700999999999
 20
70.16896
 30
0.0
 11
-101.5700999999999
 21
73.16895999999998
 31
0.0
  0
LINE
  5
19E
330
1E
100
AcDbEntity
  8
0
  6
CONTINUOUS
 62
     7
100
AcDbLine
 10
-101.6701
 20
131.0053
 30
0.0
 11
-33.34343
 21
131.0053
 31
0.0
  0
LINE
  5
19F
330
1E
100
AcDbEntity
  8
0
  6
CONTINUOUS
 62
     1
100
AcDbLine
 10
-100.00343
 20
49.17163
 30
0.0
 11
-100.00343
 21
129.3386299999999
 31
0.0
  0
LINE
  5
1A0
330
1E
100
AcDbEntity
  8
0
  6
DASHED
 62
     1
100
AcDbLine
 10
-228.6106
 20
49.1513
 30
0.0
 11
-228.6106
 21
63.65133
 31
0.0
  0
LINE
  5
1A1
330
1E
100
AcDbEntity
  8
0
  6
CONTINUOUS
 62
     7
100
AcDbLine
 10
39.5482
 20
131.0079599999999
 30
0.0
 11
102.0721999999999
 21
131.0079599999999
 31
0.0
  0
LINE
  5
1A2
330
1E
100
AcDbEntity
  8
0
  6
CONTINUOUS
 62
     7
100
AcDbLine
 10
88.71613000000001
 20
53.3413
 30
0.0
 11
102.0721999999999
 21
53.3413
 31
0.0
  0
LINE
  5
1A3
330
1E
100
AcDbEntity
  8
0
  6
CONTINUOUS
 62
     7
100
AcDbLine
 10
88.71613000000001
 20
47.67463
 30
0.0
 11
102.0721999999999
 21
47.67463
 31
0.0
  0
POINT
  5
1A4
330
1E
100
AcDbEntity
  8
0
  6
CONTINUOUS
 62
     1
100
AcDbPoint
 10
37.8064
 20
49.84633
 30
0.0
  0
POINT
  5
1A5
330
1E
100
AcDbEntity
  8
0
  6
CONTINUOUS
 62
     1
100
AcDbPoint
 10
36.0292
 20
52.1957
 30
0.0
  0
ARC
  5
1A6
330
1E
100
AcDbEntity
  8
0
  6
CONTINUOUS
 62
     1
100
AcDbCircle
 10
36.24086
 20
50.17463
 30
0.0
 40
1.0
100
AcDbArc
 50
180.0
 51
270.0
  0
LINE
  5
1A7
330
1E
100
AcDbEntity
  8
0
  6
CONTINUOUS
 62
     1
100
AcDbLine
 10
46.1695
 20
49.33513
 30
0.0
 11
49.63616
 21
49.33513
 31
0.0
  0
LINE
  5
1A8
330
1E
100
AcDbEntity
  8
0
  6
CONTINUOUS
 62
     1
100
AcDbLine
 10
35.40663
 20
60.21886
 30
0.0
 11
35.40663
 21
63.68553000000001
 31
0.0
  0
LINE
  5
1A9
330
1E
100
AcDbEntity
  8
0
  6
CONTINUOUS
 62
     1
100
AcDbLine
 10
35.40753
 20
52.79723
 30
0.0
 11
35.40753
 21
57.06389999999998
 31
0.0
  0
LINE
  5
1AA
330
1E
100
AcDbEntity
  8
0
  6
CONTINUOUS
 62
     1
100
AcDbLine
 10
38.40552999999999
 20
49.34129999999999
 30
0.0
 11
42.66183
 21
49.34129999999999
 31
0.0
  0
LINE
  5
1AB
330
1E
100
AcDbEntity
  8
0
  6
CONTINUOUS
 62
     1
100
AcDbLine
 10
35.24086
 20
50.17463
 30
0.0
 11
35.24086
 21
97.67462999999999
 31
0.0
  0
LINE
  5
1AC
330
1E
100
AcDbEntity
  8
0
  6
CONTINUOUS
 62
     1
100
AcDbLine
 10
36.24086
 20
49.17463
 30
0.0
 11
67.07226
 21
49.17463
 31
0.0
  0
LINE
  5
1AD
330
1E
100
AcDbEntity
  8
0
  6
CONTINUOUS
 62
     7
100
AcDbLine
 10
33.73885999999998
 20
130.70796
 30
0.0
 11
34.03885999999999
 21
131.0079599999999
 31
0.0
  0
LINE
  5
1AE
330
1E
100
AcDbEntity
  8
0
  6
CONTINUOUS
 62
     7
100
AcDbLine
 10
39.40552999999999
 20
58.3413
 30
0.0
 11
39.40552999999999
 21
130.70796
 31
0.0
  0
LINE
  5
1AF
330
1E
100
AcDbEntity
  8
0
  6
CONTINUOUS
 62
     7
100
AcDbLine
 10
39.40552999999999
 20
58.3413
 30
0.0
 11
44.40553
 21
53.3413
 31
0.0
  0
LINE
  5
1B0
330
1E
100
AcDbEntity
  8
0
  6
CONTINUOUS
 62
     7
100
AcDbLine
 10
88.73886
 20
47.67463
 30
0.0
 11
88.73886
 21
53.3413
 31
0.0
  0
LINE
  5
1B1
330
1E
100
AcDbEntity
  8
0
  6
CONTINUOUS
 62
     7
100
AcDbLine
 10
33.73885999999998
 20
22.67463
 30
0.0
 11
88.73886
 21
22.67463
 31
0.0
  0
LINE
  5
1B2
330
1E
100
AcDbEntity
  8
0
  6
CONTINUOUS
 62
     7
100
AcDbLine
 10
88.73886
 20
46.67463
 30
0.0
 11
88.73886
 21
21.87463
 31
0.0
  0
LINE
  5
1B3
330
1E
100
AcDbEntity
  8
0
  6
CONTINUOUS
 62
     7
100
AcDbLine
 10
33.73885999999998
 20
46.67463
 30
0.0
 11
33.73885999999998
 21
21.87463
 31
0.0
  0
LINE
  5
1B4
330
1E
100
AcDbEntity
  8
0
  6
CONTINUOUS
 62
     7
100
AcDbLine
 10
87.538
 20
22.35246
 30
0.0
 11
88.73800000000001
 21
22.67399999999998
 31
0.0
  0
LINE
  5
1B5
330
1E
100
AcDbEntity
  8
0
  6
CONTINUOUS
 62
     7
100
AcDbLine
 10
88.73800000000001
 20
22.67399999999998
 30
0.0
 11
87.538
 21
22.99552999999999
 31
0.0
  0
LINE
  5
1B6
330
1E
100
AcDbEntity
  8
0
  6
CONTINUOUS
 62
     7
100
AcDbLine
 10
34.938
 20
22.99552999999999
 30
0.0
 11
33.738
 21
22.67399999999998
 31
0.0
  0
LINE
  5
1B7
330
1E
100
AcDbEntity
  8
0
  6
CONTINUOUS
 62
     7
100
AcDbLine
 10
33.738
 20
22.67399999999998
 30
0.0
 11
34.938
 21
22.35246
 31
0.0
  0
TEXT
  5
1B8
330
1E
100
AcDbEntity
  8
0
  6
CONTINUOUS
 62
     7
100
AcDbText
 10
56.03886
 20
23.07462999999999
 30
0.0
 40
3.2
  1
1650
 41
0.8125
  7
BIGFONT
100
AcDbText
  0
LINE
  5
1B9
330
1E
100
AcDbEntity
  8
0
  6
CONTINUOUS
 62
     7
100
AcDbLine
 10
33.73885999999998
 20
30.17463
 30
0.0
 11
35.25152999999999
 21
30.17463
 31
0.0
  0
LINE
  5
1BA
330
1E
100
AcDbEntity
  8
0
  6
CONTINUOUS
 62
     7
100
AcDbLine
 10
35.25152999999999
 20
46.67463
 30
0.0
 11
35.25152999999999
 21
29.37463
 31
0.0
  0
LINE
  5
1BB
330
1E
100
AcDbEntity
  8
0
  6
CONTINUOUS
 62
     7
100
AcDbLine
 10
33.73885999999998
 20
31.81083
 30
0.0
 11
33.73885999999998
 21
29.37463
 31
0.0
  0
LINE
  5
1BC
330
1E
100
AcDbEntity
  8
0
  6
CONTINUOUS
 62
     7
100
AcDbLine
 10
37.65153
 20
30.17463
 30
0.0
 11
35.25152999999999
 21
30.17463
 31
0.0
  0
LINE
  5
1BD
330
1E
100
AcDbEntity
  8
0
  6
CONTINUOUS
 62
     7
100
AcDbLine
 10
36.451
 20
30.49552999999999
 30
0.0
 11
35.251
 21
30.174
 31
0.0
  0
LINE
  5
1BE
330
1E
100
AcDbEntity
  8
0
  6
CONTINUOUS
 62
     7
100
AcDbLine
 10
35.251
 20
30.174
 30
0.0
 11
36.451
 21
29.85246
 31
0.0
  0
LINE
  5
1BF
330
1E
100
AcDbEntity
  8
0
  6
CONTINUOUS
 62
     7
100
AcDbLine
 10
33.73885999999998
 20
30.17463
 30
0.0
 11
31.33885999999999
 21
30.17463
 31
0.0
  0
LINE
  5
1C0
330
1E
100
AcDbEntity
  8
0
  6
CONTINUOUS
 62
     7
100
AcDbLine
 10
32.538
 20
29.85246
 30
0.0
 11
33.738
 21
30.174
 31
0.0
  0
LINE
  5
1C1
330
1E
100
AcDbEntity
  8
0
  6
CONTINUOUS
 62
     7
100
AcDbLine
 10
33.738
 20
30.174
 30
0.0
 11
32.538
 21
30.49552999999999
 31
0.0
  0
LINE
  5
1C2
330
1E
100
AcDbEntity
  8
0
  6
CONTINUOUS
 62
     7
100
AcDbLine
 10
31.33885999999999
 20
30.17463
 30
0.0
 11
25.93886
 21
30.17463
 31
0.0
  0
TEXT
  5
1C3
330
1E
100
AcDbEntity
  8
0
  6
CONTINUOUS
 62
     7
100
AcDbText
 10
25.93886
 20
30.57463
 30
0.0
 40
3.2
  1
45
 41
0.8125
  7
BIGFONT
100
AcDbText
  0
LINE
  5
1C4
330
1E
100
AcDbEntity
  8
0
  6
CONTINUOUS
 62
     7
100
AcDbLine
 10
35.25152999999999
 20
30.17463
 30
0.0
 11
88.73886
 21
30.17463
 31
0.0
  0
LINE
  5
1C5
330
1E
100
AcDbEntity
  8
0
  6
CONTINUOUS
 62
     7
100
AcDbLine
 10
88.73886
 20
31.73593
 30
0.0
 11
88.73886
 21
29.37463
 31
0.0
  0
LINE
  5
1C6
330
1E
100
AcDbEntity
  8
0
  6
CONTINUOUS
 62
     7
100
AcDbLine
 10
87.538
 20
29.85246
 30
0.0
 11
88.73800000000001
 21
30.174
 31
0.0
  0
LINE
  5
1C7
330
1E
100
AcDbEntity
  8
0
  6
CONTINUOUS
 62
     7
100
AcDbLine
 10
88.73800000000001
 20
30.174
 30
0.0
 11
87.538
 21
30.49552999999999
 31
0.0
  0
LINE
  5
1C8
330
1E
100
AcDbEntity
  8
0
  6
CONTINUOUS
 62
     7
100
AcDbLine
 10
36.451
 20
30.49552999999999
 30
0.0
 11
35.251
 21
30.174
 31
0.0
  0
LINE
  5
1C9
330
1E
100
AcDbEntity
  8
0
  6
CONTINUOUS
 62
     7
100
AcDbLine
 10
35.251
 20
30.174
 30
0.0
 11
36.451
 21
29.85246
 31
0.0
  0
TEXT
  5
1CA
330
1E
100
AcDbEntity
  8
0
  6
CONTINUOUS
 62
     7
100
AcDbText
 10
56.7952
 20
30.57463
 30
0.0
 40
3.2
  1
1605
 41
0.8125
  7
BIGFONT
100
AcDbText
  0
LINE
  5
1CB
330
1E
100
AcDbEntity
  8
0
  6
CONTINUOUS
 62
     7
100
AcDbLine
 10
39.10553
 20
131.0079599999999
 30
0.0
 11
39.188
 21
130.9255
 31
0.0
  0
LINE
  5
1CC
330
1E
100
AcDbEntity
  8
0
  6
CONTINUOUS
 62
     7
100
AcDbLine
 10
39.188
 20
130.9255
 30
0.0
 11
39.40552999999999
 21
130.70796
 31
0.0
  0
LINE
  5
1CD
330
1E
100
AcDbEntity
  8
0
  6
CONTINUOUS
 62
     7
100
AcDbLine
 10
34.03885999999999
 20
131.0079599999999
 30
0.0
 11
34.63492999999999
 21
131.0079599999999
 31
0.0
  0
LINE
  5
1CE
330
1E
100
AcDbEntity
  8
0
  6
CONTINUOUS
 62
     7
100
AcDbLine
 10
16.23885999999999
 20
47.67463
 30
0.0
 11
16.23885999999999
 21
49.17342999999998
 31
0.0
  0
LINE
  5
1CF
330
1E
100
AcDbEntity
  8
0
  6
CONTINUOUS
 62
     7
100
AcDbLine
 10
32.73885999999999
 20
49.17342999999998
 30
0.0
 11
15.43886
 21
49.17342999999998
 31
0.0
  0
LINE
  5
1D0
330
1E
100
AcDbEntity
  8
0
  6
CONTINUOUS
 62
     7
100
AcDbLine
 10
32.73885999999999
 20
47.67463
 30
0.0
 11
15.43886
 21
47.67463
 31
0.0
  0
LINE
  5
1D1
330
1E
100
AcDbEntity
  8
0
  6
CONTINUOUS
 62
     7
100
AcDbLine
 10
16.23885999999999
 20
51.57343
 30
0.0
 11
16.23885999999999
 21
49.17342999999998
 31
0.0
  0
LINE
  5
1D2
330
1E
100
AcDbEntity
  8
0
  6
CONTINUOUS
 62
     7
100
AcDbLine
 10
15.91646
 20
50.373
 30
0.0
 11
16.238
 21
49.173
 31
0.0
  0
LINE
  5
1D3
330
1E
100
AcDbEntity
  8
0
  6
CONTINUOUS
 62
     7
100
AcDbLine
 10
16.238
 20
49.173
 30
0.0
 11
16.55953
 21
50.373
 31
0.0
  0
LINE
  5
1D4
330
1E
100
AcDbEntity
  8
0
  6
CONTINUOUS
 62
     7
100
AcDbLine
 10
16.23885999999999
 20
47.67463
 30
0.0
 11
16.23885999999999
 21
45.27463
 31
0.0
  0
LINE
  5
1D5
330
1E
100
AcDbEntity
  8
0
  6
CONTINUOUS
 62
     7
100
AcDbLine
 10
16.55953
 20
46.474
 30
0.0
 11
16.238
 21
47.674
 31
0.0
  0
LINE
  5
1D6
330
1E
100
AcDbEntity
  8
0
  6
CONTINUOUS
 62
     7
100
AcDbLine
 10
16.238
 20
47.674
 30
0.0
 11
15.91646
 21
46.474
 31
0.0
  0
LINE
  5
1D7
330
1E
100
AcDbEntity
  8
0
  6
CONTINUOUS
 62
     7
100
AcDbLine
 10
16.23885999999999
 20
45.27463
 30
0.0
 11
16.23885999999999
 21
39.87462999999999
 31
0.0
  0
TEXT
  5
1D8
330
1E
100
AcDbEntity
  8
0
  6
CONTINUOUS
 62
     7
100
AcDbText
 10
15.83886
 20
39.87462999999999
 30
0.0
 40
3.2
  1
45
 50
90.0
 41
0.8125
  7
BIGFONT
100
AcDbText
  0
LINE
  5
1D9
330
1E
100
AcDbEntity
  8
0
  6
CONTINUOUS
 62
     7
100
AcDbLine
 10
16.23885999999999
 20
49.17342999999998
 30
0.0
 11
16.23885999999999
 21
129.3431999999999
 31
0.0
  0
LINE
  5
1DA
330
1E
100
AcDbEntity
  8
0
  6
CONTINUOUS
 62
     7
100
AcDbLine
 10
32.73885999999999
 20
129.3431999999999
 30
0.0
 11
15.43886
 21
129.3431999999999
 31
0.0
  0
LINE
  5
1DB
330
1E
100
AcDbEntity
  8
0
  6
CONTINUOUS
 62
     7
100
AcDbLine
 10
16.55953
 20
128.143
 30
0.0
 11
16.238
 21
129.3429999999997
 31
0.0
  0
LINE
  5
1DC
330
1E
100
AcDbEntity
  8
0
  6
CONTINUOUS
 62
     7
100
AcDbLine
 10
16.238
 20
129.3429999999997
 30
0.0
 11
15.91646
 21
128.143
 31
0.0
  0
LINE
  5
1DD
330
1E
100
AcDbEntity
  8
0
  6
CONTINUOUS
 62
     7
100
AcDbLine
 10
15.91646
 20
50.373
 30
0.0
 11
16.238
 21
49.173
 31
0.0
  0
LINE
  5
1DE
330
1E
100
AcDbEntity
  8
0
  6
CONTINUOUS
 62
     7
100
AcDbLine
 10
16.238
 20
49.173
 30
0.0
 11
16.55953
 21
50.373
 31
0.0
  0
TEXT
  5
1DF
330
1E
100
AcDbEntity
  8
0
  6
CONTINUOUS
 62
     7
100
AcDbText
 10
15.83886
 20
84.05830999999997
 30
0.0
 40
3.2
  1
2405
 50
90.0
 41
0.8125
  7
BIGFONT
100
AcDbText
  0
LINE
  5
1E0
330
1E
100
AcDbEntity
  8
0
  6
CONTINUOUS
 62
     7
100
AcDbLine
 10
16.23885999999999
 20
129.3431999999999
 30
0.0
 11
16.23885999999999
 21
131.0108999999999
 31
0.0
  0
LINE
  5
1E1
330
1E
100
AcDbEntity
  8
0
  6
CONTINUOUS
 62
     7
100
AcDbLine
 10
32.74086
 20
131.0108999999999
 30
0.0
 11
15.43886
 21
131.0108999999999
 31
0.0
  0
LINE
  5
1E2
330
1E
100
AcDbEntity
  8
0
  6
CONTINUOUS
 62
     7
100
AcDbLine
 10
16.23885999999999
 20
133.4108999999999
 30
0.0
 11
16.23885999999999
 21
131.0108999999999
 31
0.0
  0
LINE
  5
1E3
330
1E
100
AcDbEntity
  8
0
  6
CONTINUOUS
 62
     7
100
AcDbLine
 10
15.91646
 20
132.21
 30
0.0
 11
16.238
 21
131.01
 31
0.0
  0
LINE
  5
1E4
330
1E
100
AcDbEntity
  8
0
  6
CONTINUOUS
 62
     7
100
AcDbLine
 10
16.238
 20
131.01
 30
0.0
 11
16.55953
 21
132.21
 31
0.0
  0
LINE
  5
1E5
330
1E
100
AcDbEntity
  8
0
  6
CONTINUOUS
 62
     7
100
AcDbLine
 10
16.23885999999999
 20
129.3431999999999
 30
0.0
 11
16.23885999999999
 21
126.9432
 31
0.0
  0
LINE
  5
1E6
330
1E
100
AcDbEntity
  8
0
  6
CONTINUOUS
 62
     7
100
AcDbLine
 10
16.55953
 20
128.143
 30
0.0
 11
16.238
 21
129.3429999999997
 31
0.0
  0
LINE
  5
1E7
330
1E
100
AcDbEntity
  8
0
  6
CONTINUOUS
 62
     7
100
AcDbLine
 10
16.238
 20
129.3429999999997
 30
0.0
 11
15.91646
 21
128.143
 31
0.0
  0
LINE
  5
1E8
330
1E
100
AcDbEntity
  8
0
  6
CONTINUOUS
 62
     7
100
AcDbLine
 10
16.23885999999999
 20
133.4108999999999
 30
0.0
 11
16.23885999999999
 21
138.8109
 31
0.0
  0
TEXT
  5
1E9
330
1E
100
AcDbEntity
  8
0
  6
CONTINUOUS
 62
     7
100
AcDbText
 10
15.83886
 20
133.6108999999999
 30
0.0
 40
3.2
  1
50
 50
90.0
 41
0.8125
  7
BIGFONT
100
AcDbText
  0
LINE
  5
1EA
330
1E
100
AcDbEntity
  8
0
  6
CONTINUOUS
 62
     7
100
AcDbLine
 10
33.73885999999998
 20
47.67463
 30
0.0
 11
33.73885999999998
 21
64.9387
 31
0.0
  0
LINE
  5
1EB
330
1E
100
AcDbEntity
  8
0
  6
CONTINUOUS
 62
     7
100
AcDbLine
 10
33.73885999999998
 20
64.9387
 30
0.0
 11
33.73885999999998
 21
130.70796
 31
0.0
  0
LINE
  5
1EC
330
1E
100
AcDbEntity
  8
0
  6
CONTINUOUS
 62
     1
100
AcDbLine
 10
37.40553
 20
64.9387
 30
0.0
 11
37.40553
 21
129.7412999999999
 31
0.0
  0
LINE
  5
1ED
330
1E
100
AcDbEntity
  8
0
  6
CONTINUOUS
 62
     1
100
AcDbLine
 10
37.40553
 20
50.3413
 30
0.0
 11
37.40553
 21
64.9387
 31
0.0
  0
LINE
  5
1EE
330
1E
100
AcDbEntity
  8
0
  6
CONTINUOUS
 62
     1
100
AcDbLine
 10
35.40663
 20
60.21886
 30
0.0
 11
46.16946
 21
49.33513
 31
0.0
  0
LINE
  5
1EF
330
1E
100
AcDbEntity
  8
0
  6
CONTINUOUS
 62
     1
100
AcDbLine
 10
36.35969999999999
 20
51.7984
 30
0.0
 11
36.50802999999999
 21
51.7913
 31
0.0
  0
LINE
  5
1F0
330
1E
100
AcDbEntity
  8
0
  6
CONTINUOUS
 62
     1
100
AcDbLine
 10
35.40663
 20
52.7913
 30
0.0
 11
35.40663
 21
54.00193
 31
0.0
  0
ARC
  5
1F1
330
1E
100
AcDbEntity
  8
0
  6
CONTINUOUS
 62
     1
100
AcDbCircle
 10
36.40662999999999
 20
52.7913
 30
0.0
 40
1.0
100
AcDbArc
 50
180.0
 51
270.0
  0
ARC
  5
1F2
330
1E
100
AcDbEntity
  8
0
  6
CONTINUOUS
 62
     1
100
AcDbCircle
 10
38.40552999999999
 20
50.3413
 30
0.0
 40
1.0
100
AcDbArc
 50
180.0
 51
270.0
  0
LINE
  5
1F3
330
1E
100
AcDbEntity
  8
0
  6
CONTINUOUS
 62
     1
100
AcDbLine
 10
38.77219999999999
 20
49.34129999999999
 30
0.0
 11
39.66225999999997
 21
49.34129999999999
 31
0.0
  0
LINE
  5
1F4
330
1E
100
AcDbEntity
  8
0
  6
CONTINUOUS
 62
     1
100
AcDbLine
 10
37.40553
 20
50.3413
 30
0.0
 11
37.40553
 21
51.11665999999999
 31
0.0
  0
LINE
  5
1F5
330
1E
100
AcDbEntity
  8
0
  6
CONTINUOUS
 62
     7
100
AcDbLine
 10
37.31962999999999
 20
146.3500999999999
 30
0.0
 11
30.21323
 21
146.3500999999999
 31
0.0
  0
LINE
  5
1F6
330
1E
100
AcDbEntity
  8
0
  6
CONTINUOUS
 62
     7
100
AcDbLine
 10
31.413
 20
146.67153
 30
0.0
 11
30.213
 21
146.3499999999999
 31
0.0
  0
LINE
  5
1F7
330
1E
100
AcDbEntity
  8
0
  6
CONTINUOUS
 62
     7
100
AcDbLine
 10
30.213
 20
146.3499999999999
 30
0.0
 11
31.413
 21
146.02846
 31
0.0
  0
TEXT
  5
1F8
330
1E
100
AcDbEntity
  8
0
  6
CONTINUOUS
 62
     7
100
AcDbText
 10
25.67785999999999
 20
138.6709999999997
 30
0.0
 40
4.2
  1
Ａ
 41
0.8333332999999999
  7
BIGFONT
100
AcDbText
  0
TEXT
  5
1F9
330
1E
100
AcDbEntity
  8
0
  6
CONTINUOUS
 62
     7
100
AcDbText
 10
25.87702999999999
 20
143.96566
 30
0.0
 40
4.2
  1
Ｂ
 41
0.8333332999999999
  7
BIGFONT
100
AcDbText
  0
LINE
  5
1FA
330
1E
100
AcDbEntity
  8
0
  6
CONTINUOUS
 62
     7
100
AcDbLine
 10
35.80453
 20
132.07623
 30
0.0
 11
35.80453
 21
140.8560999999999
 31
0.0
  0
LINE
  5
1FB
330
1E
100
AcDbEntity
  8
0
  6
CONTINUOUS
 62
     7
100
AcDbLine
 10
37.31962999999999
 20
6.30513
 30
0.0
 11
30.21323
 21
6.30513
 31
0.0
  0
LINE
  5
1FC
330
1E
100
AcDbEntity
  8
0
  6
CONTINUOUS
 62
     7
100
AcDbLine
 10
31.413
 20
6.62653
 30
0.0
 11
30.213
 21
6.304999999999997
 31
0.0
  0
LINE
  5
1FD
330
1E
100
AcDbEntity
  8
0
  6
CONTINUOUS
 62
     7
100
AcDbLine
 10
30.213
 20
6.304999999999997
 30
0.0
 11
31.413
 21
5.98346
 31
0.0
  0
LINE
  5
1FE
330
1E
100
AcDbEntity
  8
0
  6
CONTINUOUS
 62
     7
100
AcDbLine
 10
35.80453
 20
11.79912999999999
 30
0.0
 11
35.80453
 21
20.579
 31
0.0
  0
TEXT
  5
1FF
330
1E
100
AcDbEntity
  8
0
  6
CONTINUOUS
 62
     7
100
AcDbText
 10
25.66383
 20
9.7612
 30
0.0
 40
4.2
  1
Ａ
 41
0.8333332999999999
  7
BIGFONT
100
AcDbText
  0
TEXT
  5
200
330
1E
100
AcDbEntity
  8
0
  6
CONTINUOUS
 62
     7
100
AcDbText
 10
25.863
 20
4.027599999999997
 30
0.0
 40
4.2
  1
Ｂ
 41
0.8333332999999999
  7
BIGFONT
100
AcDbText
  0
LINE
  5
201
330
1E
100
AcDbEntity
  8
0
  6
CONTINUOUS
 62
     7
100
AcDbLine
 10
117.4872
 20
51.20582999999999
 30
0.0
 11
117.4872
 21
44.09943
 31
0.0
  0
LINE
  5
202
330
1E
100
AcDbEntity
  8
0
  6
CONTINUOUS
 62
     7
100
AcDbLine
 10
117.16546
 20
45.299
 30
0.0
 11
117.487
 21
44.09899999999999
 31
0.0
  0
LINE
  5
203
330
1E
100
AcDbEntity
  8
0
  6
CONTINUOUS
 62
     7
100
AcDbLine
 10
117.487
 20
44.09899999999999
 30
0.0
 11
117.80853
 21
45.299
 31
0.0
  0
LINE
  5
204
330
1E
100
AcDbEntity
  8
0
  6
CONTINUOUS
 62
     7
100
AcDbLine
 10
103.71333
 20
49.7826
 30
0.0
 11
112.4932
 21
49.7826
 31
0.0
  0
LINE
  5
205
330
1E
100
AcDbEntity
  8
0
  6
CONTINUOUS
 62
     7
100
AcDbLine
 10
0.27916
 20
51.20582999999999
 30
0.0
 11
0.27916
 21
44.09943
 31
0.0
  0
LINE
  5
206
330
1E
100
AcDbEntity
  8
0
  6
CONTINUOUS
 62
     7
100
AcDbLine
 10
-0.04253
 20
45.299
 30
0.0
 11
0.279
 21
44.09899999999999
 31
0.0
  0
LINE
  5
207
330
1E
100
AcDbEntity
  8
0
  6
CONTINUOUS
 62
     7
100
AcDbLine
 10
0.279
 20
44.09899999999999
 30
0.0
 11
0.60053
 21
45.299
 31
0.0
  0
LINE
  5
208
330
1E
100
AcDbEntity
  8
0
  6
CONTINUOUS
 62
     7
100
AcDbLine
 10
5.273159999999998
 20
49.7826
 30
0.0
 11
14.05302999999999
 21
49.7826
 31
0.0
  0
TEXT
  5
209
330
1E
100
AcDbEntity
  8
0
  6
CONTINUOUS
 62
     7
100
AcDbText
 10
3.60026
 20
38.74183
 30
0.0
 40
4.2
  1
Ｃ
 41
0.8333332999999999
  7
BIGFONT
100
AcDbText
  0
TEXT
  5
20A
330
1E
100
AcDbEntity
  8
0
  6
CONTINUOUS
 62
     7
100
AcDbText
 10
-1.443559999999999
 20
38.72353
 30
0.0
 40
4.2
  1
Ｄ
 41
0.8333332999999999
  7
BIGFONT
100
AcDbText
  0
TEXT
  5
20B
330
1E
100
AcDbEntity
  8
0
  6
CONTINUOUS
 62
     7
100
AcDbText
 10
110.9490599999999
 20
38.74183
 30
0.0
 40
4.2
  1
Ｃ
 41
0.8333332999999999
  7
BIGFONT
100
AcDbText
  0
TEXT
  5
20C
330
1E
100
AcDbEntity
  8
0
  6
CONTINUOUS
 62
     7
100
AcDbText
 10
116.08606
 20
38.72353
 30
0.0
 40
4.2
  1
Ｄ
 41
0.8333332999999999
  7
BIGFONT
100
AcDbText
  0
LINE
  5
20D
330
1E
100
AcDbEntity
  8
0
  6
CONTINUOUS
 62
     7
100
AcDbLine
 10
0.27916
 20
51.20582999999999
 30
0.0
 11
14.0906
 21
51.20582999999999
 31
0.0
  0
LINE
  5
20E
330
1E
100
AcDbEntity
  8
0
  6
CONTINUOUS
 62
     7
100
AcDbLine
 10
37.31962999999999
 20
132.07623
 30
0.0
 11
37.31962999999999
 21
146.3500999999999
 31
0.0
  0
LINE
  5
20F
330
1E
100
AcDbEntity
  8
0
  6
CONTINUOUS
 62
     7
100
AcDbLine
 10
37.31962999999999
 20
6.30513
 30
0.0
 11
37.31962999999999
 21
20.57573
 31
0.0
  0
LINE
  5
210
330
1E
100
AcDbEntity
  8
0
  6
CONTINUOUS
 62
     7
100
AcDbLine
 10
35.80453
 20
140.8560999999999
 30
0.0
 11
30.20402999999999
 21
140.8560999999999
 31
0.0
  0
LINE
  5
211
330
1E
100
AcDbEntity
  8
0
  6
CONTINUOUS
 62
     7
100
AcDbLine
 10
31.404
 20
141.17753
 30
0.0
 11
30.204
 21
140.856
 31
0.0
  0
LINE
  5
212
330
1E
100
AcDbEntity
  8
0
  6
CONTINUOUS
 62
     7
100
AcDbLine
 10
30.204
 20
140.856
 30
0.0
 11
31.404
 21
140.53446
 31
0.0
  0
LINE
  5
213
330
1E
100
AcDbEntity
  8
0
  6
CONTINUOUS
 62
     7
100
AcDbLine
 10
35.80453
 20
11.79912999999999
 30
0.0
 11
30.20402999999999
 21
11.79912999999999
 31
0.0
  0
LINE
  5
214
330
1E
100
AcDbEntity
  8
0
  6
CONTINUOUS
 62
     7
100
AcDbLine
 10
31.404
 20
12.12053
 30
0.0
 11
30.204
 21
11.79899999999999
 31
0.0
  0
LINE
  5
215
330
1E
100
AcDbEntity
  8
0
  6
CONTINUOUS
 62
     7
100
AcDbLine
 10
30.204
 20
11.79899999999999
 30
0.0
 11
31.404
 21
11.47746
 31
0.0
  0
LINE
  5
216
330
1E
100
AcDbEntity
  8
0
  6
CONTINUOUS
 62
     7
100
AcDbLine
 10
112.4932
 20
49.7826
 30
0.0
 11
112.4932
 21
44.09943
 31
0.0
  0
LINE
  5
217
330
1E
100
AcDbEntity
  8
0
  6
CONTINUOUS
 62
     7
100
AcDbLine
 10
112.4932
 20
44.09943
 30
0.0
 11
112.4932
 21
41.69942999999999
 31
0.0
  0
LINE
  5
218
330
1E
100
AcDbEntity
  8
0
  6
CONTINUOUS
 62
     7
100
AcDbLine
 10
112.17146
 20
45.299
 30
0.0
 11
112.4929999999999
 21
44.09899999999999
 31
0.0
  0
LINE
  5
219
330
1E
100
AcDbEntity
  8
0
  6
CONTINUOUS
 62
     7
100
AcDbLine
 10
112.4929999999999
 20
44.09899999999999
 30
0.0
 11
112.81453
 21
45.299
 31
0.0
  0
LINE
  5
21A
330
1E
100
AcDbEntity
  8
0
  6
CONTINUOUS
 62
     7
100
AcDbLine
 10
5.273159999999998
 20
49.7826
 30
0.0
 11
5.273159999999998
 21
44.09943
 31
0.0
  0
LINE
  5
21B
330
1E
100
AcDbEntity
  8
0
  6
CONTINUOUS
 62
     7
100
AcDbLine
 10
4.951459999999999
 20
45.299
 30
0.0
 11
5.272999999999997
 21
44.09899999999999
 31
0.0
  0
LINE
  5
21C
330
1E
100
AcDbEntity
  8
0
  6
CONTINUOUS
 62
     7
100
AcDbLine
 10
5.272999999999997
 20
44.09899999999999
 30
0.0
 11
5.59453
 21
45.299
 31
0.0
  0
LINE
  5
21D
330
1E
100
AcDbEntity
  8
0
  6
CONTINUOUS
 62
     7
100
AcDbLine
 10
33.73885999999998
 20
47.67463
 30
0.0
 11
88.73886
 21
47.67463
 31
0.0
  0
LINE
  5
21E
330
1E
100
AcDbEntity
  8
0
  6
CONTINUOUS
 62
     7
100
AcDbLine
 10
44.40553
 20
53.3413
 30
0.0
 11
88.73886
 21
53.3413
 31
0.0
  0
LINE
  5
21F
330
1E
100
AcDbEntity
  8
0
  6
CONTINUOUS
 62
     7
100
AcDbLine
 10
103.71333
 20
51.20582999999999
 30
0.0
 11
117.4872
 21
51.20582999999999
 31
0.0
  0
LINE
  5
220
330
1E
100
AcDbEntity
  8
0
  6
CONTINUOUS
 62
     1
100
AcDbLine
 10
-93.33676
 20
49.17163
 30
0.0
 11
-93.33676
 21
129.3386299999999
 31
0.0
  0
LINE
  5
221
330
1E
100
AcDbEntity
  8
0
  6
CONTINUOUS
 62
     1
100
AcDbLine
 10
-86.67010000000002
 20
49.17163
 30
0.0
 11
-86.67010000000002
 21
129.3386299999999
 31
0.0
  0
LINE
  5
222
330
1E
100
AcDbEntity
  8
0
  6
CONTINUOUS
 62
     1
100
AcDbLine
 10
-80.00343
 20
49.17163
 30
0.0
 11
-80.00343
 21
129.3386299999999
 31
0.0
  0
LINE
  5
223
330
1E
100
AcDbEntity
  8
0
  6
CONTINUOUS
 62
     1
100
AcDbLine
 10
-73.33676
 20
49.17163
 30
0.0
 11
-73.33676
 21
129.3386299999999
 31
0.0
  0
LINE
  5
224
330
1E
100
AcDbEntity
  8
0
  6
CONTINUOUS
 62
     1
100
AcDbLine
 10
-66.67010000000001
 20
49.17163
 30
0.0
 11
-66.67010000000001
 21
129.3386299999999
 31
0.0
  0
LINE
  5
225
330
1E
100
AcDbEntity
  8
0
  6
CONTINUOUS
 62
     1
100
AcDbLine
 10
-60.00343
 20
49.17163
 30
0.0
 11
-60.00343
 21
129.3386299999999
 31
0.0
  0
LINE
  5
226
330
1E
100
AcDbEntity
  8
0
  6
CONTINUOUS
 62
     1
100
AcDbLine
 10
-53.33676
 20
49.17163
 30
0.0
 11
-53.33676
 21
129.3386299999999
 31
0.0
  0
LINE
  5
227
330
1E
100
AcDbEntity
  8
0
  6
CONTINUOUS
 62
     1
100
AcDbLine
 10
-46.6701
 20
49.17163
 30
0.0
 11
-46.6701
 21
129.3386299999999
 31
0.0
  0
LINE
  5
228
330
1E
100
AcDbEntity
  8
0
  6
CONTINUOUS
 62
     1
100
AcDbLine
 10
-100.0049
 20
129.3386299999999
 30
0.0
 11
-37.4701
 21
129.3386299999999
 31
0.0
  0
LINE
  5
229
330
1E
100
AcDbEntity
  8
0
  6
DASHED
 62
     1
100
AcDbLine
 10
-221.9439299999999
 20
49.1513
 30
0.0
 11
-221.9439299999999
 21
63.65133
 31
0.0
  0
LINE
  5
22A
330
1E
100
AcDbEntity
  8
0
  6
DASHED
 62
     1
100
AcDbLine
 10
-215.27726
 20
49.1513
 30
0.0
 11
-215.27726
 21
63.65133
 31
0.0
  0
LINE
  5
22B
330
1E
100
AcDbEntity
  8
0
  6
DASHED
 62
     1
100
AcDbLine
 10
-208.6106
 20
49.1513
 30
0.0
 11
-208.6106
 21
63.65133
 31
0.0
  0
LINE
  5
22C
330
1E
100
AcDbEntity
  8
0
  6
DASHED
 62
     1
100
AcDbLine
 10
-201.94393
 20
49.1513
 30
0.0
 11
-201.94393
 21
63.65133
 31
0.0
  0
LINE
  5
22D
330
1E
100
AcDbEntity
  8
0
  6
DASHED
 62
     1
100
AcDbLine
 10
-195.27726
 20
49.1513
 30
0.0
 11
-195.27726
 21
63.65133
 31
0.0
  0
LINE
  5
22E
330
1E
100
AcDbEntity
  8
0
  6
DASHED
 62
     1
100
AcDbLine
 10
-188.6106
 20
49.1513
 30
0.0
 11
-188.6106
 21
63.65133
 31
0.0
  0
LINE
  5
22F
330
1E
100
AcDbEntity
  8
0
  6
CONTINUOUS
 62
     1
100
AcDbLine
 10
-175.9439299999999
 20
49.17445999999999
 30
0.0
 11
-175.9439299999999
 21
97.67180000000001
 31
0.0
  0
LINE
  5
230
330
1E
100
AcDbEntity
  8
0
  6
CONTINUOUS
 62
     1
100
AcDbLine
 10
-182.6106
 20
49.17445999999999
 30
0.0
 11
-182.6106
 21
97.67180000000001
 31
0.0
  0
LINE
  5
231
330
1E
100
AcDbEntity
  8
0
  6
CONTINUOUS
 62
     1
100
AcDbLine
 10
-189.27726
 20
49.17445999999999
 30
0.0
 11
-189.27726
 21
97.67180000000001
 31
0.0
  0
LINE
  5
232
330
1E
100
AcDbEntity
  8
0
  6
CONTINUOUS
 62
     1
100
AcDbLine
 10
-195.9439299999999
 20
49.17445999999999
 30
0.0
 11
-195.9439299999999
 21
97.67180000000001
 31
0.0
  0
LINE
  5
233
330
1E
100
AcDbEntity
  8
0
  6
CONTINUOUS
 62
     1
100
AcDbLine
 10
-202.6105999999999
 20
49.17445999999999
 30
0.0
 11
-202.6105999999999
 21
97.67180000000001
 31
0.0
  0
LINE
  5
234
330
1E
100
AcDbEntity
  8
0
  6
CONTINUOUS
 62
     1
100
AcDbLine
 10
-209.2772599999999
 20
49.17445999999999
 30
0.0
 11
-209.2772599999999
 21
97.67180000000001
 31
0.0
  0
LINE
  5
235
330
1E
100
AcDbEntity
  8
0
  6
CONTINUOUS
 62
     1
100
AcDbLine
 10
-229.27726
 20
49.17445999999999
 30
0.0
 11
-229.27726
 21
97.67180000000001
 31
0.0
  0
LINE
  5
236
330
1E
100
AcDbEntity
  8
0
  6
CONTINUOUS
 62
     1
100
AcDbLine
 10
-222.6106
 20
49.17445999999999
 30
0.0
 11
-222.6106
 21
97.67180000000001
 31
0.0
  0
LINE
  5
237
330
1E
100
AcDbEntity
  8
0
  6
CONTINUOUS
 62
     1
100
AcDbLine
 10
-215.9439299999999
 20
49.17445999999999
 30
0.0
 11
-215.9439299999999
 21
97.67180000000001
 31
0.0
  0
POINT
  5
238
330
1E
100
AcDbEntity
  8
0
  6
CONTINUOUS
 62
     7
100
AcDbPoint
 10
35.64085999999999
 20
92.1718
 30
0.0
  0
LINE
  5
239
330
1E
100
AcDbEntity
  8
0
  6
CONTINUOUS
 62
     1
100
AcDbLine
 10
-229.4664
 20
-40.14533
 30
0.0
 11
-164.29973
 21
-40.14533
 31
0.0
  0
LINE
  5
23A
330
1E
100
AcDbEntity
  8
0
  6
CONTINUOUS
 62
     7
100
AcDbLine
 10
-230.9441
 20
-104.34533
 30
0.0
 11
-230.9441
 21
-39.17866
 31
0.0
  0
LINE
  5
23B
330
1E
100
AcDbEntity
  8
0
  6
CONTINUOUS
 62
     1
100
AcDbLine
 10
-229.4440999999999
 20
-56.012
 30
0.0
 11
-164.27743
 21
-56.012
 31
0.0
  0
LINE
  5
23C
330
1E
100
AcDbEntity
  8
0
  6
CONTINUOUS
 62
     1
100
AcDbLine
 10
-229.4440999999999
 20
-62.67866
 30
0.0
 11
-164.27743
 21
-62.67866
 31
0.0
  0
LINE
  5
23D
330
1E
100
AcDbEntity
  8
0
  6
CONTINUOUS
 62
     1
100
AcDbLine
 10
-229.4440999999999
 20
-69.34533
 30
0.0
 11
-164.27743
 21
-69.34533
 31
0.0
  0
LINE
  5
23E
330
1E
100
AcDbEntity
  8
0
  6
CONTINUOUS
 62
     1
100
AcDbLine
 10
-229.4440999999999
 20
-102.6786599999997
 30
0.0
 11
-197.6107599999999
 21
-102.6786599999997
 31
0.0
  0
LINE
  5
23F
330
1E
100
AcDbEntity
  8
0
  6
CONTINUOUS
 62
     1
100
AcDbLine
 10
-229.4440999999999
 20
-76.012
 30
0.0
 11
-197.71253
 21
-76.012
 31
0.0
  0
LINE
  5
240
330
1E
100
AcDbEntity
  8
0
  6
CONTINUOUS
 62
     1
100
AcDbLine
 10
-229.4440999999999
 20
-82.67865999999996
 30
0.0
 11
-197.71253
 21
-82.67865999999996
 31
0.0
  0
LINE
  5
241
330
1E
100
AcDbEntity
  8
0
  6
CONTINUOUS
 62
     1
100
AcDbLine
 10
-229.4440999999999
 20
-89.34533
 30
0.0
 11
-197.71253
 21
-89.34533
 31
0.0
  0
LINE
  5
242
330
1E
100
AcDbEntity
  8
0
  6
CONTINUOUS
 62
     1
100
AcDbLine
 10
-229.4440999999999
 20
-96.012
 30
0.0
 11
-197.71253
 21
-96.012
 31
0.0
  0
LINE
  5
243
330
1E
100
AcDbEntity
  8
0
  6
CONTINUOUS
 62
     7
100
AcDbLine
 10
47.44406
 20
118.5451
 30
0.0
 11
37.8014
 21
111.2052999999999
 31
0.0
  0
LINE
  5
244
330
1E
100
AcDbEntity
  8
0
  6
CONTINUOUS
 62
     7
100
AcDbLine
 10
38.5611
 20
112.18766
 30
0.0
 11
37.801
 21
111.2049999999999
 31
0.0
  0
LINE
  5
245
330
1E
100
AcDbEntity
  8
0
  6
CONTINUOUS
 62
     7
100
AcDbLine
 10
37.801
 20
111.2049999999999
 30
0.0
 11
38.9506
 21
111.6759599999999
 31
0.0
  0
CIRCLE
  5
246
330
1E
100
AcDbEntity
  8
0
  6
CONTINUOUS
 62
     7
100
AcDbCircle
 10
50.5175
 20
96.96255999999999
 30
0.0
 40
2.5
  0
TEXT
  5
247
330
1E
100
AcDbEntity
  8
0
  6
CONTINUOUS
 62
     7
100
AcDbText
 10
48.96903
 20
95.15653
 30
0.0
 40
3.2
  1
１
  7
BIGFONT
100
AcDbText
  0
TEXT
  5
248
330
1E
100
AcDbEntity
  8
0
  6
CONTINUOUS
 62
     7
100
AcDbText
 10
54.47616
 20
95.18243000000001
 30
0.0
 40
3.2
  1
D16
  7
BIGFONT
100
AcDbText
  0
LINE
  5
249
330
1E
100
AcDbEntity
  8
0
  6
CONTINUOUS
 62
     7
100
AcDbLine
 10
63.3774
 20
94.4631
 30
0.0
 11
37.4014
 21
94.46746
 31
0.0
  0
LINE
  5
24A
330
1E
100
AcDbEntity
  8
0
  6
CONTINUOUS
 62
     7
100
AcDbLine
 10
38.60105
 20
94.78832999999999
 30
0.0
 11
37.40099999999999
 21
94.46699999999999
 31
0.0
  0
LINE
  5
24B
330
1E
100
AcDbEntity
  8
0
  6
CONTINUOUS
 62
     7
100
AcDbLine
 10
37.40099999999999
 20
94.46699999999999
 30
0.0
 11
38.60094
 21
94.14525000000001
 31
0.0
  0
LINE
  5
24C
330
1E
100
AcDbEntity
  8
0
  6
CONTINUOUS
 62
     7
100
AcDbLine
 10
49.296
 20
71.79126
 30
0.0
 11
40.7152
 21
54.85065999999999
 31
0.0
  0
LINE
  5
24D
330
1E
100
AcDbEntity
  8
0
  6
CONTINUOUS
 62
     7
100
AcDbLine
 10
40.97039
 20
56.06578999999999
 30
0.0
 11
40.715
 21
54.85
 31
0.0
  0
LINE
  5
24E
330
1E
100
AcDbEntity
  8
0
  6
CONTINUOUS
 62
     7
100
AcDbLine
 10
40.715
 20
54.85
 30
0.0
 11
41.54406999999999
 21
55.77520999999999
 31
0.0
  0
LINE
  5
24F
330
1E
100
AcDbEntity
  8
0
  6
CONTINUOUS
 62
     7
100
AcDbLine
 10
24.24086
 20
67.45836
 30
0.0
 11
35.24086
 21
67.45836
 31
0.0
  0
LINE
  5
250
330
1E
100
AcDbEntity
  8
0
  6
CONTINUOUS
 62
     7
100
AcDbLine
 10
34.03999999999999
 20
67.13646
 30
0.0
 11
35.24
 21
67.458
 31
0.0
  0
LINE
  5
251
330
1E
100
AcDbEntity
  8
0
  6
CONTINUOUS
 62
     7
100
AcDbLine
 10
35.24
 20
67.458
 30
0.0
 11
34.03999999999999
 21
67.77953000000001
 31
0.0
  0
LINE
  5
252
330
1E
100
AcDbEntity
  8
0
  6
CONTINUOUS
 62
     7
100
AcDbLine
 10
24.30753
 20
96.41113
 30
0.0
 11
35.64085999999999
 21
92.1718
 31
0.0
  0
LINE
  5
253
330
1E
100
AcDbEntity
  8
0
  6
CONTINUOUS
 62
     7
100
AcDbLine
 10
34.40339999999999
 20
92.29026000000001
 30
0.0
 11
35.64
 21
92.171
 31
0.0
  0
LINE
  5
254
330
1E
100
AcDbEntity
  8
0
  6
CONTINUOUS
 62
     7
100
AcDbLine
 10
35.64
 20
92.171
 30
0.0
 11
34.6287
 21
92.89258000000002
 31
0.0
  0
CIRCLE
  5
255
330
1E
100
AcDbEntity
  8
0
  6
CONTINUOUS
 62
     7
100
AcDbCircle
 10
-26.2429
 20
98.81472999999999
 30
0.0
 40
2.5
  0
TEXT
  5
256
330
1E
100
AcDbEntity
  8
0
  6
CONTINUOUS
 62
     7
100
AcDbText
 10
-24.43686
 20
97.26626000000001
 30
0.0
 40
3.2
  1
１
 50
90.0
  7
BIGFONT
100
AcDbText
  0
LINE
  5
257
330
1E
100
AcDbEntity
  8
0
  6
CONTINUOUS
 62
     7
100
AcDbLine
 10
-23.74343
 20
95.17462999999999
 30
0.0
 11
-23.74343
 21
111.17463
 31
0.0
  0
TEXT
  5
258
330
1E
100
AcDbEntity
  8
0
  6
CONTINUOUS
 62
     7
100
AcDbText
 10
-24.46276
 20
102.7733999999999
 30
0.0
 40
3.2
  1
D16
 50
90.0
  7
BIGFONT
100
AcDbText
  0
LINE
  5
259
330
1E
100
AcDbEntity
  8
0
  6
CONTINUOUS
 62
     7
100
AcDbLine
 10
-69.9987
 20
139.3386299999999
 30
0.0
 11
-69.9987
 21
129.3386299999999
 31
0.0
  0
LINE
  5
25A
330
1E
100
AcDbEntity
  8
0
  6
CONTINUOUS
 62
     7
100
AcDbLine
 10
-70.31953
 20
130.5379999999999
 30
0.0
 11
-69.998
 21
129.3379999999999
 31
0.0
  0
LINE
  5
25B
330
1E
100
AcDbEntity
  8
0
  6
CONTINUOUS
 62
     7
100
AcDbLine
 10
-69.998
 20
129.3379999999999
 30
0.0
 11
-69.67645999999999
 21
130.5379999999999
 31
0.0
  0
LINE
  5
25C
330
1E
100
AcDbEntity
  8
0
  6
CONTINUOUS
 62
     7
100
AcDbLine
 10
-93.33676
 20
95.17462999999999
 30
0.0
 11
-100.00343
 21
95.17462999999999
 31
0.0
  0
LINE
  5
25D
330
1E
100
AcDbEntity
  8
0
  6
CONTINUOUS
 62
     7
100
AcDbLine
 10
-98.803
 20
95.49553000000001
 30
0.0
 11
-100.0029999999999
 21
95.174
 31
0.0
  0
LINE
  5
25E
330
1E
100
AcDbEntity
  8
0
  6
CONTINUOUS
 62
     7
100
AcDbLine
 10
-100.0029999999999
 20
95.174
 30
0.0
 11
-98.803
 21
94.85246
 31
0.0
  0
LINE
  5
25F
330
1E
100
AcDbEntity
  8
0
  6
CONTINUOUS
 62
     7
100
AcDbLine
 10
-86.67010000000002
 20
95.17462999999999
 30
0.0
 11
-93.33676
 21
95.17462999999999
 31
0.0
  0
LINE
  5
260
330
1E
100
AcDbEntity
  8
0
  6
CONTINUOUS
 62
     7
100
AcDbLine
 10
-92.13599999999999
 20
95.49553000000001
 30
0.0
 11
-93.336
 21
95.174
 31
0.0
  0
LINE
  5
261
330
1E
100
AcDbEntity
  8
0
  6
CONTINUOUS
 62
     7
100
AcDbLine
 10
-93.336
 20
95.174
 30
0.0
 11
-92.13599999999999
 21
94.85246
 31
0.0
  0
LINE
  5
262
330
1E
100
AcDbEntity
  8
0
  6
CONTINUOUS
 62
     7
100
AcDbLine
 10
-80.00343
 20
95.17462999999999
 30
0.0
 11
-86.67010000000002
 21
95.17462999999999
 31
0.0
  0
LINE
  5
263
330
1E
100
AcDbEntity
  8
0
  6
CONTINUOUS
 62
     7
100
AcDbLine
 10
-85.47
 20
95.49553000000001
 30
0.0
 11
-86.66999999999999
 21
95.174
 31
0.0
  0
LINE
  5
264
330
1E
100
AcDbEntity
  8
0
  6
CONTINUOUS
 62
     7
100
AcDbLine
 10
-86.66999999999999
 20
95.174
 30
0.0
 11
-85.47
 21
94.85246
 31
0.0
  0
LINE
  5
265
330
1E
100
AcDbEntity
  8
0
  6
CONTINUOUS
 62
     7
100
AcDbLine
 10
-73.33676
 20
95.17462999999999
 30
0.0
 11
-80.00343
 21
95.17462999999999
 31
0.0
  0
LINE
  5
266
330
1E
100
AcDbEntity
  8
0
  6
CONTINUOUS
 62
     7
100
AcDbLine
 10
-78.803
 20
95.49553000000001
 30
0.0
 11
-80.00300000000001
 21
95.174
 31
0.0
  0
LINE
  5
267
330
1E
100
AcDbEntity
  8
0
  6
CONTINUOUS
 62
     7
100
AcDbLine
 10
-80.00300000000001
 20
95.174
 30
0.0
 11
-78.803
 21
94.85246
 31
0.0
  0
LINE
  5
268
330
1E
100
AcDbEntity
  8
0
  6
CONTINUOUS
 62
     7
100
AcDbLine
 10
-66.67010000000001
 20
95.17462999999999
 30
0.0
 11
-73.33676
 21
95.17462999999999
 31
0.0
  0
LINE
  5
269
330
1E
100
AcDbEntity
  8
0
  6
CONTINUOUS
 62
     7
100
AcDbLine
 10
-72.13599999999998
 20
95.49553000000001
 30
0.0
 11
-73.336
 21
95.174
 31
0.0
  0
LINE
  5
26A
330
1E
100
AcDbEntity
  8
0
  6
CONTINUOUS
 62
     7
100
AcDbLine
 10
-73.336
 20
95.174
 30
0.0
 11
-72.13599999999998
 21
94.85246
 31
0.0
  0
LINE
  5
26B
330
1E
100
AcDbEntity
  8
0
  6
CONTINUOUS
 62
     7
100
AcDbLine
 10
-60.00343
 20
95.17462999999999
 30
0.0
 11
-66.67010000000001
 21
95.17462999999999
 31
0.0
  0
LINE
  5
26C
330
1E
100
AcDbEntity
  8
0
  6
CONTINUOUS
 62
     7
100
AcDbLine
 10
-65.47
 20
95.49553000000001
 30
0.0
 11
-66.67
 21
95.174
 31
0.0
  0
LINE
  5
26D
330
1E
100
AcDbEntity
  8
0
  6
CONTINUOUS
 62
     7
100
AcDbLine
 10
-66.67
 20
95.174
 30
0.0
 11
-65.47
 21
94.85246
 31
0.0
  0
LINE
  5
26E
330
1E
100
AcDbEntity
  8
0
  6
CONTINUOUS
 62
     7
100
AcDbLine
 10
-53.33676
 20
95.17462999999999
 30
0.0
 11
-60.00343
 21
95.17462999999999
 31
0.0
  0
LINE
  5
26F
330
1E
100
AcDbEntity
  8
0
  6
CONTINUOUS
 62
     7
100
AcDbLine
 10
-58.803
 20
95.49553000000001
 30
0.0
 11
-60.003
 21
95.174
 31
0.0
  0
LINE
  5
270
330
1E
100
AcDbEntity
  8
0
  6
CONTINUOUS
 62
     7
100
AcDbLine
 10
-60.003
 20
95.174
 30
0.0
 11
-58.803
 21
94.85246
 31
0.0
  0
LINE
  5
271
330
1E
100
AcDbEntity
  8
0
  6
CONTINUOUS
 62
     7
100
AcDbLine
 10
-46.6701
 20
95.17462999999999
 30
0.0
 11
-53.33676
 21
95.17462999999999
 31
0.0
  0
LINE
  5
272
330
1E
100
AcDbEntity
  8
0
  6
CONTINUOUS
 62
     7
100
AcDbLine
 10
-52.136
 20
95.49553000000001
 30
0.0
 11
-53.336
 21
95.174
 31
0.0
  0
LINE
  5
273
330
1E
100
AcDbEntity
  8
0
  6
CONTINUOUS
 62
     7
100
AcDbLine
 10
-53.336
 20
95.174
 30
0.0
 11
-52.136
 21
94.85246
 31
0.0
  0
LINE
  5
274
330
1E
100
AcDbEntity
  8
0
  6
CONTINUOUS
 62
     7
100
AcDbLine
 10
-199.136
 20
62.17179999999999
 30
0.0
 11
-199.136
 21
52.17179999999999
 31
0.0
  0
LINE
  5
275
330
1E
100
AcDbEntity
  8
0
  6
CONTINUOUS
 62
     7
100
AcDbLine
 10
-199.4575299999999
 20
53.371
 30
0.0
 11
-199.136
 21
52.17100000000001
 31
0.0
  0
LINE
  5
276
330
1E
100
AcDbEntity
  8
0
  6
CONTINUOUS
 62
     7
100
AcDbLine
 10
-199.136
 20
52.17100000000001
 30
0.0
 11
-198.81446
 21
53.371
 31
0.0
  0
LINE
  5
277
330
1E
100
AcDbEntity
  8
0
  6
CONTINUOUS
 62
     7
100
AcDbLine
 10
-199.136
 20
72.1718
 30
0.0
 11
-199.136
 21
62.17179999999999
 31
0.0
  0
LINE
  5
278
330
1E
100
AcDbEntity
  8
0
  6
CONTINUOUS
 62
     7
100
AcDbLine
 10
-199.4575299999999
 20
63.371
 30
0.0
 11
-199.136
 21
62.17100000000001
 31
0.0
  0
LINE
  5
279
330
1E
100
AcDbEntity
  8
0
  6
CONTINUOUS
 62
     7
100
AcDbLine
 10
-199.136
 20
62.17100000000001
 30
0.0
 11
-198.81446
 21
63.371
 31
0.0
  0
LINE
  5
27A
330
1E
100
AcDbEntity
  8
0
  6
CONTINUOUS
 62
     7
100
AcDbLine
 10
-199.136
 20
82.1718
 30
0.0
 11
-199.136
 21
72.1718
 31
0.0
  0
LINE
  5
27B
330
1E
100
AcDbEntity
  8
0
  6
CONTINUOUS
 62
     7
100
AcDbLine
 10
-199.4575299999999
 20
73.37099999999998
 30
0.0
 11
-199.136
 21
72.17100000000002
 31
0.0
  0
LINE
  5
27C
330
1E
100
AcDbEntity
  8
0
  6
CONTINUOUS
 62
     7
100
AcDbLine
 10
-199.136
 20
72.17100000000002
 30
0.0
 11
-198.81446
 21
73.37099999999998
 31
0.0
  0
LINE
  5
27D
330
1E
100
AcDbEntity
  8
0
  6
CONTINUOUS
 62
     7
100
AcDbLine
 10
-221.9439299999999
 20
60.01746
 30
0.0
 11
-228.6106
 21
60.01746
 31
0.0
  0
LINE
  5
27E
330
1E
100
AcDbEntity
  8
0
  6
CONTINUOUS
 62
     7
100
AcDbLine
 10
-227.41
 20
60.33853
 30
0.0
 11
-228.61
 21
60.01699999999999
 31
0.0
  0
LINE
  5
27F
330
1E
100
AcDbEntity
  8
0
  6
CONTINUOUS
 62
     7
100
AcDbLine
 10
-228.61
 20
60.01699999999999
 30
0.0
 11
-227.41
 21
59.69546
 31
0.0
  0
LINE
  5
280
330
1E
100
AcDbEntity
  8
0
  6
CONTINUOUS
 62
     7
100
AcDbLine
 10
-215.27726
 20
60.01746
 30
0.0
 11
-221.9439299999999
 21
60.01746
 31
0.0
  0
LINE
  5
281
330
1E
100
AcDbEntity
  8
0
  6
CONTINUOUS
 62
     7
100
AcDbLine
 10
-220.743
 20
60.33853
 30
0.0
 11
-221.943
 21
60.01699999999999
 31
0.0
  0
LINE
  5
282
330
1E
100
AcDbEntity
  8
0
  6
CONTINUOUS
 62
     7
100
AcDbLine
 10
-221.943
 20
60.01699999999999
 30
0.0
 11
-220.743
 21
59.69546
 31
0.0
  0
LINE
  5
283
330
1E
100
AcDbEntity
  8
0
  6
CONTINUOUS
 62
     7
100
AcDbLine
 10
-208.6106
 20
60.01746
 30
0.0
 11
-215.27726
 21
60.01746
 31
0.0
  0
LINE
  5
284
330
1E
100
AcDbEntity
  8
0
  6
CONTINUOUS
 62
     7
100
AcDbLine
 10
-214.0769999999999
 20
60.33853
 30
0.0
 11
-215.2769999999999
 21
60.01699999999999
 31
0.0
  0
LINE
  5
285
330
1E
100
AcDbEntity
  8
0
  6
CONTINUOUS
 62
     7
100
AcDbLine
 10
-215.2769999999999
 20
60.01699999999999
 30
0.0
 11
-214.0769999999999
 21
59.69546
 31
0.0
  0
LINE
  5
286
330
1E
100
AcDbEntity
  8
0
  6
CONTINUOUS
 62
     7
100
AcDbLine
 10
-201.94393
 20
60.01746
 30
0.0
 11
-208.6106
 21
60.01746
 31
0.0
  0
LINE
  5
287
330
1E
100
AcDbEntity
  8
0
  6
CONTINUOUS
 62
     7
100
AcDbLine
 10
-207.41
 20
60.33853
 30
0.0
 11
-208.61
 21
60.01699999999999
 31
0.0
  0
LINE
  5
288
330
1E
100
AcDbEntity
  8
0
  6
CONTINUOUS
 62
     7
100
AcDbLine
 10
-208.61
 20
60.01699999999999
 30
0.0
 11
-207.41
 21
59.69546
 31
0.0
  0
LINE
  5
289
330
1E
100
AcDbEntity
  8
0
  6
CONTINUOUS
 62
     7
100
AcDbLine
 10
-195.27726
 20
60.01746
 30
0.0
 11
-201.94393
 21
60.01746
 31
0.0
  0
LINE
  5
28A
330
1E
100
AcDbEntity
  8
0
  6
CONTINUOUS
 62
     7
100
AcDbLine
 10
-200.7429999999998
 20
60.33853
 30
0.0
 11
-201.9429999999999
 21
60.01699999999999
 31
0.0
  0
LINE
  5
28B
330
1E
100
AcDbEntity
  8
0
  6
CONTINUOUS
 62
     7
100
AcDbLine
 10
-201.9429999999999
 20
60.01699999999999
 30
0.0
 11
-200.7429999999998
 21
59.69546
 31
0.0
  0
LINE
  5
28C
330
1E
100
AcDbEntity
  8
0
  6
CONTINUOUS
 62
     7
100
AcDbLine
 10
-188.6106
 20
60.01746
 30
0.0
 11
-195.27726
 21
60.01746
 31
0.0
  0
LINE
  5
28D
330
1E
100
AcDbEntity
  8
0
  6
CONTINUOUS
 62
     7
100
AcDbLine
 10
-194.077
 20
60.33853
 30
0.0
 11
-195.2769999999999
 21
60.01699999999999
 31
0.0
  0
LINE
  5
28E
330
1E
100
AcDbEntity
  8
0
  6
CONTINUOUS
 62
     7
100
AcDbLine
 10
-195.2769999999999
 20
60.01699999999999
 30
0.0
 11
-194.077
 21
59.69546
 31
0.0
  0
LINE
  5
28F
330
1E
100
AcDbEntity
  8
0
  6
CONTINUOUS
 62
     1
100
AcDbLine
 10
-98.85016
 20
-37.84532999999999
 30
0.0
 11
-35.01682999999999
 21
-37.84532999999999
 31
0.0
  0
LINE
  5
290
330
1E
100
AcDbEntity
  8
0
  6
CONTINUOUS
 62
     1
100
AcDbLine
 10
-99.85016000000001
 20
-102.6786599999997
 30
0.0
 11
-99.85016000000001
 21
-38.84532999999999
 31
0.0
  0
LINE
  5
291
330
1E
100
AcDbEntity
  8
0
  6
CONTINUOUS
 62
     1
100
AcDbLine
 10
-99.85016000000001
 20
-102.6786599999997
 30
0.0
 11
-47.37383
 21
-102.6786599999997
 31
0.0
  0
TEXT
  5
292
330
1E
100
AcDbEntity
  8
0
  6
CONTINUOUS
 62
     7
100
AcDbText
 10
-77.2671
 20
-27.13789999999999
 30
0.0
 40
3.2
  1
8×200=1600
  7
BIGFONT
100
AcDbText
  0
LINE
  5
293
330
1E
100
AcDbEntity
  8
0
  6
CONTINUOUS
 62
     1
100
AcDbLine
 10
36.40662999999999
 20
51.7913
 30
0.0
 11
88.04852999999999
 21
51.7913
 31
0.0
  0
ARC
  5
294
330
1E
100
AcDbEntity
  8
0
  6
CONTINUOUS
 62
     1
100
AcDbCircle
 10
-98.85016
 20
-38.84532999999999
 30
0.0
 40
1.0
100
AcDbArc
 50
90.0
 51
180.0
  0
LINE
  5
295
330
1E
100
AcDbEntity
  8
0
  6
CONTINUOUS
 62
     7
100
AcDbLine
 10
-111.6701
 20
-72.67865999999997
 30
0.0
 11
-99.85016000000001
 21
-72.67865999999997
 31
0.0
  0
LINE
  5
296
330
1E
100
AcDbEntity
  8
0
  6
CONTINUOUS
 62
     7
100
AcDbLine
 10
-101.0499999999999
 20
-72.99953000000002
 30
0.0
 11
-99.84999999999999
 21
-72.678
 31
0.0
  0
LINE
  5
297
330
1E
100
AcDbEntity
  8
0
  6
CONTINUOUS
 62
     7
100
AcDbLine
 10
-99.84999999999999
 20
-72.678
 30
0.0
 11
-101.0499999999999
 21
-72.35646
 31
0.0
  0
LINE
  5
298
330
1E
100
AcDbEntity
  8
0
  6
CONTINUOUS
 62
     7
100
AcDbLine
 10
-34.44233
 20
-105.5522999999999
 30
0.0
 11
-42.3449
 21
-97.64973000000001
 31
0.0
  0
LINE
  5
299
330
1E
100
AcDbEntity
  8
0
  6
CONTINUOUS
 62
     7
100
AcDbLine
 10
-41.26809999999998
 20
-98.27016
 30
0.0
 11
-42.34399999999999
 21
-97.649
 31
0.0
  0
LINE
  5
29A
330
1E
100
AcDbEntity
  8
0
  6
CONTINUOUS
 62
     7
100
AcDbLine
 10
-42.34399999999999
 20
-97.649
 30
0.0
 11
-41.72283
 21
-98.72489000000001
 31
0.0
  0
LINE
  5
29B
330
1E
100
AcDbEntity
  8
0
  6
CONTINUOUS
 62
     7
100
AcDbLine
 10
-152.59426
 20
-65.84403
 30
0.0
 11
-164.27196
 21
-65.84403
 31
0.0
  0
LINE
  5
29C
330
1E
100
AcDbEntity
  8
0
  6
CONTINUOUS
 62
     7
100
AcDbLine
 10
-163.071
 20
-65.52246
 30
0.0
 11
-164.2709999999999
 21
-65.84399999999999
 31
0.0
  0
LINE
  5
29D
330
1E
100
AcDbEntity
  8
0
  6
CONTINUOUS
 62
     7
100
AcDbLine
 10
-164.2709999999999
 20
-65.84399999999999
 30
0.0
 11
-163.071
 21
-66.16553
 31
0.0
  0
LINE
  5
29E
330
1E
100
AcDbEntity
  8
0
  6
CONTINUOUS
 62
     7
100
AcDbLine
 10
-220.1
 20
-114.35556
 30
0.0
 11
-220.1
 21
-102.0119999999999
 31
0.0
  0
LINE
  5
29F
330
1E
100
AcDbEntity
  8
0
  6
CONTINUOUS
 62
     7
100
AcDbLine
 10
-219.7784599999998
 20
-103.212
 30
0.0
 11
-220.1
 21
-102.0119999999999
 31
0.0
  0
LINE
  5
2A0
330
1E
100
AcDbEntity
  8
0
  6
CONTINUOUS
 62
     7
100
AcDbLine
 10
-220.1
 20
-102.0119999999999
 30
0.0
 11
-220.4215299999999
 21
-103.212
 31
0.0
  0
LINE
  5
2A1
330
1E
100
AcDbEntity
  8
0
  6
CONTINUOUS
 62
     7
100
AcDbLine
 10
-200.87933
 20
-114.35636
 30
0.0
 11
-200.87933
 21
-102.6786599999997
 31
0.0
  0
LINE
  5
2A2
330
1E
100
AcDbEntity
  8
0
  6
CONTINUOUS
 62
     7
100
AcDbLine
 10
-200.55746
 20
-103.8779999999998
 30
0.0
 11
-200.8789999999999
 21
-102.678
 31
0.0
  0
LINE
  5
2A3
330
1E
100
AcDbEntity
  8
0
  6
CONTINUOUS
 62
     7
100
AcDbLine
 10
-200.8789999999999
 20
-102.678
 30
0.0
 11
-201.20053
 21
-103.8779999999998
 31
0.0
  0
TEXT
  5
2A4
330
1E
100
AcDbEntity
  8
0
  6
CONTINUOUS
 62
     7
100
AcDbText
 10
-204.7355
 20
-27.15046
 30
0.0
 40
3.2
  1
8×200=1600
  7
BIGFONT
100
AcDbText
  0
LINE
  5
2A5
330
1E
100
AcDbEntity
  8
0
  6
DASHED
 62
     1
100
AcDbLine
 10
-229.4440999999999
 20
-102.0119999999999
 30
0.0
 11
-215.11436
 21
-102.0119999999999
 31
0.0
  0
LINE
  5
2A6
330
1E
100
AcDbEntity
  8
0
  6
DASHED
 62
     1
100
AcDbLine
 10
-229.4440999999999
 20
-95.34533000000001
 30
0.0
 11
-215.11436
 21
-95.34533000000001
 31
0.0
  0
LINE
  5
2A7
330
1E
100
AcDbEntity
  8
0
  6
DASHED
 62
     1
100
AcDbLine
 10
-229.4440999999999
 20
-88.67865999999997
 30
0.0
 11
-215.11436
 21
-88.67865999999997
 31
0.0
  0
LINE
  5
2A8
330
1E
100
AcDbEntity
  8
0
  6
DASHED
 62
     1
100
AcDbLine
 10
-229.4440999999999
 20
-82.012
 30
0.0
 11
-215.11436
 21
-82.012
 31
0.0
  0
LINE
  5
2A9
330
1E
100
AcDbEntity
  8
0
  6
DASHED
 62
     1
100
AcDbLine
 10
-229.4440999999999
 20
-75.34533
 30
0.0
 11
-215.11436
 21
-75.34533
 31
0.0
  0
LINE
  5
2AA
330
1E
100
AcDbEntity
  8
0
  6
DASHED
 62
     1
100
AcDbLine
 10
-229.4440999999999
 20
-68.67865999999999
 30
0.0
 11
-215.11436
 21
-68.67865999999999
 31
0.0
  0
LINE
  5
2AB
330
1E
100
AcDbEntity
  8
0
  6
DASHED
 62
     1
100
AcDbLine
 10
-229.4440999999999
 20
-62.012
 30
0.0
 11
-215.11436
 21
-62.012
 31
0.0
  0
CIRCLE
  5
2AC
330
1E
100
AcDbEntity
  8
0
  6
CONTINUOUS
 62
     7
100
AcDbCircle
 10
174.68476
 20
119.99406
 30
0.0
 40
0.5
  0
LINE
  5
2AD
330
1E
100
AcDbEntity
  8
0
  6
CONTINUOUS
 62
     7
100
AcDbLine
 10
174.68476
 20
118.66073
 30
0.0
 11
174.68476
 21
121.3273999999999
 31
0.0
  0
LINE
  5
2AE
330
1E
100
AcDbEntity
  8
0
  6
CONTINUOUS
 62
     7
100
AcDbLine
 10
173.3514299999999
 20
119.99406
 30
0.0
 11
176.0181
 21
119.99406
 31
0.0
  0
LINE
  5
2AF
330
1E
100
AcDbEntity
  8
0
  6
CONTINUOUS
 62
     7
100
AcDbLine
 10
171.85143
 20
108.007
 30
0.0
 11
174.68476
 21
108.007
 31
0.0
  0
LINE
  5
2B0
330
1E
100
AcDbEntity
  8
0
  6
CONTINUOUS
 62
     7
100
AcDbLine
 10
174.68476
 20
117.99136
 30
0.0
 11
174.68476
 21
107.2069999999999
 31
0.0
  0
LINE
  5
2B1
330
1E
100
AcDbEntity
  8
0
  6
CONTINUOUS
 62
     7
100
AcDbLine
 10
171.85143
 20
113.26643
 30
0.0
 11
171.85143
 21
107.2069999999999
 31
0.0
  0
LINE
  5
2B2
330
1E
100
AcDbEntity
  8
0
  6
CONTINUOUS
 62
     7
100
AcDbLine
 10
177.08476
 20
108.007
 30
0.0
 11
174.68476
 21
108.007
 31
0.0
  0
LINE
  5
2B3
330
1E
100
AcDbEntity
  8
0
  6
CONTINUOUS
 62
     7
100
AcDbLine
 10
175.884
 20
108.32853
 30
0.0
 11
174.6839999999999
 21
108.007
 31
0.0
  0
LINE
  5
2B4
330
1E
100
AcDbEntity
  8
0
  6
CONTINUOUS
 62
     7
100
AcDbLine
 10
174.6839999999999
 20
108.007
 30
0.0
 11
175.884
 21
107.68546
 31
0.0
  0
LINE
  5
2B5
330
1E
100
AcDbEntity
  8
0
  6
CONTINUOUS
 62
     7
100
AcDbLine
 10
171.85143
 20
108.007
 30
0.0
 11
169.45143
 21
108.007
 31
0.0
  0
LINE
  5
2B6
330
1E
100
AcDbEntity
  8
0
  6
CONTINUOUS
 62
     7
100
AcDbLine
 10
170.6509999999999
 20
107.68546
 30
0.0
 11
171.851
 21
108.007
 31
0.0
  0
LINE
  5
2B7
330
1E
100
AcDbEntity
  8
0
  6
CONTINUOUS
 62
     7
100
AcDbLine
 10
171.851
 20
108.007
 30
0.0
 11
170.6509999999999
 21
108.32853
 31
0.0
  0
LINE
  5
2B8
330
1E
100
AcDbEntity
  8
0
  6
CONTINUOUS
 62
     7
100
AcDbLine
 10
169.45143
 20
108.007
 30
0.0
 11
165.3514299999999
 21
108.007
 31
0.0
  0
TEXT
  5
2B9
330
1E
100
AcDbEntity
  8
0
  6
CONTINUOUS
 62
     7
100
AcDbText
 10
165.3514299999999
 20
108.407
 30
0.0
 40
3.2
  1
85
 41
0.8125
  7
BIGFONT
100
AcDbText
  0
LINE
  5
2BA
330
1E
100
AcDbEntity
  8
0
  6
CONTINUOUS
 62
     7
100
AcDbLine
 10
-164.27743
 20
-65.84403
 30
0.0
 11
-170.9440999999999
 21
-65.84403
 31
0.0
  0
LINE
  5
2BB
330
1E
100
AcDbEntity
  8
0
  6
CONTINUOUS
 62
     7
100
AcDbLine
 10
-169.744
 20
-65.52246
 30
0.0
 11
-170.9439999999998
 21
-65.84399999999999
 31
0.0
  0
LINE
  5
2BC
330
1E
100
AcDbEntity
  8
0
  6
CONTINUOUS
 62
     7
100
AcDbLine
 10
-170.9439999999998
 20
-65.84399999999999
 30
0.0
 11
-169.744
 21
-66.16553
 31
0.0
  0
LINE
  5
2BD
330
1E
100
AcDbEntity
  8
0
  6
CONTINUOUS
 62
     7
100
AcDbLine
 10
-220.1
 20
-68.72606000000001
 30
0.0
 11
-220.1
 21
-62.0594
 31
0.0
  0
LINE
  5
2BE
330
1E
100
AcDbEntity
  8
0
  6
CONTINUOUS
 62
     7
100
AcDbLine
 10
-219.7784599999998
 20
-63.25899999999999
 30
0.0
 11
-220.1
 21
-62.05899999999999
 31
0.0
  0
LINE
  5
2BF
330
1E
100
AcDbEntity
  8
0
  6
CONTINUOUS
 62
     7
100
AcDbLine
 10
-220.1
 20
-62.05899999999999
 30
0.0
 11
-220.4215299999999
 21
-63.25899999999999
 31
0.0
  0
LINE
  5
2C0
330
1E
100
AcDbEntity
  8
0
  6
CONTINUOUS
 62
     7
100
AcDbLine
 10
-200.87933
 20
-82.6876
 30
0.0
 11
-200.87933
 21
-76.02093
 31
0.0
  0
LINE
  5
2C1
330
1E
100
AcDbEntity
  8
0
  6
CONTINUOUS
 62
     7
100
AcDbLine
 10
-200.55746
 20
-77.22
 30
0.0
 11
-200.8789999999999
 21
-76.02
 31
0.0
  0
LINE
  5
2C2
330
1E
100
AcDbEntity
  8
0
  6
CONTINUOUS
 62
     7
100
AcDbLine
 10
-200.8789999999999
 20
-76.02
 30
0.0
 11
-201.20053
 21
-77.22
 31
0.0
  0
LINE
  5
2C3
330
1E
100
AcDbEntity
  8
0
  6
CONTINUOUS
 62
     7
100
AcDbLine
 10
-220.1
 20
-75.39273
 30
0.0
 11
-220.1
 21
-68.72606000000001
 31
0.0
  0
LINE
  5
2C4
330
1E
100
AcDbEntity
  8
0
  6
CONTINUOUS
 62
     7
100
AcDbLine
 10
-219.7784599999998
 20
-69.926
 30
0.0
 11
-220.1
 21
-68.726
 31
0.0
  0
LINE
  5
2C5
330
1E
100
AcDbEntity
  8
0
  6
CONTINUOUS
 62
     7
100
AcDbLine
 10
-220.1
 20
-68.726
 30
0.0
 11
-220.4215299999999
 21
-69.926
 31
0.0
  0
LINE
  5
2C6
330
1E
100
AcDbEntity
  8
0
  6
CONTINUOUS
 62
     7
100
AcDbLine
 10
-220.1
 20
-82.0594
 30
0.0
 11
-220.1
 21
-75.39273
 31
0.0
  0
LINE
  5
2C7
330
1E
100
AcDbEntity
  8
0
  6
CONTINUOUS
 62
     7
100
AcDbLine
 10
-219.7784599999998
 20
-76.592
 30
0.0
 11
-220.1
 21
-75.392
 31
0.0
  0
LINE
  5
2C8
330
1E
100
AcDbEntity
  8
0
  6
CONTINUOUS
 62
     7
100
AcDbLine
 10
-220.1
 20
-75.392
 30
0.0
 11
-220.4215299999999
 21
-76.592
 31
0.0
  0
LINE
  5
2C9
330
1E
100
AcDbEntity
  8
0
  6
CONTINUOUS
 62
     7
100
AcDbLine
 10
-220.1
 20
-88.72606000000002
 30
0.0
 11
-220.1
 21
-82.0594
 31
0.0
  0
LINE
  5
2CA
330
1E
100
AcDbEntity
  8
0
  6
CONTINUOUS
 62
     7
100
AcDbLine
 10
-219.7784599999998
 20
-83.259
 30
0.0
 11
-220.1
 21
-82.05899999999997
 31
0.0
  0
LINE
  5
2CB
330
1E
100
AcDbEntity
  8
0
  6
CONTINUOUS
 62
     7
100
AcDbLine
 10
-220.1
 20
-82.05899999999997
 30
0.0
 11
-220.4215299999999
 21
-83.259
 31
0.0
  0
LINE
  5
2CC
330
1E
100
AcDbEntity
  8
0
  6
CONTINUOUS
 62
     7
100
AcDbLine
 10
-220.1
 20
-95.39272999999999
 30
0.0
 11
-220.1
 21
-88.72606000000002
 31
0.0
  0
LINE
  5
2CD
330
1E
100
AcDbEntity
  8
0
  6
CONTINUOUS
 62
     7
100
AcDbLine
 10
-219.7784599999998
 20
-89.92600000000001
 30
0.0
 11
-220.1
 21
-88.726
 31
0.0
  0
LINE
  5
2CE
330
1E
100
AcDbEntity
  8
0
  6
CONTINUOUS
 62
     7
100
AcDbLine
 10
-220.1
 20
-88.726
 30
0.0
 11
-220.4215299999999
 21
-89.92600000000001
 31
0.0
  0
LINE
  5
2CF
330
1E
100
AcDbEntity
  8
0
  6
CONTINUOUS
 62
     7
100
AcDbLine
 10
-220.1
 20
-102.0594
 30
0.0
 11
-220.1
 21
-95.39272999999999
 31
0.0
  0
LINE
  5
2D0
330
1E
100
AcDbEntity
  8
0
  6
CONTINUOUS
 62
     7
100
AcDbLine
 10
-220.1
 20
-95.39272999999999
 30
0.0
 11
-220.1
 21
-92.99272999999999
 31
0.0
  0
LINE
  5
2D1
330
1E
100
AcDbEntity
  8
0
  6
CONTINUOUS
 62
     7
100
AcDbLine
 10
-219.7784599999998
 20
-96.59200000000002
 30
0.0
 11
-220.1
 21
-95.39199999999999
 31
0.0
  0
LINE
  5
2D2
330
1E
100
AcDbEntity
  8
0
  6
CONTINUOUS
 62
     7
100
AcDbLine
 10
-220.1
 20
-95.39199999999999
 30
0.0
 11
-220.4215299999999
 21
-96.59200000000002
 31
0.0
  0
LINE
  5
2D3
330
1E
100
AcDbEntity
  8
0
  6
CONTINUOUS
 62
     7
100
AcDbLine
 10
-200.87933
 20
-89.35425999999997
 30
0.0
 11
-200.87933
 21
-82.6876
 31
0.0
  0
LINE
  5
2D4
330
1E
100
AcDbEntity
  8
0
  6
CONTINUOUS
 62
     7
100
AcDbLine
 10
-200.55746
 20
-83.887
 30
0.0
 11
-200.8789999999999
 21
-82.687
 31
0.0
  0
LINE
  5
2D5
330
1E
100
AcDbEntity
  8
0
  6
CONTINUOUS
 62
     7
100
AcDbLine
 10
-200.8789999999999
 20
-82.687
 30
0.0
 11
-201.20053
 21
-83.887
 31
0.0
  0
LINE
  5
2D6
330
1E
100
AcDbEntity
  8
0
  6
CONTINUOUS
 62
     7
100
AcDbLine
 10
-200.87933
 20
-96.02093000000001
 30
0.0
 11
-200.87933
 21
-89.35425999999997
 31
0.0
  0
LINE
  5
2D7
330
1E
100
AcDbEntity
  8
0
  6
CONTINUOUS
 62
     7
100
AcDbLine
 10
-200.55746
 20
-90.554
 30
0.0
 11
-200.8789999999999
 21
-89.35399999999999
 31
0.0
  0
LINE
  5
2D8
330
1E
100
AcDbEntity
  8
0
  6
CONTINUOUS
 62
     7
100
AcDbLine
 10
-200.8789999999999
 20
-89.35399999999999
 30
0.0
 11
-201.20053
 21
-90.554
 31
0.0
  0
LINE
  5
2D9
330
1E
100
AcDbEntity
  8
0
  6
CONTINUOUS
 62
     7
100
AcDbLine
 10
-200.87933
 20
-102.6876
 30
0.0
 11
-200.87933
 21
-96.02093000000001
 31
0.0
  0
LINE
  5
2DA
330
1E
100
AcDbEntity
  8
0
  6
CONTINUOUS
 62
     7
100
AcDbLine
 10
-200.55746
 20
-97.22000000000001
 30
0.0
 11
-200.8789999999999
 21
-96.02
 31
0.0
  0
LINE
  5
2DB
330
1E
100
AcDbEntity
  8
0
  6
CONTINUOUS
 62
     7
100
AcDbLine
 10
-200.8789999999999
 20
-96.02
 30
0.0
 11
-201.20053
 21
-97.22000000000001
 31
0.0
  0
POINT
  5
2DC
330
1E
100
AcDbEntity
  8
0
  6
CONTINUOUS
 62
     1
100
AcDbPoint
 10
37.80552999999999
 20
129.3574
 30
0.0
  0
POINT
  5
2DD
330
1E
100
AcDbEntity
  8
0
  6
CONTINUOUS
 62
     1
100
AcDbPoint
 10
47.0722
 20
51.38073
 30
0.0
  0
POINT
  5
2DE
330
1E
100
AcDbEntity
  8
0
  6
CONTINUOUS
 62
     1
100
AcDbPoint
 10
53.73885999999998
 20
51.38073
 30
0.0
  0
POINT
  5
2DF
330
1E
100
AcDbEntity
  8
0
  6
CONTINUOUS
 62
     7
100
AcDbPoint
 10
60.40553
 20
51.38073
 30
0.0
  0
POINT
  5
2E0
330
1E
100
AcDbEntity
  8
0
  6
CONTINUOUS
 62
     1
100
AcDbPoint
 10
67.07219999999999
 20
51.38073
 30
0.0
  0
POINT
  5
2E1
330
1E
100
AcDbEntity
  8
0
  6
CONTINUOUS
 62
     1
100
AcDbPoint
 10
73.73886
 20
51.38073
 30
0.0
  0
POINT
  5
2E2
330
1E
100
AcDbEntity
  8
0
  6
CONTINUOUS
 62
     1
100
AcDbPoint
 10
80.40553
 20
51.38073
 30
0.0
  0
POINT
  5
2E3
330
1E
100
AcDbEntity
  8
0
  6
CONTINUOUS
 62
     1
100
AcDbPoint
 10
87.07219999999997
 20
51.38073
 30
0.0
  0
POINT
  5
2E4
330
1E
100
AcDbEntity
  8
0
  6
CONTINUOUS
 62
     1
100
AcDbPoint
 10
47.0722
 20
49.566
 30
0.0
  0
POINT
  5
2E5
330
1E
100
AcDbEntity
  8
0
  6
CONTINUOUS
 62
     7
100
AcDbPoint
 10
53.73885999999998
 20
49.566
 30
0.0
  0
POINT
  5
2E6
330
1E
100
AcDbEntity
  8
0
  6
CONTINUOUS
 62
     1
100
AcDbPoint
 10
60.40553
 20
49.566
 30
0.0
  0
LINE
  5
2E7
330
1E
100
AcDbEntity
  8
0
  6
CONTINUOUS
 62
     7
100
AcDbLine
 10
-189.27726
 20
88.50796
 30
0.0
 11
-195.9439299999999
 21
88.50796
 31
0.0
  0
LINE
  5
2E8
330
1E
100
AcDbEntity
  8
0
  6
CONTINUOUS
 62
     7
100
AcDbLine
 10
-194.7429999999999
 20
88.82853
 30
0.0
 11
-195.9429999999999
 21
88.50700000000001
 31
0.0
  0
LINE
  5
2E9
330
1E
100
AcDbEntity
  8
0
  6
CONTINUOUS
 62
     7
100
AcDbLine
 10
-195.9429999999999
 20
88.50700000000001
 30
0.0
 11
-194.7429999999999
 21
88.18545999999995
 31
0.0
  0
LINE
  5
2EA
330
1E
100
AcDbEntity
  8
0
  6
CONTINUOUS
 62
     7
100
AcDbLine
 10
-182.6106
 20
88.50796
 30
0.0
 11
-189.29523
 21
88.50796
 31
0.0
  0
LINE
  5
2EB
330
1E
100
AcDbEntity
  8
0
  6
CONTINUOUS
 62
     7
100
AcDbLine
 10
-188.095
 20
88.82853
 30
0.0
 11
-189.2949999999999
 21
88.50700000000001
 31
0.0
  0
LINE
  5
2EC
330
1E
100
AcDbEntity
  8
0
  6
CONTINUOUS
 62
     7
100
AcDbLine
 10
-189.2949999999999
 20
88.50700000000001
 30
0.0
 11
-188.095
 21
88.18545999999995
 31
0.0
  0
LINE
  5
2ED
330
1E
100
AcDbEntity
  8
0
  6
CONTINUOUS
 62
     7
100
AcDbLine
 10
-175.9439299999999
 20
88.50796
 30
0.0
 11
-182.6426599999999
 21
88.50796
 31
0.0
  0
LINE
  5
2EE
330
1E
100
AcDbEntity
  8
0
  6
CONTINUOUS
 62
     7
100
AcDbLine
 10
-181.442
 20
88.82853
 30
0.0
 11
-182.6419999999997
 21
88.50700000000001
 31
0.0
  0
LINE
  5
2EF
330
1E
100
AcDbEntity
  8
0
  6
CONTINUOUS
 62
     7
100
AcDbLine
 10
-182.6419999999997
 20
88.50700000000001
 30
0.0
 11
-181.442
 21
88.18545999999995
 31
0.0
  0
CIRCLE
  5
2F0
330
1E
100
AcDbEntity
  8
0
  6
CONTINUOUS
 62
     7
100
AcDbCircle
 10
201.85133
 20
51.69343
 30
0.0
 40
0.5
  0
LINE
  5
2F1
330
1E
100
AcDbEntity
  8
0
  6
CONTINUOUS
 62
     7
100
AcDbLine
 10
201.85133
 20
50.3601
 30
0.0
 11
201.85133
 21
53.02675999999999
 31
0.0
  0
LINE
  5
2F2
330
1E
100
AcDbEntity
  8
0
  6
CONTINUOUS
 62
     7
100
AcDbLine
 10
200.518
 20
51.69343
 30
0.0
 11
203.18466
 21
51.69343
 31
0.0
  0
LINE
  5
2F3
330
1E
100
AcDbEntity
  8
0
  6
CONTINUOUS
 62
     7
100
AcDbLine
 10
213.6817
 20
47.6601
 30
0.0
 11
213.6817
 21
51.69343
 31
0.0
  0
LINE
  5
2F4
330
1E
100
AcDbEntity
  8
0
  6
CONTINUOUS
 62
     7
100
AcDbLine
 10
203.78703
 20
51.69343
 30
0.0
 11
214.4816999999999
 21
51.69343
 31
0.0
  0
LINE
  5
2F5
330
1E
100
AcDbEntity
  8
0
  6
CONTINUOUS
 62
     7
100
AcDbLine
 10
213.57406
 20
47.6601
 30
0.0
 11
214.4816999999999
 21
47.6601
 31
0.0
  0
LINE
  5
2F6
330
1E
100
AcDbEntity
  8
0
  6
CONTINUOUS
 62
     7
100
AcDbLine
 10
213.6817
 20
54.09343
 30
0.0
 11
213.6817
 21
51.69343
 31
0.0
  0
LINE
  5
2F7
330
1E
100
AcDbEntity
  8
0
  6
CONTINUOUS
 62
     7
100
AcDbLine
 10
213.35946
 20
52.893
 30
0.0
 11
213.681
 21
51.69299999999999
 31
0.0
  0
LINE
  5
2F8
330
1E
100
AcDbEntity
  8
0
  6
CONTINUOUS
 62
     7
100
AcDbLine
 10
213.681
 20
51.69299999999999
 30
0.0
 11
214.00253
 21
52.893
 31
0.0
  0
LINE
  5
2F9
330
1E
100
AcDbEntity
  8
0
  6
CONTINUOUS
 62
     7
100
AcDbLine
 10
213.6817
 20
47.6601
 30
0.0
 11
213.6817
 21
45.2601
 31
0.0
  0
LINE
  5
2FA
330
1E
100
AcDbEntity
  8
0
  6
CONTINUOUS
 62
     7
100
AcDbLine
 10
214.00253
 20
46.45999999999999
 30
0.0
 11
213.681
 21
47.66
 31
0.0
  0
LINE
  5
2FB
330
1E
100
AcDbEntity
  8
0
  6
CONTINUOUS
 62
     7
100
AcDbLine
 10
213.681
 20
47.66
 30
0.0
 11
213.35946
 21
46.45999999999999
 31
0.0
  0
LINE
  5
2FC
330
1E
100
AcDbEntity
  8
0
  6
CONTINUOUS
 62
     7
100
AcDbLine
 10
213.6817
 20
54.09343
 30
0.0
 11
213.6817
 21
65.75826233323503
 31
0.0
  0
TEXT
  5
2FD
330
1E
100
AcDbEntity
  8
0
  6
CONTINUOUS
 62
     7
100
AcDbText
 10
213.2817
 20
59.20192014277429
 30
0.0
 40
3.2
  1
121
 50
90.0
 41
0.8125
  7
BIGFONT
100
AcDbText
  0
TEXT
  5
2FE
330
1E
100
AcDbEntity
  8
0
  6
CONTINUOUS
 62
     7
100
AcDbText
 10
186.3024
 20
124.24233
 30
0.0
 40
3.2
  1
6-埋め込みインサート
  7
BIGFONT
100
AcDbText
  0
TEXT
  5
2FF
330
1E
100
AcDbEntity
  8
0
  6
CONTINUOUS
 62
     7
100
AcDbText
 10
186.8486
 20
119.8282999999999
 30
0.0
 40
3.2
  1
W1/2
  7
BIGFONT
100
AcDbText
  0
LINE
  5
300
330
1E
100
AcDbEntity
  8
0
  6
CONTINUOUS
 62
     7
100
AcDbLine
 10
185.3275
 20
123.6817999999999
 30
0.0
 11
226.79936360798
 21
123.6817999999999
 31
0.0
  0
LINE
  5
301
330
1E
100
AcDbEntity
  8
0
  6
CONTINUOUS
 62
     7
100
AcDbLine
 10
185.3275
 20
123.6817999999999
 30
0.0
 11
174.99786
 21
120.3839
 31
0.0
  0
LINE
  5
302
330
1E
100
AcDbEntity
  8
0
  6
CONTINUOUS
 62
     7
100
AcDbLine
 10
176.0423499999999
 20
121.0542699999999
 30
0.0
 11
174.997
 21
120.3829999999999
 31
0.0
  0
LINE
  5
303
330
1E
100
AcDbEntity
  8
0
  6
CONTINUOUS
 62
     7
100
AcDbLine
 10
174.997
 20
120.3829999999999
 30
0.0
 11
176.2379399999999
 21
120.44166
 31
0.0
  0
CIRCLE
  5
304
330
1E
100
AcDbEntity
  8
0
  6
CONTINUOUS
 62
     7
100
AcDbCircle
 10
176.68476
 20
63.2896
 30
0.0
 40
0.5
  0
LINE
  5
305
330
1E
100
AcDbEntity
  8
0
  6
CONTINUOUS
 62
     7
100
AcDbLine
 10
176.68476
 20
61.95626
 30
0.0
 11
176.68476
 21
64.62293000000001
 31
0.0
  0
LINE
  5
306
330
1E
100
AcDbEntity
  8
0
  6
CONTINUOUS
 62
     7
100
AcDbLine
 10
175.3514299999999
 20
63.2896
 30
0.0
 11
178.0180999999999
 21
63.2896
 31
0.0
  0
LINE
  5
307
330
1E
100
AcDbEntity
  8
0
  6
CONTINUOUS
 62
     7
100
AcDbLine
 10
171.85143
 20
73.4876
 30
0.0
 11
176.68476
 21
73.4876
 31
0.0
  0
LINE
  5
308
330
1E
100
AcDbEntity
  8
0
  6
CONTINUOUS
 62
     7
100
AcDbLine
 10
176.68476
 20
65.26869999999999
 30
0.0
 11
176.68476
 21
74.2876
 31
0.0
  0
LINE
  5
309
330
1E
100
AcDbEntity
  8
0
  6
CONTINUOUS
 62
     7
100
AcDbLine
 10
171.85143
 20
73.04613
 30
0.0
 11
171.85143
 21
74.2876
 31
0.0
  0
LINE
  5
30A
330
1E
100
AcDbEntity
  8
0
  6
CONTINUOUS
 62
     7
100
AcDbLine
 10
179.08476
 20
73.4876
 30
0.0
 11
176.68476
 21
73.4876
 31
0.0
  0
LINE
  5
30B
330
1E
100
AcDbEntity
  8
0
  6
CONTINUOUS
 62
     7
100
AcDbLine
 10
177.8839999999999
 20
73.80853
 30
0.0
 11
176.684
 21
73.487
 31
0.0
  0
LINE
  5
30C
330
1E
100
AcDbEntity
  8
0
  6
CONTINUOUS
 62
     7
100
AcDbLine
 10
176.684
 20
73.487
 30
0.0
 11
177.8839999999999
 21
73.16545999999998
 31
0.0
  0
LINE
  5
30D
330
1E
100
AcDbEntity
  8
0
  6
CONTINUOUS
 62
     7
100
AcDbLine
 10
171.85143
 20
73.4876
 30
0.0
 11
169.45143
 21
73.4876
 31
0.0
  0
LINE
  5
30E
330
1E
100
AcDbEntity
  8
0
  6
CONTINUOUS
 62
     7
100
AcDbLine
 10
170.6509999999999
 20
73.16545999999998
 30
0.0
 11
171.851
 21
73.487
 31
0.0
  0
LINE
  5
30F
330
1E
100
AcDbEntity
  8
0
  6
CONTINUOUS
 62
     7
100
AcDbLine
 10
171.851
 20
73.487
 30
0.0
 11
170.6509999999999
 21
73.80853
 31
0.0
  0
LINE
  5
310
330
1E
100
AcDbEntity
  8
0
  6
CONTINUOUS
 62
     7
100
AcDbLine
 10
169.45143
 20
73.4876
 30
0.0
 11
163.53143
 21
73.4876
 31
0.0
  0
TEXT
  5
311
330
1E
100
AcDbEntity
  8
0
  6
CONTINUOUS
 62
     7
100
AcDbText
 10
163.53143
 20
73.88760000000002
 30
0.0
 40
3.2
  1
145
 41
0.8125
  7
BIGFONT
100
AcDbText
  0
CIRCLE
  5
312
330
1E
100
AcDbEntity
  8
0
  6
CONTINUOUS
 62
     7
100
AcDbCircle
 10
-85.04283
 20
-111.99566
 30
0.0
 40
2.5
  0
TEXT
  5
313
330
1E
100
AcDbEntity
  8
0
  6
CONTINUOUS
 62
     7
100
AcDbText
 10
-86.64190000000003
 20
-113.76903
 30
0.0
 40
3.2
  1
２
  7
BIGFONT
100
AcDbText
  0
LINE
  5
314
330
1E
100
AcDbEntity
  8
0
  6
CONTINUOUS
 62
     7
100
AcDbLine
 10
-87.68349999999998
 20
-114.47036
 30
0.0
 11
-71.6835
 21
-114.47036
 31
0.0
  0
TEXT
  5
315
330
1E
100
AcDbEntity
  8
0
  6
CONTINUOUS
 62
     7
100
AcDbText
 10
-81.08473000000001
 20
-113.7510299999999
 30
0.0
 40
3.2
  1
D16
  7
BIGFONT
100
AcDbText
  0
CIRCLE
  5
316
330
1E
100
AcDbEntity
  8
0
  6
CONTINUOUS
 62
     7
100
AcDbCircle
 10
-26.2067
 20
-62.46233
 30
0.0
 40
2.5
  0
TEXT
  5
317
330
1E
100
AcDbEntity
  8
0
  6
CONTINUOUS
 62
     7
100
AcDbText
 10
-24.38333
 20
-64.0614
 30
0.0
 40
3.2
  1
２
 50
90.0
  7
BIGFONT
100
AcDbText
  0
LINE
  5
318
330
1E
100
AcDbEntity
  8
0
  6
CONTINUOUS
 62
     7
100
AcDbLine
 10
-23.70873
 20
-65.84403
 30
0.0
 11
-23.70873
 21
-49.84403
 31
0.0
  0
TEXT
  5
319
330
1E
100
AcDbEntity
  8
0
  6
CONTINUOUS
 62
     7
100
AcDbText
 10
-24.45133
 20
-58.50423000000001
 30
0.0
 40
3.2
  1
D16
 50
90.0
  7
BIGFONT
100
AcDbText
  0
TEXT
  5
31A
330
1E
100
AcDbEntity
  8
3
  6
CONTINUOUS
 62
     7
100
AcDbText
 10
246.0979999999999
 20
-158.7769999999999
 30
0.0
 40
3.799999999999998
  1
ＫＬ－３１０８
 41
0.7
  7
BIGFONT
100
AcDbText
  0
LINE
  5
31B
330
1E
100
AcDbEntity
  8
0
  6
CONTINUOUS
 62
     7
100
AcDbLine
 10
240.1847599999999
 20
-91.012
 30
0.0
 11
240.1847599999999
 21
-36.012
 31
0.0
  0
LINE
  5
31C
330
1E
100
AcDbEntity
  8
0
  6
CONTINUOUS
 62
     7
100
AcDbLine
 10
233.8684
 20
-111.3623
 30
0.0
 11
247.2017299999999
 21
-98.02896
 31
0.0
  0
LINE
  5
31D
330
1E
100
AcDbEntity
  8
0
  6
CONTINUOUS
 62
     7
100
AcDbLine
 10
240.89187
 20
-91.7191
 30
0.0
 11
247.76741
 21
-98.59465
 31
0.0
  0
LINE
  5
31E
330
1E
100
AcDbEntity
  8
0
  6
CONTINUOUS
 62
     7
100
AcDbLine
 10
227.55854
 20
-105.05244
 30
0.0
 11
234.4340799999999
 21
-111.92798
 31
0.0
  0
LINE
  5
31F
330
1E
100
AcDbEntity
  8
0
  6
CONTINUOUS
 62
     7
100
AcDbLine
 10
246.5798299999999
 20
-99.10389000000002
 30
0.0
 11
247.201
 21
-98.02800000000001
 31
0.0
  0
LINE
  5
320
330
1E
100
AcDbEntity
  8
0
  6
CONTINUOUS
 62
     7
100
AcDbLine
 10
247.201
 20
-98.02800000000001
 30
0.0
 11
246.1251
 21
-98.64916
 31
0.0
  0
LINE
  5
321
330
1E
100
AcDbEntity
  8
0
  6
CONTINUOUS
 62
     7
100
AcDbLine
 10
234.4891599999999
 20
-110.2861
 30
0.0
 11
233.868
 21
-111.362
 31
0.0
  0
LINE
  5
322
330
1E
100
AcDbEntity
  8
0
  6
CONTINUOUS
 62
     7
100
AcDbLine
 10
233.868
 20
-111.362
 30
0.0
 11
234.9438899999999
 21
-110.74083
 31
0.0
  0
TEXT
  5
323
330
1E
100
AcDbEntity
  8
0
  6
CONTINUOUS
 62
     7
100
AcDbText
 10
237.67835
 20
-106.98665
 30
0.0
 40
3.2
  1
566
 50
45.0
 41
0.8125
  7
BIGFONT
100
AcDbText
  0
LINE
  5
324
330
1E
100
AcDbEntity
  8
0
  6
CONTINUOUS
 62
     7
100
AcDbLine
 10
-101.6834999999999
 20
-104.34533
 30
0.0
 11
-101.6834999999999
 21
-36.012
 31
0.0
  0
LINE
  5
325
330
1E
100
AcDbEntity
  8
0
  6
CONTINUOUS
 62
     7
100
AcDbLine
 10
-101.6834999999999
 20
-36.012
 30
0.0
 11
-33.35015999999999
 21
-36.012
 31
0.0
  0
LINE
  5
326
330
1E
100
AcDbEntity
  8
0
  6
CONTINUOUS
 62
     7
100
AcDbLine
 10
-101.6834999999999
 20
-104.34533
 30
0.0
 11
-46.6835
 21
-104.34533
 31
0.0
  0
LINE
  5
327
330
1E
100
AcDbEntity
  8
0
  6
CONTINUOUS
 62
     7
100
AcDbLine
 10
-33.35015999999999
 20
-91.012
 30
0.0
 11
-33.35015999999999
 21
-36.012
 31
0.0
  0
LINE
  5
328
330
1E
100
AcDbEntity
  8
0
  6
CONTINUOUS
 62
     7
100
AcDbLine
 10
-230.9441
 20
-104.34533
 30
0.0
 11
-230.9441
 21
-36.012
 31
0.0
  0
LINE
  5
329
330
1E
100
AcDbEntity
  8
0
  6
CONTINUOUS
 62
     7
100
AcDbLine
 10
-230.9441
 20
-36.012
 30
0.0
 11
-162.61076
 21
-36.012
 31
0.0
  0
LINE
  5
32A
330
1E
100
AcDbEntity
  8
0
  6
CONTINUOUS
 62
     7
100
AcDbLine
 10
-230.9441
 20
-104.34533
 30
0.0
 11
-175.9440999999999
 21
-104.34533
 31
0.0
  0
LINE
  5
32B
330
1E
100
AcDbEntity
  8
0
  6
CONTINUOUS
 62
     7
100
AcDbLine
 10
-162.61076
 20
-91.012
 30
0.0
 11
-162.61076
 21
-36.012
 31
0.0
  0
LINE
  5
32C
330
1E
100
AcDbEntity
  8
0
  6
CONTINUOUS
 62
     1
100
AcDbLine
 10
-35.01682999999999
 20
-90.32166
 30
0.0
 11
-35.01682999999999
 21
-37.84532999999999
 31
0.0
  0
LINE
  5
32D
330
1E
100
AcDbEntity
  8
0
  6
CONTINUOUS
 62
     1
100
AcDbLine
 10
-47.37383
 20
-102.6786599999997
 30
0.0
 11
-35.01682999999999
 21
-90.32166
 31
0.0
  0
LINE
  5
32E
330
1E
100
AcDbEntity
  8
0
  6
CONTINUOUS
 62
     7
100
AcDbLine
 10
-230.9441
 20
-20.17866
 30
0.0
 11
-162.61076
 21
-20.17866
 31
0.0
  0
LINE
  5
32F
330
1E
100
AcDbEntity
  8
0
  6
CONTINUOUS
 62
     7
100
AcDbLine
 10
-162.61076
 20
-35.012
 30
0.0
 11
-162.61076
 21
-19.37865999999998
 31
0.0
  0
LINE
  5
330
330
1E
100
AcDbEntity
  8
0
  6
CONTINUOUS
 62
     7
100
AcDbLine
 10
-230.9441
 20
-35.012
 30
0.0
 11
-230.9441
 21
-19.37865999999998
 31
0.0
  0
LINE
  5
331
330
1E
100
AcDbEntity
  8
0
  6
CONTINUOUS
 62
     7
100
AcDbLine
 10
-163.81
 20
-20.49952999999999
 30
0.0
 11
-162.61
 21
-20.178
 31
0.0
  0
LINE
  5
332
330
1E
100
AcDbEntity
  8
0
  6
CONTINUOUS
 62
     7
100
AcDbLine
 10
-162.61
 20
-20.178
 30
0.0
 11
-163.81
 21
-19.85646
 31
0.0
  0
LINE
  5
333
330
1E
100
AcDbEntity
  8
0
  6
CONTINUOUS
 62
     7
100
AcDbLine
 10
-229.7439999999999
 20
-19.85646
 30
0.0
 11
-230.9439999999999
 21
-20.178
 31
0.0
  0
LINE
  5
334
330
1E
100
AcDbEntity
  8
0
  6
CONTINUOUS
 62
     7
100
AcDbLine
 10
-230.9439999999999
 20
-20.178
 30
0.0
 11
-229.7439999999999
 21
-20.49952999999999
 31
0.0
  0
TEXT
  5
335
330
1E
100
AcDbEntity
  8
0
  6
CONTINUOUS
 62
     7
100
AcDbText
 10
-201.9774299999999
 20
-19.77866
 30
0.0
 40
3.2
  1
2050
 41
0.8125
  7
BIGFONT
100
AcDbText
  0
LINE
  5
336
330
1E
100
AcDbEntity
  8
0
  6
CONTINUOUS
 62
     7
100
AcDbLine
 10
-101.6834999999999
 20
-20.17866
 30
0.0
 11
-33.35015999999999
 21
-20.17866
 31
0.0
  0
LINE
  5
337
330
1E
100
AcDbEntity
  8
0
  6
CONTINUOUS
 62
     7
100
AcDbLine
 10
-33.35015999999999
 20
-35.012
 30
0.0
 11
-33.35015999999999
 21
-19.37865999999998
 31
0.0
  0
LINE
  5
338
330
1E
100
AcDbEntity
  8
0
  6
CONTINUOUS
 62
     7
100
AcDbLine
 10
-101.6834999999999
 20
-31.36696
 30
0.0
 11
-101.6834999999999
 21
-19.37865999999998
 31
0.0
  0
LINE
  5
339
330
1E
100
AcDbEntity
  8
0
  6
CONTINUOUS
 62
     7
100
AcDbLine
 10
-34.55
 20
-20.49952999999999
 30
0.0
 11
-33.35
 21
-20.178
 31
0.0
  0
LINE
  5
33A
330
1E
100
AcDbEntity
  8
0
  6
CONTINUOUS
 62
     7
100
AcDbLine
 10
-33.35
 20
-20.178
 30
0.0
 11
-34.55
 21
-19.85646
 31
0.0
  0
LINE
  5
33B
330
1E
100
AcDbEntity
  8
0
  6
CONTINUOUS
 62
     7
100
AcDbLine
 10
-100.4829999999999
 20
-19.85646
 30
0.0
 11
-101.6829999999999
 21
-20.178
 31
0.0
  0
LINE
  5
33C
330
1E
100
AcDbEntity
  8
0
  6
CONTINUOUS
 62
     7
100
AcDbLine
 10
-101.6829999999999
 20
-20.178
 30
0.0
 11
-100.4829999999999
 21
-20.49952999999999
 31
0.0
  0
TEXT
  5
33D
330
1E
100
AcDbEntity
  8
0
  6
CONTINUOUS
 62
     7
100
AcDbText
 10
-72.71683
 20
-19.77866
 30
0.0
 40
3.2
  1
2050
 41
0.8125
  7
BIGFONT
100
AcDbText
  0
TEXT
  5
33E
330
1E
100
AcDbEntity
  8
1
  6
CONTINUOUS
 62
     7
100
AcDbText
 10
-199.069380029238
 20
-140.7973
 30
0.0
 40
4.5
  1
鉄筋加工図
  7
BIGFONT
100
AcDbText
  0
LINE
  5
33F
330
1E
100
AcDbEntity
  8
1
  6
CONTINUOUS
 62
     7
100
AcDbLine
 10
-203.80726
 20
-141.6044
 30
0.0
 11
-167.5234399999999
 21
-141.6044
 31
0.0
  0
LINE
  5
340
330
1E
100
AcDbEntity
  8
1
  6
CONTINUOUS
 62
     7
100
AcDbLine
 10
-175.5234399999999
 20
-141.6044
 30
0.0
 11
-174.81484
 21
-141.6044
 31
0.0
  0
LINE
  5
341
330
1E
100
AcDbEntity
  8
1
  6
CONTINUOUS
 62
     1
100
AcDbLine
 10
-236.6182
 20
-175.1018399999999
 30
0.0
 11
-227.2941799999999
 21
-175.1018399999999
 31
0.0
  0
LINE
  5
342
330
1E
100
AcDbEntity
  8
1
  6
CONTINUOUS
 62
     7
100
AcDbLine
 10
-236.6182
 20
-183.0691999999999
 30
0.0
 11
-227.2941799999999
 21
-183.0691999999999
 31
0.0
  0
LINE
  5
343
330
1E
100
AcDbEntity
  8
1
  6
CONTINUOUS
 62
     7
100
AcDbLine
 10
-227.2941799999999
 20
-176.1018399999999
 30
0.0
 11
-227.2941799999999
 21
-183.8691999999999
 31
0.0
  0
LINE
  5
344
330
1E
100
AcDbEntity
  8
1
  6
CONTINUOUS
 62
     7
100
AcDbLine
 10
-236.6182
 20
-175.42626
 30
0.0
 11
-236.6182
 21
-183.8691999999999
 31
0.0
  0
LINE
  5
345
330
1E
100
AcDbEntity
  8
1
  6
CONTINUOUS
 62
     7
100
AcDbLine
 10
-228.494
 20
-183.3905299999999
 30
0.0
 11
-227.294
 21
-183.0689999999999
 31
0.0
  0
LINE
  5
346
330
1E
100
AcDbEntity
  8
1
  6
CONTINUOUS
 62
     7
100
AcDbLine
 10
-227.294
 20
-183.0689999999999
 30
0.0
 11
-228.494
 21
-182.74746
 31
0.0
  0
LINE
  5
347
330
1E
100
AcDbEntity
  8
1
  6
CONTINUOUS
 62
     7
100
AcDbLine
 10
-235.4179999999999
 20
-182.74746
 30
0.0
 11
-236.6179999999999
 21
-183.0689999999999
 31
0.0
  0
LINE
  5
348
330
1E
100
AcDbEntity
  8
1
  6
CONTINUOUS
 62
     7
100
AcDbLine
 10
-236.6179999999999
 20
-183.0689999999999
 30
0.0
 11
-235.4179999999999
 21
-183.3905299999999
 31
0.0
  0
LINE
  5
349
330
1E
100
AcDbEntity
  8
1
  6
CONTINUOUS
 62
     1
100
AcDbLine
 10
-206.1182
 20
-175.1018399999999
 30
0.0
 11
-172.1181999999999
 21
-175.1018399999999
 31
0.0
  0
LINE
  5
34A
330
1E
100
AcDbEntity
  8
1
  6
CONTINUOUS
 62
     7
100
AcDbLine
 10
-206.1182
 20
-183.0714199999999
 30
0.0
 11
-172.1181999999999
 21
-183.0714199999999
 31
0.0
  0
LINE
  5
34B
330
1E
100
AcDbEntity
  8
1
  6
CONTINUOUS
 62
     7
100
AcDbLine
 10
-172.1181999999999
 20
-176.1018399999999
 30
0.0
 11
-172.1181999999999
 21
-183.87142
 31
0.0
  0
LINE
  5
34C
330
1E
100
AcDbEntity
  8
1
  6
CONTINUOUS
 62
     7
100
AcDbLine
 10
-206.1182
 20
-175.42626
 30
0.0
 11
-206.1182
 21
-183.87142
 31
0.0
  0
LINE
  5
34D
330
1E
100
AcDbEntity
  8
1
  6
CONTINUOUS
 62
     7
100
AcDbLine
 10
-173.3179999999999
 20
-183.3925299999999
 30
0.0
 11
-172.1179999999999
 21
-183.071
 31
0.0
  0
LINE
  5
34E
330
1E
100
AcDbEntity
  8
1
  6
CONTINUOUS
 62
     7
100
AcDbLine
 10
-172.1179999999999
 20
-183.071
 30
0.0
 11
-173.3179999999999
 21
-182.7494599999999
 31
0.0
  0
LINE
  5
34F
330
1E
100
AcDbEntity
  8
1
  6
CONTINUOUS
 62
     7
100
AcDbLine
 10
-204.918
 20
-182.7494599999999
 30
0.0
 11
-206.1179999999999
 21
-183.071
 31
0.0
  0
LINE
  5
350
330
1E
100
AcDbEntity
  8
1
  6
CONTINUOUS
 62
     7
100
AcDbLine
 10
-206.1179999999999
 20
-183.071
 30
0.0
 11
-204.918
 21
-183.3925299999999
 31
0.0
  0
LINE
  5
351
330
1E
100
AcDbEntity
  8
1
  6
CONTINUOUS
 62
     1
100
AcDbLine
 10
-151.01316
 20
-175.1018399999999
 30
0.0
 11
-123.6131599999999
 21
-175.1018399999999
 31
0.0
  0
LINE
  5
352
330
1E
100
AcDbEntity
  8
1
  6
CONTINUOUS
 62
     1
100
AcDbLine
 10
-151.61316
 20
-174.50184
 30
0.0
 11
-151.61316
 21
-150.1018399999999
 31
0.0
  0
ARC
  5
353
330
1E
100
AcDbEntity
  8
1
  6
CONTINUOUS
 62
     1
100
AcDbCircle
 10
-151.01316
 20
-174.50184
 30
0.0
 40
0.6
100
AcDbArc
 50
180.0
 51
270.0
  0
LINE
  5
354
330
1E
100
AcDbEntity
  8
1
  6
CONTINUOUS
 62
     7
100
AcDbLine
 10
-151.11482
 20
-183.0714199999999
 30
0.0
 11
-123.6131599999999
 21
-183.0714199999999
 31
0.0
  0
LINE
  5
355
330
1E
100
AcDbEntity
  8
1
  6
CONTINUOUS
 62
     7
100
AcDbLine
 10
-123.6131599999999
 20
-176.1018399999999
 30
0.0
 11
-123.6131599999999
 21
-183.87142
 31
0.0
  0
LINE
  5
356
330
1E
100
AcDbEntity
  8
1
  6
CONTINUOUS
 62
     7
100
AcDbLine
 10
-151.11482
 20
-175.48414
 30
0.0
 11
-151.11482
 21
-183.87142
 31
0.0
  0
LINE
  5
357
330
1E
100
AcDbEntity
  8
1
  6
CONTINUOUS
 62
     7
100
AcDbLine
 10
-124.8129999999999
 20
-183.3925299999999
 30
0.0
 11
-123.6129999999999
 21
-183.071
 31
0.0
  0
LINE
  5
358
330
1E
100
AcDbEntity
  8
1
  6
CONTINUOUS
 62
     7
100
AcDbLine
 10
-123.6129999999999
 20
-183.071
 30
0.0
 11
-124.8129999999999
 21
-182.7494599999999
 31
0.0
  0
LINE
  5
359
330
1E
100
AcDbEntity
  8
1
  6
CONTINUOUS
 62
     7
100
AcDbLine
 10
-149.9139999999998
 20
-182.7494599999999
 30
0.0
 11
-151.114
 21
-183.071
 31
0.0
  0
LINE
  5
35A
330
1E
100
AcDbEntity
  8
1
  6
CONTINUOUS
 62
     7
100
AcDbLine
 10
-151.114
 20
-183.071
 30
0.0
 11
-149.9139999999998
 21
-183.3925299999999
 31
0.0
  0
LINE
  5
35B
330
1E
100
AcDbEntity
  8
1
  6
CONTINUOUS
 62
     7
100
AcDbLine
 10
-159.69008
 20
-174.50184
 30
0.0
 11
-159.69008
 21
-150.1018399999999
 31
0.0
  0
LINE
  5
35C
330
1E
100
AcDbEntity
  8
1
  6
CONTINUOUS
 62
     7
100
AcDbLine
 10
-152.6900799999999
 20
-150.1018399999999
 30
0.0
 11
-160.49008
 21
-150.1018399999999
 31
0.0
  0
LINE
  5
35D
330
1E
100
AcDbEntity
  8
1
  6
CONTINUOUS
 62
     7
100
AcDbLine
 10
-152.6900799999999
 20
-174.50184
 30
0.0
 11
-160.49008
 21
-174.50184
 31
0.0
  0
LINE
  5
35E
330
1E
100
AcDbEntity
  8
1
  6
CONTINUOUS
 62
     7
100
AcDbLine
 10
-159.36846
 20
-151.3009999999999
 30
0.0
 11
-159.6899999999999
 21
-150.1009999999999
 31
0.0
  0
LINE
  5
35F
330
1E
100
AcDbEntity
  8
1
  6
CONTINUOUS
 62
     7
100
AcDbLine
 10
-159.6899999999999
 20
-150.1009999999999
 30
0.0
 11
-160.0115299999998
 21
-151.3009999999999
 31
0.0
  0
LINE
  5
360
330
1E
100
AcDbEntity
  8
1
  6
CONTINUOUS
 62
     7
100
AcDbLine
 10
-160.0115299999998
 20
-173.3009999999999
 30
0.0
 11
-159.6899999999999
 21
-174.5009999999999
 31
0.0
  0
LINE
  5
361
330
1E
100
AcDbEntity
  8
1
  6
CONTINUOUS
 62
     7
100
AcDbLine
 10
-159.6899999999999
 20
-174.5009999999999
 30
0.0
 11
-159.36846
 21
-173.3009999999999
 31
0.0
  0
ARC
  5
362
330
1E
100
AcDbEntity
  8
1
  6
CONTINUOUS
 62
     7
100
AcDbCircle
 10
-151.11482
 20
-174.50184
 30
0.0
 40
8.57526
100
AcDbArc
 50
191.5780499999999
 51
238.71324
  0
ARC
  5
363
330
1E
100
AcDbEntity
  8
1
  6
CONTINUOUS
 62
     7
100
AcDbCircle
 10
-151.11482
 20
-174.50184
 30
0.0
 40
8.57526
100
AcDbArc
 50
238.71324
 51
246.3633899999999
  0
LINE
  5
364
330
1E
100
AcDbEntity
  8
1
  6
CONTINUOUS
 62
     7
100
AcDbLine
 10
-151.11482
 20
-182.2545599999999
 30
0.0
 11
-151.11482
 21
-180.4713399999999
 31
0.0
  0
ARC
  5
365
330
1E
100
AcDbEntity
  8
1
  6
CONTINUOUS
 62
     7
100
AcDbCircle
 10
-151.11482
 20
-174.50184
 30
0.0
 40
8.57526
100
AcDbArc
 50
246.3633899999999
 51
247.8281799999999
  0
ARC
  5
366
330
1E
100
AcDbEntity
  8
1
  6
CONTINUOUS
 62
     7
100
AcDbCircle
 10
-151.11482
 20
-174.50184
 30
0.0
 40
8.57526
100
AcDbArc
 50
247.8281799999999
 51
258.01527
  0
LINE
  5
367
330
1E
100
AcDbEntity
  8
1
  6
CONTINUOUS
 62
     7
100
AcDbLine
 10
-159.53148
 20
-176.1434399999999
 30
0.0
 11
-159.69008
 21
-174.50184
 31
0.0
  0
LINE
  5
368
330
1E
100
AcDbEntity
  8
1
  6
CONTINUOUS
 62
     7
100
AcDbLine
 10
-159.2545499999999
 20
-175.66451
 30
0.0
 11
-159.6899999999999
 21
-174.5009999999999
 31
0.0
  0
LINE
  5
369
330
1E
100
AcDbEntity
  8
1
  6
CONTINUOUS
 62
     7
100
AcDbLine
 10
-159.6899999999999
 20
-174.5009999999999
 30
0.0
 11
-159.89465
 21
-175.72635
 31
0.0
  0
LINE
  5
36A
330
1E
100
AcDbEntity
  8
1
  6
CONTINUOUS
 62
     7
100
AcDbLine
 10
-152.8272199999999
 20
-182.9043799999999
 30
0.0
 11
-151.11482
 21
-183.0771
 31
0.0
  0
LINE
  5
36B
330
1E
100
AcDbEntity
  8
1
  6
CONTINUOUS
 62
     7
100
AcDbLine
 10
-152.34021
 20
-183.2764799999999
 30
0.0
 11
-151.114
 21
-183.077
 31
0.0
  0
LINE
  5
36C
330
1E
100
AcDbEntity
  8
1
  6
CONTINUOUS
 62
     7
100
AcDbLine
 10
-151.114
 20
-183.077
 30
0.0
 11
-152.2756699999999
 21
-182.6366499999999
 31
0.0
  0
ARC
  5
36D
330
1E
100
AcDbEntity
  8
1
  6
CONTINUOUS
 62
     7
100
AcDbCircle
 10
-151.11482
 20
-174.50184
 30
0.0
 40
8.57526
100
AcDbArc
 50
258.01527
 51
258.41701
  0
LINE
  5
36E
330
1E
100
AcDbEntity
  8
1
  6
CONTINUOUS
 62
     7
100
AcDbLine
 10
-151.11482
 20
-182.8996399999999
 30
0.0
 11
-151.11482
 21
-182.2545599999999
 31
0.0
  0
LINE
  5
36F
330
1E
100
AcDbEntity
  8
1
  6
CONTINUOUS
 62
     7
100
AcDbLine
 10
-159.69008
 20
-174.50184
 30
0.0
 11
-159.69008
 21
-170.14648
 31
0.0
  0
ARC
  5
370
330
1E
100
AcDbEntity
  8
1
  6
CONTINUOUS
 62
     7
100
AcDbCircle
 10
-151.11482
 20
-174.50184
 30
0.0
 40
8.57526
100
AcDbArc
 50
191.0231699999999
 51
191.5780499999999
  0
LINE
  5
371
330
1E
100
AcDbEntity
  8
1
  6
CONTINUOUS
 62
     7
100
AcDbLine
 10
-151.11482
 20
-176.8179999999999
 30
0.0
 11
-151.11482
 21
-174.50184
 31
0.0
  0
LINE
  5
372
330
1E
100
AcDbEntity
  8
1
  6
CONTINUOUS
 62
     7
100
AcDbLine
 10
-153.6724
 20
-174.50184
 30
0.0
 11
-151.11482
 21
-174.50184
 31
0.0
  0
LINE
  5
373
330
1E
100
AcDbEntity
  8
1
  6
CONTINUOUS
 62
     1
100
AcDbLine
 10
-91.76759999999999
 20
-148.69478
 30
0.0
 11
-88.93918000000002
 21
-145.86636
 31
0.0
  0
LINE
  5
374
330
1E
100
AcDbEntity
  8
1
  6
CONTINUOUS
 62
     1
100
AcDbLine
 10
-101.76758
 20
-148.69478
 30
0.0
 11
-91.76759999999999
 21
-148.69478
 31
0.0
  0
LINE
  5
375
330
1E
100
AcDbEntity
  8
1
  6
CONTINUOUS
 62
     1
100
AcDbLine
 10
-104.5960199999999
 20
-145.86636
 30
0.0
 11
-101.76758
 21
-148.69478
 31
0.0
  0
LINE
  5
376
330
1E
100
AcDbEntity
  8
1
  6
CONTINUOUS
 62
     7
100
AcDbLine
 10
-110.2528799999999
 20
-151.5232199999998
 30
0.0
 11
-107.42445
 21
-154.35165
 31
0.0
  0
LINE
  5
377
330
1E
100
AcDbEntity
  8
1
  6
CONTINUOUS
 62
     7
100
AcDbLine
 10
-102.47468
 20
-149.40188
 30
0.0
 11
-107.99013
 21
-154.9173299999999
 31
0.0
  0
LINE
  5
378
330
1E
100
AcDbEntity
  8
1
  6
CONTINUOUS
 62
     7
100
AcDbLine
 10
-105.3031199999999
 20
-146.57346
 30
0.0
 11
-110.81856
 21
-152.0888999999999
 31
0.0
  0
LINE
  5
379
330
1E
100
AcDbEntity
  8
1
  6
CONTINUOUS
 62
     7
100
AcDbLine
 10
-108.4998899999999
 20
-153.7298299999999
 30
0.0
 11
-107.4239999999999
 21
-154.3509999999999
 31
0.0
  0
LINE
  5
37A
330
1E
100
AcDbEntity
  8
1
  6
CONTINUOUS
 62
     7
100
AcDbLine
 10
-107.4239999999999
 20
-154.3509999999999
 30
0.0
 11
-108.04516
 21
-153.2751
 31
0.0
  0
LINE
  5
37B
330
1E
100
AcDbEntity
  8
1
  6
CONTINUOUS
 62
     7
100
AcDbLine
 10
-109.1760999999999
 20
-152.1441599999999
 30
0.0
 11
-110.2519999999999
 21
-151.523
 31
0.0
  0
LINE
  5
37C
330
1E
100
AcDbEntity
  8
1
  6
CONTINUOUS
 62
     7
100
AcDbLine
 10
-110.2519999999999
 20
-151.523
 30
0.0
 11
-109.63083
 21
-152.5988899999999
 31
0.0
  0
LINE
  5
37D
330
1E
100
AcDbEntity
  8
1
  6
CONTINUOUS
 62
     7
100
AcDbLine
 10
-86.13226
 20
-154.3301199999999
 30
0.0
 11
-83.30384
 21
-151.5017
 31
0.0
  0
LINE
  5
37E
330
1E
100
AcDbEntity
  8
1
  6
CONTINUOUS
 62
     7
100
AcDbLine
 10
-88.23207
 20
-146.57346
 30
0.0
 11
-82.73815
 21
-152.06738
 31
0.0
  0
LINE
  5
37F
330
1E
100
AcDbEntity
  8
1
  6
CONTINUOUS
 62
     7
100
AcDbLine
 10
-91.06049
 20
-149.40188
 30
0.0
 11
-85.56656999999999
 21
-154.8958
 31
0.0
  0
LINE
  5
380
330
1E
100
AcDbEntity
  8
1
  6
CONTINUOUS
 62
     7
100
AcDbLine
 10
-83.92416
 20
-152.5768899999999
 30
0.0
 11
-83.30299999999999
 21
-151.501
 31
0.0
  0
LINE
  5
381
330
1E
100
AcDbEntity
  8
1
  6
CONTINUOUS
 62
     7
100
AcDbLine
 10
-83.30299999999999
 20
-151.501
 30
0.0
 11
-84.37889
 21
-152.12216
 31
0.0
  0
LINE
  5
382
330
1E
100
AcDbEntity
  8
1
  6
CONTINUOUS
 62
     7
100
AcDbLine
 10
-85.51083
 20
-153.2540999999999
 30
0.0
 11
-86.132
 21
-154.33
 31
0.0
  0
LINE
  5
383
330
1E
100
AcDbEntity
  8
1
  6
CONTINUOUS
 62
     7
100
AcDbLine
 10
-86.132
 20
-154.33
 30
0.0
 11
-85.0561
 21
-153.70883
 31
0.0
  0
LINE
  5
384
330
1E
100
AcDbEntity
  8
1
  6
CONTINUOUS
 62
     7
100
AcDbLine
 10
-101.76758
 20
-156.6948
 30
0.0
 11
-91.76759999999999
 21
-156.6948
 31
0.0
  0
LINE
  5
385
330
1E
100
AcDbEntity
  8
1
  6
CONTINUOUS
 62
     7
100
AcDbLine
 10
-91.76759999999999
 20
-149.69478
 30
0.0
 11
-91.76759999999999
 21
-157.4948
 31
0.0
  0
LINE
  5
386
330
1E
100
AcDbEntity
  8
1
  6
CONTINUOUS
 62
     7
100
AcDbLine
 10
-101.76758
 20
-149.69478
 30
0.0
 11
-101.76758
 21
-157.4948
 31
0.0
  0
LINE
  5
387
330
1E
100
AcDbEntity
  8
1
  6
CONTINUOUS
 62
     7
100
AcDbLine
 10
-92.96699999999999
 20
-157.01553
 30
0.0
 11
-91.76700000000002
 21
-156.6939999999999
 31
0.0
  0
LINE
  5
388
330
1E
100
AcDbEntity
  8
1
  6
CONTINUOUS
 62
     7
100
AcDbLine
 10
-91.76700000000002
 20
-156.6939999999999
 30
0.0
 11
-92.96699999999999
 21
-156.37246
 31
0.0
  0
LINE
  5
389
330
1E
100
AcDbEntity
  8
1
  6
CONTINUOUS
 62
     7
100
AcDbLine
 10
-100.5669999999999
 20
-156.37246
 30
0.0
 11
-101.767
 21
-156.6939999999999
 31
0.0
  0
LINE
  5
38A
330
1E
100
AcDbEntity
  8
1
  6
CONTINUOUS
 62
     7
100
AcDbLine
 10
-101.767
 20
-156.6939999999999
 30
0.0
 11
-100.5669999999999
 21
-157.01553
 31
0.0
  0
TEXT
  5
38B
330
1E
100
AcDbEntity
  8
1
  6
CONTINUOUS
 62
     7
100
AcDbText
 10
-236.2927399999999
 20
-174.8043999999999
 30
0.0
 40
3.2
  1
Ｒ
 50
2.0
  7
BIGFONT
100
AcDbText
  0
TEXT
  5
38C
330
1E
100
AcDbEntity
  8
1
  6
CONTINUOUS
 62
     7
100
AcDbText
 10
-150.78936
 20
-174.87998
 30
0.0
 40
3.2
  1
Ｒ
 50
2.0
  7
BIGFONT
100
AcDbText
  0
TEXT
  5
38D
330
1E
100
AcDbEntity
  8
1
  6
CONTINUOUS
 62
     7
100
AcDbText
 10
-191.59476
 20
-182.43258
 30
0.0
 40
3.2
  1
Ｌ
  7
BIGFONT
100
AcDbText
  0
TEXT
  5
38E
330
1E
100
AcDbEntity
  8
1
  6
CONTINUOUS
 62
     7
100
AcDbText
 10
-188.5849999999999
 20
-182.2564999999999
 30
0.0
 40
2.2
  1
１
 41
1.1363636
  7
BIGFONT
100
AcDbText
  0
TEXT
  5
38F
330
1E
100
AcDbEntity
  8
1
  6
CONTINUOUS
 62
     7
100
AcDbText
 10
-234.43494
 20
-182.4688599999999
 30
0.0
 40
3.2
  1
Ｌ
  7
BIGFONT
100
AcDbText
  0
TEXT
  5
390
330
1E
100
AcDbEntity
  8
1
  6
CONTINUOUS
 62
     7
100
AcDbText
 10
-231.5040999999999
 20
-182.30014
 30
0.0
 40
2.2
  1
３
 41
1.1363636
  7
BIGFONT
100
AcDbText
  0
TEXT
  5
391
330
1E
100
AcDbEntity
  8
1
  6
CONTINUOUS
 62
     7
100
AcDbText
 10
-158.5926199999998
 20
-178.10762
 30
0.0
 40
3.2
  1
Ｌ
 50
315.0
  7
BIGFONT
100
AcDbText
  0
TEXT
  5
392
330
1E
100
AcDbEntity
  8
1
  6
CONTINUOUS
 62
     7
100
AcDbText
 10
-156.3911
 20
-180.0722999999999
 30
0.0
 40
2.2
  1
２
 50
315.0
 41
1.1363636
  7
BIGFONT
100
AcDbText
  0
TEXT
  5
393
330
1E
100
AcDbEntity
  8
1
  6
CONTINUOUS
 62
     7
100
AcDbText
 10
-139.5512199999999
 20
-182.4545799999999
 30
0.0
 40
3.2
  1
Ｌ
  7
BIGFONT
100
AcDbText
  0
TEXT
  5
394
330
1E
100
AcDbEntity
  8
1
  6
CONTINUOUS
 62
     7
100
AcDbText
 10
-136.54146
 20
-182.2785
 30
0.0
 40
2.2
  1
１
 41
1.1363636
  7
BIGFONT
100
AcDbText
  0
TEXT
  5
395
330
1E
100
AcDbEntity
  8
1
  6
CONTINUOUS
 62
     7
100
AcDbText
 10
-160.13646
 20
-165.4044599999999
 30
0.0
 40
3.2
  1
Ｌ
 50
90.0
  7
BIGFONT
100
AcDbText
  0
TEXT
  5
396
330
1E
100
AcDbEntity
  8
1
  6
CONTINUOUS
 62
     7
100
AcDbText
 10
-160.30518
 20
-162.4736199999999
 30
0.0
 40
2.2
  1
３
 50
90.0
 41
1.1363636
  7
BIGFONT
100
AcDbText
  0
TEXT
  5
397
330
1E
100
AcDbEntity
  8
1
  6
CONTINUOUS
 62
     7
100
AcDbText
 10
-99.68078
 20
-156.2322199999998
 30
0.0
 40
3.2
  1
Ｌ
  7
BIGFONT
100
AcDbText
  0
TEXT
  5
398
330
1E
100
AcDbEntity
  8
1
  6
CONTINUOUS
 62
     7
100
AcDbText
 10
-96.73484000000001
 20
-156.06474
 30
0.0
 40
2.2
  1
２
 41
1.1363636
  7
BIGFONT
100
AcDbText
  0
TEXT
  5
399
330
1E
100
AcDbEntity
  8
1
  6
CONTINUOUS
 62
     7
100
AcDbText
 10
-83.50614
 20
-157.4309399999999
 30
0.0
 40
3.2
  1
Ｌ
 50
45.0
  7
BIGFONT
100
AcDbText
  0
TEXT
  5
39A
330
1E
100
AcDbEntity
  8
1
  6
CONTINUOUS
 62
     7
100
AcDbText
 10
-81.50242
 20
-155.1782199999999
 30
0.0
 40
2.2
  1
１
 50
45.0
 41
1.1363636
  7
BIGFONT
100
AcDbText
  0
LINE
  5
39B
330
1E
100
AcDbEntity
  8
1
  6
CONTINUOUS
 62
     1
100
AcDbLine
 10
-237.1165399999999
 20
-174.50184
 30
0.0
 11
-237.1165399999999
 21
-141.20184
 31
0.0
  0
ARC
  5
39C
330
1E
100
AcDbEntity
  8
1
  6
CONTINUOUS
 62
     1
100
AcDbCircle
 10
-236.5165399999999
 20
-174.50184
 30
0.0
 40
0.6
100
AcDbArc
 50
180.0
 51
270.0
  0
LINE
  5
39D
330
1E
100
AcDbEntity
  8
1
  6
CONTINUOUS
 62
     7
100
AcDbLine
 10
-245.19346
 20
-174.50184
 30
0.0
 11
-245.19346
 21
-141.20184
 31
0.0
  0
LINE
  5
39E
330
1E
100
AcDbEntity
  8
1
  6
CONTINUOUS
 62
     7
100
AcDbLine
 10
-238.19346
 20
-141.20184
 30
0.0
 11
-245.9934599999999
 21
-141.20184
 31
0.0
  0
LINE
  5
39F
330
1E
100
AcDbEntity
  8
1
  6
CONTINUOUS
 62
     7
100
AcDbLine
 10
-238.19346
 20
-174.50184
 30
0.0
 11
-245.9934599999999
 21
-174.50184
 31
0.0
  0
LINE
  5
3A0
330
1E
100
AcDbEntity
  8
1
  6
CONTINUOUS
 62
     7
100
AcDbLine
 10
-244.87146
 20
-142.401
 30
0.0
 11
-245.1929999999999
 21
-141.2009999999999
 31
0.0
  0
LINE
  5
3A1
330
1E
100
AcDbEntity
  8
1
  6
CONTINUOUS
 62
     7
100
AcDbLine
 10
-245.1929999999999
 20
-141.2009999999999
 30
0.0
 11
-245.5145299999999
 21
-142.401
 31
0.0
  0
LINE
  5
3A2
330
1E
100
AcDbEntity
  8
1
  6
CONTINUOUS
 62
     7
100
AcDbLine
 10
-245.5145299999999
 20
-173.3009999999999
 30
0.0
 11
-245.1929999999999
 21
-174.5009999999999
 31
0.0
  0
LINE
  5
3A3
330
1E
100
AcDbEntity
  8
1
  6
CONTINUOUS
 62
     7
100
AcDbLine
 10
-245.1929999999999
 20
-174.5009999999999
 30
0.0
 11
-244.87146
 21
-173.3009999999999
 31
0.0
  0
ARC
  5
3A4
330
1E
100
AcDbEntity
  8
1
  6
CONTINUOUS
 62
     7
100
AcDbCircle
 10
-236.6182
 20
-174.50184
 30
0.0
 40
8.57526
100
AcDbArc
 50
191.5780499999999
 51
238.71324
  0
ARC
  5
3A5
330
1E
100
AcDbEntity
  8
1
  6
CONTINUOUS
 62
     7
100
AcDbCircle
 10
-236.6182
 20
-174.50184
 30
0.0
 40
8.57526
100
AcDbArc
 50
238.71324
 51
246.3633899999999
  0
ARC
  5
3A6
330
1E
100
AcDbEntity
  8
1
  6
CONTINUOUS
 62
     7
100
AcDbCircle
 10
-236.6182
 20
-174.50184
 30
0.0
 40
8.57526
100
AcDbArc
 50
246.3633899999999
 51
247.8281799999999
  0
ARC
  5
3A7
330
1E
100
AcDbEntity
  8
1
  6
CONTINUOUS
 62
     7
100
AcDbCircle
 10
-236.6182
 20
-174.50184
 30
0.0
 40
8.57526
100
AcDbArc
 50
247.8281799999999
 51
258.01527
  0
LINE
  5
3A8
330
1E
100
AcDbEntity
  8
1
  6
CONTINUOUS
 62
     7
100
AcDbLine
 10
-245.03486
 20
-176.1434399999999
 30
0.0
 11
-245.19346
 21
-174.50184
 31
0.0
  0
LINE
  5
3A9
330
1E
100
AcDbEntity
  8
1
  6
CONTINUOUS
 62
     7
100
AcDbLine
 10
-244.75755
 20
-175.66451
 30
0.0
 11
-245.1929999999999
 21
-174.5009999999999
 31
0.0
  0
LINE
  5
3AA
330
1E
100
AcDbEntity
  8
1
  6
CONTINUOUS
 62
     7
100
AcDbLine
 10
-245.1929999999999
 20
-174.5009999999999
 30
0.0
 11
-245.39765
 21
-175.72635
 31
0.0
  0
LINE
  5
3AB
330
1E
100
AcDbEntity
  8
1
  6
CONTINUOUS
 62
     7
100
AcDbLine
 10
-238.3306
 20
-182.9043799999999
 30
0.0
 11
-236.6182
 21
-183.0771
 31
0.0
  0
LINE
  5
3AC
330
1E
100
AcDbEntity
  8
1
  6
CONTINUOUS
 62
     7
100
AcDbLine
 10
-237.84421
 20
-183.2764799999999
 30
0.0
 11
-236.6179999999999
 21
-183.077
 31
0.0
  0
LINE
  5
3AD
330
1E
100
AcDbEntity
  8
1
  6
CONTINUOUS
 62
     7
100
AcDbLine
 10
-236.6179999999999
 20
-183.077
 30
0.0
 11
-237.77967
 21
-182.6366499999999
 31
0.0
  0
ARC
  5
3AE
330
1E
100
AcDbEntity
  8
1
  6
CONTINUOUS
 62
     7
100
AcDbCircle
 10
-236.6182
 20
-174.50184
 30
0.0
 40
8.57526
100
AcDbArc
 50
258.01527
 51
258.41701
  0
LINE
  5
3AF
330
1E
100
AcDbEntity
  8
1
  6
CONTINUOUS
 62
     7
100
AcDbLine
 10
-245.19346
 20
-174.50184
 30
0.0
 11
-245.19346
 21
-170.14648
 31
0.0
  0
ARC
  5
3B0
330
1E
100
AcDbEntity
  8
1
  6
CONTINUOUS
 62
     7
100
AcDbCircle
 10
-236.6182
 20
-174.50184
 30
0.0
 40
8.57526
100
AcDbArc
 50
191.0231699999999
 51
191.5780499999999
  0
LINE
  5
3B1
330
1E
100
AcDbEntity
  8
1
  6
CONTINUOUS
 62
     7
100
AcDbLine
 10
-239.1757799999999
 20
-174.50184
 30
0.0
 11
-236.6182
 21
-174.50184
 31
0.0
  0
TEXT
  5
3B2
330
1E
100
AcDbEntity
  8
1
  6
CONTINUOUS
 62
     7
100
AcDbText
 10
-244.096
 20
-178.10762
 30
0.0
 40
3.2
  1
Ｌ
 50
315.0
  7
BIGFONT
100
AcDbText
  0
TEXT
  5
3B3
330
1E
100
AcDbEntity
  8
1
  6
CONTINUOUS
 62
     7
100
AcDbText
 10
-241.8944799999999
 20
-180.0722999999999
 30
0.0
 40
2.2
  1
２
 50
315.0
 41
1.1363636
  7
BIGFONT
100
AcDbText
  0
LINE
  5
3B4
330
1E
100
AcDbEntity
  8
1
  6
CONTINUOUS
 62
     7
100
AcDbLine
 10
-236.6182
 20
-176.8284999999999
 30
0.0
 11
-236.6182
 21
-174.50184
 31
0.0
  0
TEXT
  5
3B5
330
1E
100
AcDbEntity
  8
1
  6
CONTINUOUS
 62
     7
100
AcDbText
 10
-205.7927399999999
 20
-174.8043999999999
 30
0.0
 40
3.2
  1
Ｒ
 50
2.0
  7
BIGFONT
100
AcDbText
  0
LINE
  5
3B6
330
1E
100
AcDbEntity
  8
1
  6
CONTINUOUS
 62
     1
100
AcDbLine
 10
-206.61654
 20
-174.50184
 30
0.0
 11
-206.61654
 21
-167.48084
 31
0.0
  0
ARC
  5
3B7
330
1E
100
AcDbEntity
  8
1
  6
CONTINUOUS
 62
     1
100
AcDbCircle
 10
-206.0165399999999
 20
-174.50184
 30
0.0
 40
0.6
100
AcDbArc
 50
180.0
 51
270.0
  0
LINE
  5
3B8
330
1E
100
AcDbEntity
  8
1
  6
CONTINUOUS
 62
     7
100
AcDbLine
 10
-214.69346
 20
-174.50184
 30
0.0
 11
-214.69346
 21
-167.48084
 31
0.0
  0
LINE
  5
3B9
330
1E
100
AcDbEntity
  8
1
  6
CONTINUOUS
 62
     7
100
AcDbLine
 10
-207.69346
 20
-167.48084
 30
0.0
 11
-215.49346
 21
-167.48084
 31
0.0
  0
LINE
  5
3BA
330
1E
100
AcDbEntity
  8
1
  6
CONTINUOUS
 62
     7
100
AcDbLine
 10
-207.69346
 20
-174.50184
 30
0.0
 11
-215.49346
 21
-174.50184
 31
0.0
  0
LINE
  5
3BB
330
1E
100
AcDbEntity
  8
1
  6
CONTINUOUS
 62
     7
100
AcDbLine
 10
-214.37146
 20
-168.68
 30
0.0
 11
-214.6929999999999
 21
-167.4799999999999
 31
0.0
  0
LINE
  5
3BC
330
1E
100
AcDbEntity
  8
1
  6
CONTINUOUS
 62
     7
100
AcDbLine
 10
-214.6929999999999
 20
-167.4799999999999
 30
0.0
 11
-215.0145299999999
 21
-168.68
 31
0.0
  0
LINE
  5
3BD
330
1E
100
AcDbEntity
  8
1
  6
CONTINUOUS
 62
     7
100
AcDbLine
 10
-215.0145299999999
 20
-173.3009999999999
 30
0.0
 11
-214.6929999999999
 21
-174.5009999999999
 31
0.0
  0
LINE
  5
3BE
330
1E
100
AcDbEntity
  8
1
  6
CONTINUOUS
 62
     7
100
AcDbLine
 10
-214.6929999999999
 20
-174.5009999999999
 30
0.0
 11
-214.37146
 21
-173.3009999999999
 31
0.0
  0
ARC
  5
3BF
330
1E
100
AcDbEntity
  8
1
  6
CONTINUOUS
 62
     7
100
AcDbCircle
 10
-206.1182
 20
-174.50184
 30
0.0
 40
8.57526
100
AcDbArc
 50
191.5780499999999
 51
238.71324
  0
ARC
  5
3C0
330
1E
100
AcDbEntity
  8
1
  6
CONTINUOUS
 62
     7
100
AcDbCircle
 10
-206.1182
 20
-174.50184
 30
0.0
 40
8.57526
100
AcDbArc
 50
238.71324
 51
246.3633899999999
  0
ARC
  5
3C1
330
1E
100
AcDbEntity
  8
1
  6
CONTINUOUS
 62
     7
100
AcDbCircle
 10
-206.1182
 20
-174.50184
 30
0.0
 40
8.57526
100
AcDbArc
 50
246.3633899999999
 51
247.8281799999999
  0
ARC
  5
3C2
330
1E
100
AcDbEntity
  8
1
  6
CONTINUOUS
 62
     7
100
AcDbCircle
 10
-206.1182
 20
-174.50184
 30
0.0
 40
8.57526
100
AcDbArc
 50
247.8281799999999
 51
258.01527
  0
LINE
  5
3C3
330
1E
100
AcDbEntity
  8
1
  6
CONTINUOUS
 62
     7
100
AcDbLine
 10
-214.53486
 20
-176.1434399999999
 30
0.0
 11
-214.69346
 21
-174.50184
 31
0.0
  0
LINE
  5
3C4
330
1E
100
AcDbEntity
  8
1
  6
CONTINUOUS
 62
     7
100
AcDbLine
 10
-214.2575499999999
 20
-175.66451
 30
0.0
 11
-214.6929999999999
 21
-174.5009999999999
 31
0.0
  0
LINE
  5
3C5
330
1E
100
AcDbEntity
  8
1
  6
CONTINUOUS
 62
     7
100
AcDbLine
 10
-214.6929999999999
 20
-174.5009999999999
 30
0.0
 11
-214.8976499999999
 21
-175.72635
 31
0.0
  0
LINE
  5
3C6
330
1E
100
AcDbEntity
  8
1
  6
CONTINUOUS
 62
     7
100
AcDbLine
 10
-207.8305999999999
 20
-182.9043799999999
 30
0.0
 11
-206.1182
 21
-183.0771
 31
0.0
  0
LINE
  5
3C7
330
1E
100
AcDbEntity
  8
1
  6
CONTINUOUS
 62
     7
100
AcDbLine
 10
-207.34421
 20
-183.2764799999999
 30
0.0
 11
-206.1179999999999
 21
-183.077
 31
0.0
  0
LINE
  5
3C8
330
1E
100
AcDbEntity
  8
1
  6
CONTINUOUS
 62
     7
100
AcDbLine
 10
-206.1179999999999
 20
-183.077
 30
0.0
 11
-207.27967
 21
-182.6366499999999
 31
0.0
  0
ARC
  5
3C9
330
1E
100
AcDbEntity
  8
1
  6
CONTINUOUS
 62
     7
100
AcDbCircle
 10
-206.1182
 20
-174.50184
 30
0.0
 40
8.57526
100
AcDbArc
 50
258.01527
 51
258.41701
  0
LINE
  5
3CA
330
1E
100
AcDbEntity
  8
1
  6
CONTINUOUS
 62
     7
100
AcDbLine
 10
-214.69346
 20
-174.50184
 30
0.0
 11
-214.69346
 21
-170.14648
 31
0.0
  0
ARC
  5
3CB
330
1E
100
AcDbEntity
  8
1
  6
CONTINUOUS
 62
     7
100
AcDbCircle
 10
-206.1182
 20
-174.50184
 30
0.0
 40
8.57526
100
AcDbArc
 50
191.0231699999999
 51
191.5780499999999
  0
LINE
  5
3CC
330
1E
100
AcDbEntity
  8
1
  6
CONTINUOUS
 62
     7
100
AcDbLine
 10
-208.6757799999999
 20
-174.50184
 30
0.0
 11
-206.1182
 21
-174.50184
 31
0.0
  0
TEXT
  5
3CD
330
1E
100
AcDbEntity
  8
1
  6
CONTINUOUS
 62
     7
100
AcDbText
 10
-213.5959999999999
 20
-178.10762
 30
0.0
 40
3.2
  1
Ｌ
 50
315.0
  7
BIGFONT
100
AcDbText
  0
TEXT
  5
3CE
330
1E
100
AcDbEntity
  8
1
  6
CONTINUOUS
 62
     7
100
AcDbText
 10
-211.39448
 20
-180.0722999999999
 30
0.0
 40
2.2
  1
２
 50
315.0
 41
1.1363636
  7
BIGFONT
100
AcDbText
  0
TEXT
  5
3CF
330
1E
100
AcDbEntity
  8
1
  6
CONTINUOUS
 62
     7
100
AcDbText
 10
-215.13984
 20
-173.69396
 30
0.0
 40
3.2
  1
Ｌ
 50
90.0
  7
BIGFONT
100
AcDbText
  0
TEXT
  5
3D0
330
1E
100
AcDbEntity
  8
1
  6
CONTINUOUS
 62
     7
100
AcDbText
 10
-215.30856
 20
-170.7631199999999
 30
0.0
 40
2.2
  1
３
 50
90.0
 41
1.1363636
  7
BIGFONT
100
AcDbText
  0
LINE
  5
3D1
330
1E
100
AcDbEntity
  8
1
  6
CONTINUOUS
 62
     7
100
AcDbLine
 10
-206.1182
 20
-176.8284999999999
 30
0.0
 11
-206.1182
 21
-174.50184
 31
0.0
  0
TEXT
  5
3D2
330
1E
100
AcDbEntity
  8
1
  6
CONTINUOUS
 62
     7
100
AcDbText
 10
-113.6416199999999
 20
-153.8625
 30
0.0
 40
3.2
  1
Ｌ
 50
315.0
  7
BIGFONT
100
AcDbText
  0
TEXT
  5
3D3
330
1E
100
AcDbEntity
  8
1
  6
CONTINUOUS
 62
     7
100
AcDbText
 10
-111.4499
 20
-155.8156199999999
 30
0.0
 40
2.2
  1
３
 50
315.0
 41
1.1363636
  7
BIGFONT
100
AcDbText
  0
LINE
  5
3D4
330
1E
100
AcDbEntity
  8
1
  6
CONTINUOUS
 62
     1
100
AcDbLine
 10
-60.37262
 20
-175.1018399999999
 30
0.0
 11
-32.97261999999999
 21
-175.1018399999999
 31
0.0
  0
LINE
  5
3D5
330
1E
100
AcDbEntity
  8
1
  6
CONTINUOUS
 62
     1
100
AcDbLine
 10
-60.97261999999999
 20
-174.50184
 30
0.0
 11
-60.97261999999999
 21
-150.1018399999999
 31
0.0
  0
ARC
  5
3D6
330
1E
100
AcDbEntity
  8
1
  6
CONTINUOUS
 62
     1
100
AcDbCircle
 10
-60.37262
 20
-174.50184
 30
0.0
 40
0.6
100
AcDbArc
 50
180.0
 51
270.0
  0
LINE
  5
3D7
330
1E
100
AcDbEntity
  8
1
  6
CONTINUOUS
 62
     7
100
AcDbLine
 10
-60.47428
 20
-183.0714199999999
 30
0.0
 11
-32.97261999999999
 21
-183.0714199999999
 31
0.0
  0
LINE
  5
3D8
330
1E
100
AcDbEntity
  8
1
  6
CONTINUOUS
 62
     7
100
AcDbLine
 10
-32.97261999999999
 20
-176.1018399999999
 30
0.0
 11
-32.97261999999999
 21
-183.87142
 31
0.0
  0
LINE
  5
3D9
330
1E
100
AcDbEntity
  8
1
  6
CONTINUOUS
 62
     7
100
AcDbLine
 10
-60.47428
 20
-175.48414
 30
0.0
 11
-60.47428
 21
-183.87142
 31
0.0
  0
LINE
  5
3DA
330
1E
100
AcDbEntity
  8
1
  6
CONTINUOUS
 62
     7
100
AcDbLine
 10
-34.17199999999999
 20
-183.3925299999999
 30
0.0
 11
-32.972
 21
-183.071
 31
0.0
  0
LINE
  5
3DB
330
1E
100
AcDbEntity
  8
1
  6
CONTINUOUS
 62
     7
100
AcDbLine
 10
-32.972
 20
-183.071
 30
0.0
 11
-34.17199999999999
 21
-182.7494599999999
 31
0.0
  0
LINE
  5
3DC
330
1E
100
AcDbEntity
  8
1
  6
CONTINUOUS
 62
     7
100
AcDbLine
 10
-59.27399999999999
 20
-182.7494599999999
 30
0.0
 11
-60.47399999999999
 21
-183.071
 31
0.0
  0
LINE
  5
3DD
330
1E
100
AcDbEntity
  8
1
  6
CONTINUOUS
 62
     7
100
AcDbLine
 10
-60.47399999999999
 20
-183.071
 30
0.0
 11
-59.27399999999999
 21
-183.3925299999999
 31
0.0
  0
LINE
  5
3DE
330
1E
100
AcDbEntity
  8
1
  6
CONTINUOUS
 62
     7
100
AcDbLine
 10
-69.04954
 20
-174.50184
 30
0.0
 11
-69.04954
 21
-150.1018399999999
 31
0.0
  0
LINE
  5
3DF
330
1E
100
AcDbEntity
  8
1
  6
CONTINUOUS
 62
     7
100
AcDbLine
 10
-62.04954
 20
-150.1018399999999
 30
0.0
 11
-69.84954
 21
-150.1018399999999
 31
0.0
  0
LINE
  5
3E0
330
1E
100
AcDbEntity
  8
1
  6
CONTINUOUS
 62
     7
100
AcDbLine
 10
-62.04954
 20
-174.50184
 30
0.0
 11
-69.84954
 21
-174.50184
 31
0.0
  0
LINE
  5
3E1
330
1E
100
AcDbEntity
  8
1
  6
CONTINUOUS
 62
     7
100
AcDbLine
 10
-68.72745999999999
 20
-151.3009999999999
 30
0.0
 11
-69.04900000000001
 21
-150.1009999999999
 31
0.0
  0
LINE
  5
3E2
330
1E
100
AcDbEntity
  8
1
  6
CONTINUOUS
 62
     7
100
AcDbLine
 10
-69.04900000000001
 20
-150.1009999999999
 30
0.0
 11
-69.37053
 21
-151.3009999999999
 31
0.0
  0
LINE
  5
3E3
330
1E
100
AcDbEntity
  8
1
  6
CONTINUOUS
 62
     7
100
AcDbLine
 10
-69.37053
 20
-173.3009999999999
 30
0.0
 11
-69.04900000000001
 21
-174.5009999999999
 31
0.0
  0
LINE
  5
3E4
330
1E
100
AcDbEntity
  8
1
  6
CONTINUOUS
 62
     7
100
AcDbLine
 10
-69.04900000000001
 20
-174.5009999999999
 30
0.0
 11
-68.72745999999999
 21
-173.3009999999999
 31
0.0
  0
ARC
  5
3E5
330
1E
100
AcDbEntity
  8
1
  6
CONTINUOUS
 62
     7
100
AcDbCircle
 10
-60.47428
 20
-174.50184
 30
0.0
 40
8.57526
100
AcDbArc
 50
191.5780499999999
 51
238.71324
  0
ARC
  5
3E6
330
1E
100
AcDbEntity
  8
1
  6
CONTINUOUS
 62
     7
100
AcDbCircle
 10
-60.47428
 20
-174.50184
 30
0.0
 40
8.57526
100
AcDbArc
 50
238.71324
 51
246.3633899999999
  0
LINE
  5
3E7
330
1E
100
AcDbEntity
  8
1
  6
CONTINUOUS
 62
     7
100
AcDbLine
 10
-60.47428
 20
-182.2545599999999
 30
0.0
 11
-60.47428
 21
-180.4713399999999
 31
0.0
  0
ARC
  5
3E8
330
1E
100
AcDbEntity
  8
1
  6
CONTINUOUS
 62
     7
100
AcDbCircle
 10
-60.47428
 20
-174.50184
 30
0.0
 40
8.57526
100
AcDbArc
 50
246.3633899999999
 51
247.8281799999999
  0
ARC
  5
3E9
330
1E
100
AcDbEntity
  8
1
  6
CONTINUOUS
 62
     7
100
AcDbCircle
 10
-60.47428
 20
-174.50184
 30
0.0
 40
8.57526
100
AcDbArc
 50
247.8281799999999
 51
258.01527
  0
LINE
  5
3EA
330
1E
100
AcDbEntity
  8
1
  6
CONTINUOUS
 62
     7
100
AcDbLine
 10
-68.89094
 20
-176.1434399999999
 30
0.0
 11
-69.04954
 21
-174.50184
 31
0.0
  0
LINE
  5
3EB
330
1E
100
AcDbEntity
  8
1
  6
CONTINUOUS
 62
     7
100
AcDbLine
 10
-68.61355
 20
-175.66451
 30
0.0
 11
-69.04900000000001
 21
-174.5009999999999
 31
0.0
  0
LINE
  5
3EC
330
1E
100
AcDbEntity
  8
1
  6
CONTINUOUS
 62
     7
100
AcDbLine
 10
-69.04900000000001
 20
-174.5009999999999
 30
0.0
 11
-69.25364999999999
 21
-175.72635
 31
0.0
  0
LINE
  5
3ED
330
1E
100
AcDbEntity
  8
1
  6
CONTINUOUS
 62
     7
100
AcDbLine
 10
-62.18668
 20
-182.9043799999999
 30
0.0
 11
-60.47428
 21
-183.0771
 31
0.0
  0
LINE
  5
3EE
330
1E
100
AcDbEntity
  8
1
  6
CONTINUOUS
 62
     7
100
AcDbLine
 10
-61.70021
 20
-183.2764799999999
 30
0.0
 11
-60.47399999999999
 21
-183.077
 31
0.0
  0
LINE
  5
3EF
330
1E
100
AcDbEntity
  8
1
  6
CONTINUOUS
 62
     7
100
AcDbLine
 10
-60.47399999999999
 20
-183.077
 30
0.0
 11
-61.63567
 21
-182.6366499999999
 31
0.0
  0
ARC
  5
3F0
330
1E
100
AcDbEntity
  8
1
  6
CONTINUOUS
 62
     7
100
AcDbCircle
 10
-60.47428
 20
-174.50184
 30
0.0
 40
8.57526
100
AcDbArc
 50
258.01527
 51
258.41701
  0
LINE
  5
3F1
330
1E
100
AcDbEntity
  8
1
  6
CONTINUOUS
 62
     7
100
AcDbLine
 10
-60.47428
 20
-182.8996399999999
 30
0.0
 11
-60.47428
 21
-182.2545599999999
 31
0.0
  0
LINE
  5
3F2
330
1E
100
AcDbEntity
  8
1
  6
CONTINUOUS
 62
     7
100
AcDbLine
 10
-69.04954
 20
-174.50184
 30
0.0
 11
-69.04954
 21
-170.14648
 31
0.0
  0
ARC
  5
3F3
330
1E
100
AcDbEntity
  8
1
  6
CONTINUOUS
 62
     7
100
AcDbCircle
 10
-60.47428
 20
-174.50184
 30
0.0
 40
8.57526
100
AcDbArc
 50
191.0231699999999
 51
191.5780499999999
  0
LINE
  5
3F4
330
1E
100
AcDbEntity
  8
1
  6
CONTINUOUS
 62
     7
100
AcDbLine
 10
-60.47428
 20
-176.8179999999999
 30
0.0
 11
-60.47428
 21
-174.50184
 31
0.0
  0
LINE
  5
3F5
330
1E
100
AcDbEntity
  8
1
  6
CONTINUOUS
 62
     7
100
AcDbLine
 10
-63.03186
 20
-174.50184
 30
0.0
 11
-60.47428
 21
-174.50184
 31
0.0
  0
TEXT
  5
3F6
330
1E
100
AcDbEntity
  8
1
  6
CONTINUOUS
 62
     7
100
AcDbText
 10
-60.14882
 20
-174.87998
 30
0.0
 40
3.2
  1
Ｒ
 50
2.0
  7
BIGFONT
100
AcDbText
  0
TEXT
  5
3F7
330
1E
100
AcDbEntity
  8
1
  6
CONTINUOUS
 62
     7
100
AcDbText
 10
-67.95208000000001
 20
-178.10762
 30
0.0
 40
3.2
  1
Ｌ
 50
315.0
  7
BIGFONT
100
AcDbText
  0
TEXT
  5
3F8
330
1E
100
AcDbEntity
  8
1
  6
CONTINUOUS
 62
     7
100
AcDbText
 10
-65.75056
 20
-180.0722999999999
 30
0.0
 40
2.2
  1
２
 50
315.0
 41
1.1363636
  7
BIGFONT
100
AcDbText
  0
TEXT
  5
3F9
330
1E
100
AcDbEntity
  8
1
  6
CONTINUOUS
 62
     7
100
AcDbText
 10
-48.91068
 20
-182.4545799999999
 30
0.0
 40
3.2
  1
Ｌ
  7
BIGFONT
100
AcDbText
  0
TEXT
  5
3FA
330
1E
100
AcDbEntity
  8
1
  6
CONTINUOUS
 62
     7
100
AcDbText
 10
-45.90092
 20
-182.2785
 30
0.0
 40
2.2
  1
１
 41
1.1363636
  7
BIGFONT
100
AcDbText
  0
TEXT
  5
3FB
330
1E
100
AcDbEntity
  8
1
  6
CONTINUOUS
 62
     7
100
AcDbText
 10
-69.49591999999999
 20
-165.4044599999999
 30
0.0
 40
3.2
  1
Ｌ
 50
90.0
  7
BIGFONT
100
AcDbText
  0
TEXT
  5
3FC
330
1E
100
AcDbEntity
  8
1
  6
CONTINUOUS
 62
     7
100
AcDbText
 10
-69.66464000000001
 20
-162.4736199999999
 30
0.0
 40
2.2
  1
３
 50
90.0
 41
1.1363636
  7
BIGFONT
100
AcDbText
  0
CIRCLE
  5
3FD
330
1E
100
AcDbEntity
  8
1
  6
CONTINUOUS
 62
     7
100
AcDbCircle
 10
-227.35946
 20
-160.0097399999999
 30
0.0
 40
2.497799999999998
  0
TEXT
  5
3FE
330
1E
100
AcDbEntity
  8
1
  6
CONTINUOUS
 62
     7
100
AcDbText
 10
-228.8927
 20
-161.80912
 30
0.0
 40
3.2
  1
１
  7
BIGFONT
100
AcDbText
  0
LINE
  5
3FF
330
1E
100
AcDbEntity
  8
1
  6
CONTINUOUS
 62
     7
100
AcDbLine
 10
-232.21102
 20
-162.5278999999999
 30
0.0
 11
-221.6739399999999
 21
-162.5278999999999
 31
0.0
  0
LINE
  5
400
330
1E
100
AcDbEntity
  8
1
  6
CONTINUOUS
 62
     7
100
AcDbLine
 10
-52.62426
 20
-163.78082
 30
0.0
 11
-40.05031999999999
 21
-163.78082
 31
0.0
  0
TEXT
  5
401
330
1E
100
AcDbEntity
  8
1
  6
CONTINUOUS
 62
     7
100
AcDbText
 10
-99.36934
 20
-181.8847
 30
0.0
 40
3.2
  1
Ｌ
  7
BIGFONT
100
AcDbText
  0
TEXT
  5
402
330
1E
100
AcDbEntity
  8
1
  6
CONTINUOUS
 62
     7
100
AcDbText
 10
-96.35958000000002
 20
-181.70862
 30
0.0
 40
2.2
  1
１
 41
1.1363636
  7
BIGFONT
100
AcDbText
  0
LINE
  5
403
330
1E
100
AcDbEntity
  8
1
  6
CONTINUOUS
 62
     1
100
AcDbLine
 10
-109.44384
 20
-174.50184
 30
0.0
 11
-84.44384000000002
 21
-174.50184
 31
0.0
  0
LINE
  5
404
330
1E
100
AcDbEntity
  8
1
  6
CONTINUOUS
 62
     7
100
AcDbLine
 10
-109.44384
 20
-182.5015399999999
 30
0.0
 11
-84.44384000000002
 21
-182.5015399999999
 31
0.0
  0
LINE
  5
405
330
1E
100
AcDbEntity
  8
1
  6
CONTINUOUS
 62
     7
100
AcDbLine
 10
-84.44384000000002
 20
-175.5018399999999
 30
0.0
 11
-84.44384000000002
 21
-183.3015399999999
 31
0.0
  0
LINE
  5
406
330
1E
100
AcDbEntity
  8
1
  6
CONTINUOUS
 62
     7
100
AcDbLine
 10
-109.44384
 20
-175.5018399999999
 30
0.0
 11
-109.44384
 21
-183.3015399999999
 31
0.0
  0
LINE
  5
407
330
1E
100
AcDbEntity
  8
1
  6
CONTINUOUS
 62
     7
100
AcDbLine
 10
-85.64300000000001
 20
-182.8225299999999
 30
0.0
 11
-84.443
 21
-182.5009999999999
 31
0.0
  0
LINE
  5
408
330
1E
100
AcDbEntity
  8
1
  6
CONTINUOUS
 62
     7
100
AcDbLine
 10
-84.443
 20
-182.5009999999999
 30
0.0
 11
-85.64300000000001
 21
-182.17946
 31
0.0
  0
LINE
  5
409
330
1E
100
AcDbEntity
  8
1
  6
CONTINUOUS
 62
     7
100
AcDbLine
 10
-108.243
 20
-182.17946
 30
0.0
 11
-109.443
 21
-182.5009999999999
 31
0.0
  0
LINE
  5
40A
330
1E
100
AcDbEntity
  8
1
  6
CONTINUOUS
 62
     7
100
AcDbLine
 10
-109.443
 20
-182.5009999999999
 30
0.0
 11
-108.243
 21
-182.8225299999999
 31
0.0
  0
CIRCLE
  5
40B
330
1E
100
AcDbEntity
  8
1
  6
CONTINUOUS
 62
     7
100
AcDbCircle
 10
-191.67506
 20
-165.36086
 30
0.0
 40
2.497799999999998
  0
CIRCLE
  5
40C
330
1E
100
AcDbEntity
  8
1
  6
CONTINUOUS
 62
     7
100
AcDbCircle
 10
-139.9823
 20
-162.83896
 30
0.0
 40
2.497799999999998
  0
CIRCLE
  5
40D
330
1E
100
AcDbEntity
  8
1
  6
CONTINUOUS
 62
     7
100
AcDbCircle
 10
-97.0175
 20
-140.0628199999997
 30
0.0
 40
2.497799999999998
  0
CIRCLE
  5
40E
330
1E
100
AcDbEntity
  8
1
  6
CONTINUOUS
 62
     7
100
AcDbCircle
 10
-48.84076
 20
-161.2733
 30
0.0
 40
2.497799999999998
  0
CIRCLE
  5
40F
330
1E
100
AcDbEntity
  8
1
  6
CONTINUOUS
 62
     7
100
AcDbCircle
 10
-43.84605999999998
 20
-161.22342
 30
0.0
 40
2.497799999999998
  0
CIRCLE
  5
410
330
1E
100
AcDbEntity
  8
1
  6
CONTINUOUS
 62
     7
100
AcDbCircle
 10
-96.8218
 20
-165.85928
 30
0.0
 40
2.497799999999998
  0
TEXT
  5
411
330
1E
100
AcDbEntity
  8
1
  6
CONTINUOUS
 62
     7
100
AcDbText
 10
-193.20696
 20
-167.14618
 30
0.0
 40
3.2
  1
２
  7
BIGFONT
100
AcDbText
  0
TEXT
  5
412
330
1E
100
AcDbEntity
  8
1
  6
CONTINUOUS
 62
     7
100
AcDbText
 10
-141.51506
 20
-164.65458
 30
0.0
 40
3.2
  1
３
  7
BIGFONT
100
AcDbText
  0
TEXT
  5
413
330
1E
100
AcDbEntity
  8
1
  6
CONTINUOUS
 62
     7
100
AcDbText
 10
-98.62936000000001
 20
-141.86652
 30
0.0
 40
3.2
  1
４
  7
BIGFONT
100
AcDbText
  0
TEXT
  5
414
330
1E
100
AcDbEntity
  8
1
  6
CONTINUOUS
 62
     7
100
AcDbText
 10
-50.34279999999998
 20
-163.1046399999999
 30
0.0
 40
3.2
  1
５
  7
BIGFONT
100
AcDbText
  0
TEXT
  5
415
330
1E
100
AcDbEntity
  8
1
  6
CONTINUOUS
 62
     7
100
AcDbText
 10
-45.44605999999999
 20
-163.05018
 30
0.0
 40
3.2
  1
６
  7
BIGFONT
100
AcDbText
  0
TEXT
  5
416
330
1E
100
AcDbEntity
  8
1
  6
CONTINUOUS
 62
     7
100
AcDbText
 10
-98.52484
 20
-167.70466
 30
0.0
 40
3.2
  1
７
  7
BIGFONT
100
AcDbText
  0
LINE
  5
417
330
1E
100
AcDbEntity
  8
1
  6
CONTINUOUS
 62
     7
100
AcDbLine
 10
-102.20034
 20
-142.56062
 30
0.0
 11
-92.06048
 21
-142.56062
 31
0.0
  0
LINE
  5
418
330
1E
100
AcDbEntity
  8
1
  6
CONTINUOUS
 62
     7
100
AcDbLine
 10
-102.0193
 20
-168.32684
 30
0.0
 11
-91.49548000000001
 21
-168.32684
 31
0.0
  0
LINE
  5
419
330
1E
100
AcDbEntity
  8
1
  6
CONTINUOUS
 62
     7
100
AcDbLine
 10
-196.6143999999999
 20
-167.8581199999999
 30
0.0
 11
-186.0773199999999
 21
-167.8581199999999
 31
0.0
  0
LINE
  5
41A
330
1E
100
AcDbEntity
  8
1
  6
CONTINUOUS
 62
     7
100
AcDbLine
 10
-144.8697199999999
 20
-165.3367599999999
 30
0.0
 11
-134.33264
 21
-165.3367599999999
 31
0.0
  0
TEXT
  5
41B
330
1E
100
AcDbEntity
  8
1
  6
CONTINUOUS
 62
     7
100
AcDbText
 10
-245.6789
 20
-160.9696999999999
 30
0.0
 40
3.2
  1
Ｌ
 50
90.0
  7
BIGFONT
100
AcDbText
  0
TEXT
  5
41C
330
1E
100
AcDbEntity
  8
1
  6
CONTINUOUS
 62
     7
100
AcDbText
 10
-245.8549799999999
 20
-157.95994
 30
0.0
 40
2.2
  1
１
 50
90.0
 41
1.1363636
  7
BIGFONT
100
AcDbText
  0
CIRCLE
  5
41D
330
1E
100
AcDbEntity
  8
0
  6
CONTINUOUS
 62
     7
100
AcDbCircle
 10
-195.9837
 20
106.68683
 30
0.0
 40
2.5
  0
TEXT
  5
41E
330
1E
100
AcDbEntity
  8
0
  6
CONTINUOUS
 62
     7
100
AcDbText
 10
-197.59386
 20
104.8636
 30
0.0
 40
3.2
  1
６
  7
BIGFONT
100
AcDbText
  0
LINE
  5
41F
330
1E
100
AcDbEntity
  8
0
  6
CONTINUOUS
 62
     7
100
AcDbLine
 10
-199.136
 20
104.1914
 30
0.0
 11
-183.136
 21
104.1914
 31
0.0
  0
TEXT
  5
420
330
1E
100
AcDbEntity
  8
0
  6
CONTINUOUS
 62
     7
100
AcDbText
 10
-192.06013
 20
104.9331
 30
0.0
 40
3.2
  1
D10
  7
BIGFONT
100
AcDbText
  0
CIRCLE
  5
421
330
1E
100
AcDbEntity
  8
0
  6
CONTINUOUS
 62
     7
100
AcDbCircle
 10
-155.0812999999999
 20
92.32832999999999
 30
0.0
 40
2.5
  0
TEXT
  5
422
330
1E
100
AcDbEntity
  8
0
  6
CONTINUOUS
 62
     7
100
AcDbText
 10
-153.2489299999999
 20
90.7684
 30
0.0
 40
3.2
  1
３
 50
90.0
  7
BIGFONT
100
AcDbText
  0
LINE
  5
423
330
1E
100
AcDbEntity
  8
0
  6
CONTINUOUS
 62
     7
100
AcDbLine
 10
-152.59426
 20
88.50796
 30
0.0
 11
-152.59426
 21
104.5079599999997
 31
0.0
  0
TEXT
  5
424
330
1E
100
AcDbEntity
  8
0
  6
CONTINUOUS
 62
     7
100
AcDbText
 10
-153.33596
 20
96.25050000000001
 30
0.0
 40
3.2
  1
D10
 50
90.0
  7
BIGFONT
100
AcDbText
  0
CIRCLE
  5
425
330
1E
100
AcDbEntity
  8
0
  6
CONTINUOUS
 62
     7
100
AcDbCircle
 10
-155.0855
 20
46.98496
 30
0.0
 40
2.5
  0
TEXT
  5
426
330
1E
100
AcDbEntity
  8
0
  6
CONTINUOUS
 62
     7
100
AcDbText
 10
-153.27646
 20
45.30393
 30
0.0
 40
3.2
  1
４
 50
90.0
  7
BIGFONT
100
AcDbText
  0
LINE
  5
427
330
1E
100
AcDbEntity
  8
0
  6
CONTINUOUS
 62
     7
100
AcDbLine
 10
-152.59426
 20
44.01746
 30
0.0
 11
-152.59426
 21
60.01746
 31
0.0
  0
TEXT
  5
428
330
1E
100
AcDbEntity
  8
0
  6
CONTINUOUS
 62
     7
100
AcDbText
 10
-153.30826
 20
50.94666
 30
0.0
 40
3.2
  1
D13
 50
90.0
  7
BIGFONT
100
AcDbText
  0
CIRCLE
  5
429
330
1E
100
AcDbEntity
  8
0
  6
CONTINUOUS
 62
     7
100
AcDbCircle
 10
21.74542999999999
 20
99.62013
 30
0.0
 40
2.5
  0
TEXT
  5
42A
330
1E
100
AcDbEntity
  8
0
  6
CONTINUOUS
 62
     7
100
AcDbText
 10
23.43586
 20
98.01213
 30
0.0
 40
3.2
  1
６
 50
90.0
  7
BIGFONT
100
AcDbText
  0
LINE
  5
42B
330
1E
100
AcDbEntity
  8
0
  6
CONTINUOUS
 62
     7
100
AcDbLine
 10
24.24086
 20
96.46783
 30
0.0
 11
24.24086
 21
112.46783
 31
0.0
  0
TEXT
  5
42C
330
1E
100
AcDbEntity
  8
0
  6
CONTINUOUS
 62
     7
100
AcDbText
 10
23.4325
 20
103.5436999999999
 30
0.0
 40
3.2
  1
D10
 50
90.0
  7
BIGFONT
100
AcDbText
  0
CIRCLE
  5
42D
330
1E
100
AcDbEntity
  8
0
  6
CONTINUOUS
 62
     7
100
AcDbCircle
 10
68.61643
 20
64.96195999999999
 30
0.0
 40
2.5
  0
TEXT
  5
42E
330
1E
100
AcDbEntity
  8
0
  6
CONTINUOUS
 62
     7
100
AcDbText
 10
67.01736
 20
63.1386
 30
0.0
 40
3.2
  1
２
  7
BIGFONT
100
AcDbText
  0
LINE
  5
42F
330
1E
100
AcDbEntity
  8
0
  6
CONTINUOUS
 62
     7
100
AcDbLine
 10
65.47575999999999
 20
62.48726
 30
0.0
 11
81.47575999999999
 21
62.48726
 31
0.0
  0
TEXT
  5
430
330
1E
100
AcDbEntity
  8
0
  6
CONTINUOUS
 62
     7
100
AcDbText
 10
72.57453000000002
 20
63.2066
 30
0.0
 40
3.2
  1
D16
  7
BIGFONT
100
AcDbText
  0
CIRCLE
  5
431
330
1E
100
AcDbEntity
  8
0
  6
CONTINUOUS
 62
     7
100
AcDbCircle
 10
21.75382999999999
 20
70.61206
 30
0.0
 40
2.5
  0
TEXT
  5
432
330
1E
100
AcDbEntity
  8
0
  6
CONTINUOUS
 62
     7
100
AcDbText
 10
23.4409
 20
69.05213
 30
0.0
 40
3.2
  1
３
 50
90.0
  7
BIGFONT
100
AcDbText
  0
LINE
  5
433
330
1E
100
AcDbEntity
  8
0
  6
CONTINUOUS
 62
     7
100
AcDbLine
 10
24.24086
 20
67.45836
 30
0.0
 11
24.24086
 21
83.45836
 31
0.0
  0
TEXT
  5
434
330
1E
100
AcDbEntity
  8
0
  6
CONTINUOUS
 62
     7
100
AcDbText
 10
23.4325
 20
74.53423
 30
0.0
 40
3.2
  1
D10
 50
90.0
  7
BIGFONT
100
AcDbText
  0
CIRCLE
  5
435
330
1E
100
AcDbEntity
  8
0
  6
CONTINUOUS
 62
     7
100
AcDbCircle
 10
52.43016
 20
74.2825
 30
0.0
 40
2.5
  0
TEXT
  5
436
330
1E
100
AcDbEntity
  8
0
  6
CONTINUOUS
 62
     7
100
AcDbText
 10
50.74913
 20
72.47346
 30
0.0
 40
3.2
  1
４
  7
BIGFONT
100
AcDbText
  0
LINE
  5
437
330
1E
100
AcDbEntity
  8
0
  6
CONTINUOUS
 62
     7
100
AcDbLine
 10
49.296
 20
71.79126
 30
0.0
 11
65.29600000000001
 21
71.79126
 31
0.0
  0
TEXT
  5
438
330
1E
100
AcDbEntity
  8
0
  6
CONTINUOUS
 62
     7
100
AcDbText
 10
56.39186
 20
72.50525999999998
 30
0.0
 40
3.2
  1
D13
  7
BIGFONT
100
AcDbText
  0
TEXT
  5
439
330
1E
100
AcDbEntity
  8
0
  6
CONTINUOUS
 62
     7
100
AcDbText
 10
49.09093
 20
119.2215
 30
0.0
 40
3.2
  1
５
  7
BIGFONT
100
AcDbText
  0
CIRCLE
  5
43A
330
1E
100
AcDbEntity
  8
0
  6
CONTINUOUS
 62
     7
100
AcDbCircle
 10
61.05966
 20
40.16166
 30
0.0
 40
2.5
  0
TEXT
  5
43B
330
1E
100
AcDbEntity
  8
0
  6
CONTINUOUS
 62
     7
100
AcDbText
 10
59.49973
 20
38.3293
 30
0.0
 40
3.2
  1
３
  7
BIGFONT
100
AcDbText
  0
LINE
  5
43C
330
1E
100
AcDbEntity
  8
0
  6
CONTINUOUS
 62
     7
100
AcDbLine
 10
57.8393
 20
37.67463
 30
0.0
 11
73.83929999999998
 21
37.67463
 31
0.0
  0
TEXT
  5
43D
330
1E
100
AcDbEntity
  8
0
  6
CONTINUOUS
 62
     7
100
AcDbText
 10
64.98183
 20
38.41633
 30
0.0
 40
3.2
  1
D10
  7
BIGFONT
100
AcDbText
  0
CIRCLE
  5
43E
330
1E
100
AcDbEntity
  8
0
  6
CONTINUOUS
 62
     7
100
AcDbCircle
 10
50.67823
 20
121.03633
 30
0.0
 40
2.5
  0
LINE
  5
43F
330
1E
100
AcDbEntity
  8
0
  6
CONTINUOUS
 62
     7
100
AcDbLine
 10
47.44406
 20
118.5451
 30
0.0
 11
63.44406
 21
118.5451
 31
0.0
  0
TEXT
  5
440
330
1E
100
AcDbEntity
  8
0
  6
CONTINUOUS
 62
     7
100
AcDbText
 10
54.63993000000001
 20
119.2590999999999
 30
0.0
 40
3.2
  1
D13
  7
BIGFONT
100
AcDbText
  0
LINE
  5
441
330
1E
100
AcDbEntity
  8
0
  6
CONTINUOUS
 62
     7
100
AcDbLine
 10
57.8242
 20
37.67463
 30
0.0
 11
53.73885999999998
 21
49.57463
 31
0.0
  0
LINE
  5
442
330
1E
100
AcDbEntity
  8
0
  6
CONTINUOUS
 62
     7
100
AcDbLine
 10
54.43176
 20
48.54342
 30
0.0
 11
53.738
 21
49.57399999999999
 31
0.0
  0
LINE
  5
443
330
1E
100
AcDbEntity
  8
0
  6
CONTINUOUS
 62
     7
100
AcDbLine
 10
53.738
 20
49.57399999999999
 30
0.0
 11
53.82352
 21
48.33460999999999
 31
0.0
  0
LINE
  5
444
330
1E
100
AcDbEntity
  8
0
  6
CONTINUOUS
 62
     7
100
AcDbLine
 10
57.8242
 20
37.67463
 30
0.0
 11
50.5953
 21
49.17463
 31
0.0
  0
LINE
  5
445
330
1E
100
AcDbEntity
  8
0
  6
CONTINUOUS
 62
     7
100
AcDbLine
 10
51.50584
 20
48.32915999999999
 30
0.0
 11
50.59499999999999
 21
49.174
 31
0.0
  0
LINE
  5
446
330
1E
100
AcDbEntity
  8
0
  6
CONTINUOUS
 62
     7
100
AcDbLine
 10
50.59499999999999
 20
49.174
 30
0.0
 11
50.9614
 21
47.98691999999999
 31
0.0
  0
TEXT
  5
447
330
1E
100
AcDbEntity
  8
0
  6
CONTINUOUS
 62
     7
100
AcDbText
 10
-33.4314
 20
-103.62643
 30
0.0
 40
3.2
  1
７
 50
45.0
  7
BIGFONT
100
AcDbText
  0
CIRCLE
  5
448
330
1E
100
AcDbEntity
  8
0
  6
CONTINUOUS
 62
     7
100
AcDbCircle
 10
-114.16553
 20
-69.52636
 30
0.0
 40
2.5
  0
TEXT
  5
449
330
1E
100
AcDbEntity
  8
0
  6
CONTINUOUS
 62
     7
100
AcDbText
 10
-112.3423
 20
-71.13653000000002
 30
0.0
 40
3.2
  1
６
 50
90.0
  7
BIGFONT
100
AcDbText
  0
LINE
  5
44A
330
1E
100
AcDbEntity
  8
0
  6
CONTINUOUS
 62
     7
100
AcDbLine
 10
-111.6701
 20
-72.67865999999997
 30
0.0
 11
-111.6701
 21
-56.67866
 31
0.0
  0
TEXT
  5
44B
330
1E
100
AcDbEntity
  8
0
  6
CONTINUOUS
 62
     7
100
AcDbText
 10
-112.4117999999999
 20
-65.6028
 30
0.0
 40
3.2
  1
D10
 50
90.0
  7
BIGFONT
100
AcDbText
  0
CIRCLE
  5
44C
330
1E
100
AcDbEntity
  8
0
  6
CONTINUOUS
 62
     7
100
AcDbCircle
 10
-33.50643
 20
-101.08736
 30
0.0
 40
2.5
  0
LINE
  5
44D
330
1E
100
AcDbEntity
  8
0
  6
CONTINUOUS
 62
     7
100
AcDbLine
 10
-34.4423
 20
-105.5523299999999
 30
0.0
 11
-23.1286
 21
-94.23863
 31
0.0
  0
TEXT
  5
44E
330
1E
100
AcDbEntity
  8
0
  6
CONTINUOUS
 62
     7
100
AcDbText
 10
-29.96335999999999
 20
-100.0244599999999
 30
0.0
 40
3.2
  1
D10
 50
45.0
  7
BIGFONT
100
AcDbText
  0
LINE
  5
44F
330
1E
100
AcDbEntity
  8
0
  6
DASHED
 62
     1
100
AcDbLine
 10
-164.9440999999999
 20
-51.84173
 30
0.0
 11
-164.9440999999999
 21
-37.512
 31
0.0
  0
CIRCLE
  5
450
330
1E
100
AcDbEntity
  8
0
  6
CONTINUOUS
 62
     7
100
AcDbCircle
 10
-155.0812999999999
 20
-78.69033
 30
0.0
 40
2.5
  0
TEXT
  5
451
330
1E
100
AcDbEntity
  8
0
  6
CONTINUOUS
 62
     7
100
AcDbText
 10
-153.2489299999999
 20
-80.25026
 30
0.0
 40
3.2
  1
３
 50
90.0
  7
BIGFONT
100
AcDbText
  0
LINE
  5
452
330
1E
100
AcDbEntity
  8
0
  6
CONTINUOUS
 62
     7
100
AcDbLine
 10
-152.59426
 20
-81.84403000000001
 30
0.0
 11
-152.59426
 21
-65.84403
 31
0.0
  0
TEXT
  5
453
330
1E
100
AcDbEntity
  8
0
  6
CONTINUOUS
 62
     7
100
AcDbText
 10
-153.33596
 20
-74.76815999999998
 30
0.0
 40
3.2
  1
D10
 50
90.0
  7
BIGFONT
100
AcDbText
  0
CIRCLE
  5
454
330
1E
100
AcDbEntity
  8
0
  6
CONTINUOUS
 62
     7
100
AcDbCircle
 10
-233.3120999999999
 20
-111.8727299999999
 30
0.0
 40
2.5
  0
TEXT
  5
455
330
1E
100
AcDbEntity
  8
0
  6
CONTINUOUS
 62
     7
100
AcDbText
 10
-234.9931299999999
 20
-113.68176
 30
0.0
 40
3.2
  1
４
  7
BIGFONT
100
AcDbText
  0
LINE
  5
456
330
1E
100
AcDbEntity
  8
0
  6
CONTINUOUS
 62
     7
100
AcDbLine
 10
-236.1129299999999
 20
-114.3639599999999
 30
0.0
 11
-220.1129299999999
 21
-114.3639599999999
 31
0.0
  0
TEXT
  5
457
330
1E
100
AcDbEntity
  8
0
  6
CONTINUOUS
 62
     7
100
AcDbText
 10
-229.3503999999999
 20
-113.64996
 30
0.0
 40
3.2
  1
D13
  7
BIGFONT
100
AcDbText
  0
CIRCLE
  5
458
330
1E
100
AcDbEntity
  8
0
  6
CONTINUOUS
 62
     7
100
AcDbCircle
 10
-155.1024999999999
 20
-43.37782999999999
 30
0.0
 40
2.5
  0
TEXT
  5
459
330
1E
100
AcDbEntity
  8
0
  6
CONTINUOUS
 62
     7
100
AcDbText
 10
-153.29346
 20
-45.05885999999999
 30
0.0
 40
3.2
  1
４
 50
90.0
  7
BIGFONT
100
AcDbText
  0
LINE
  5
45A
330
1E
100
AcDbEntity
  8
0
  6
CONTINUOUS
 62
     7
100
AcDbLine
 10
-152.61126
 20
-46.84533
 30
0.0
 11
-152.61126
 21
-30.84533
 31
0.0
  0
TEXT
  5
45B
330
1E
100
AcDbEntity
  8
0
  6
CONTINUOUS
 62
     7
100
AcDbText
 10
-153.32526
 20
-39.41612999999997
 30
0.0
 40
3.2
  1
D13
 50
90.0
  7
BIGFONT
100
AcDbText
  0
CIRCLE
  5
45C
330
1E
100
AcDbEntity
  8
0
  6
CONTINUOUS
 62
     7
100
AcDbCircle
 10
-197.02563
 20
-111.8425
 30
0.0
 40
2.5
  0
TEXT
  5
45D
330
1E
100
AcDbEntity
  8
0
  6
CONTINUOUS
 62
     7
100
AcDbText
 10
-198.58556
 20
-113.67486
 30
0.0
 40
3.2
  1
３
  7
BIGFONT
100
AcDbText
  0
LINE
  5
45E
330
1E
100
AcDbEntity
  8
0
  6
CONTINUOUS
 62
     7
100
AcDbLine
 10
-200.87933
 20
-114.32953
 30
0.0
 11
-184.87933
 21
-114.32953
 31
0.0
  0
TEXT
  5
45F
330
1E
100
AcDbEntity
  8
0
  6
CONTINUOUS
 62
     7
100
AcDbText
 10
-193.10346
 20
-113.58783
 30
0.0
 40
3.2
  1
D10
  7
BIGFONT
100
AcDbText
  0
TEXT
  5
460
330
1E
100
AcDbEntity
  8
0
  6
CONTINUOUS
 62
     7
100
AcDbText
 10
-68.45183
 20
140.0150299999999
 30
0.0
 40
3.2
  1
５
  7
BIGFONT
100
AcDbText
  0
CIRCLE
  5
461
330
1E
100
AcDbEntity
  8
0
  6
CONTINUOUS
 62
     7
100
AcDbCircle
 10
-66.86453
 20
141.8298599999999
 30
0.0
 40
2.5
  0
LINE
  5
462
330
1E
100
AcDbEntity
  8
0
  6
CONTINUOUS
 62
     7
100
AcDbLine
 10
-69.9987
 20
139.3386299999999
 30
0.0
 11
-53.99869999999999
 21
139.3386299999999
 31
0.0
  0
TEXT
  5
463
330
1E
100
AcDbEntity
  8
0
  6
CONTINUOUS
 62
     7
100
AcDbText
 10
-62.90283
 20
140.0526299999999
 30
0.0
 40
3.2
  1
D13
  7
BIGFONT
100
AcDbText
  0
LINE
  5
464
330
1E
100
AcDbEntity
  8
0
  6
CONTINUOUS
 62
     7
100
AcDbLine
 10
-119.17063
 20
47.67463
 30
0.0
 11
-119.17063
 21
131.0079599999999
 31
0.0
  0
LINE
  5
465
330
1E
100
AcDbEntity
  8
0
  6
CONTINUOUS
 62
     7
100
AcDbLine
 10
-102.67063
 20
131.0079599999999
 30
0.0
 11
-119.97063
 21
131.0079599999999
 31
0.0
  0
LINE
  5
466
330
1E
100
AcDbEntity
  8
0
  6
CONTINUOUS
 62
     7
100
AcDbLine
 10
-102.67063
 20
47.67463
 30
0.0
 11
-119.97063
 21
47.67463
 31
0.0
  0
LINE
  5
467
330
1E
100
AcDbEntity
  8
0
  6
CONTINUOUS
 62
     7
100
AcDbLine
 10
-118.8484599999999
 20
129.8069999999997
 30
0.0
 11
-119.1699999999999
 21
131.007
 31
0.0
  0
LINE
  5
468
330
1E
100
AcDbEntity
  8
0
  6
CONTINUOUS
 62
     7
100
AcDbLine
 10
-119.1699999999999
 20
131.007
 30
0.0
 11
-119.49153
 21
129.8069999999997
 31
0.0
  0
LINE
  5
469
330
1E
100
AcDbEntity
  8
0
  6
CONTINUOUS
 62
     7
100
AcDbLine
 10
-119.49153
 20
48.87399999999999
 30
0.0
 11
-119.1699999999999
 21
47.674
 31
0.0
  0
LINE
  5
46A
330
1E
100
AcDbEntity
  8
0
  6
CONTINUOUS
 62
     7
100
AcDbLine
 10
-119.1699999999999
 20
47.674
 30
0.0
 11
-118.8484599999999
 21
48.87399999999999
 31
0.0
  0
TEXT
  5
46B
330
1E
100
AcDbEntity
  8
0
  6
CONTINUOUS
 62
     7
100
AcDbText
 10
-119.57063
 20
84.1413
 30
0.0
 40
3.2
  1
2500
 50
90.0
 41
0.8125
  7
BIGFONT
100
AcDbText
  0
LINE
  5
46C
330
1E
100
AcDbEntity
  8
0
  6
CONTINUOUS
 62
     7
100
AcDbLine
 10
-248.418
 20
47.67463
 30
0.0
 11
-248.418
 21
97.68909999999999
 31
0.0
  0
LINE
  5
46D
330
1E
100
AcDbEntity
  8
0
  6
CONTINUOUS
 62
     7
100
AcDbLine
 10
-231.8179999999999
 20
97.68909999999999
 30
0.0
 11
-249.2179999999999
 21
97.68909999999999
 31
0.0
  0
LINE
  5
46E
330
1E
100
AcDbEntity
  8
0
  6
CONTINUOUS
 62
     7
100
AcDbLine
 10
-231.918
 20
47.67463
 30
0.0
 11
-249.2179999999999
 21
47.67463
 31
0.0
  0
LINE
  5
46F
330
1E
100
AcDbEntity
  8
0
  6
CONTINUOUS
 62
     7
100
AcDbLine
 10
-248.09646
 20
96.48900000000001
 30
0.0
 11
-248.418
 21
97.689
 31
0.0
  0
LINE
  5
470
330
1E
100
AcDbEntity
  8
0
  6
CONTINUOUS
 62
     7
100
AcDbLine
 10
-248.418
 20
97.689
 30
0.0
 11
-248.7395299999999
 21
96.48900000000001
 31
0.0
  0
LINE
  5
471
330
1E
100
AcDbEntity
  8
0
  6
CONTINUOUS
 62
     7
100
AcDbLine
 10
-248.7395299999999
 20
48.87399999999999
 30
0.0
 11
-248.418
 21
47.674
 31
0.0
  0
LINE
  5
472
330
1E
100
AcDbEntity
  8
0
  6
CONTINUOUS
 62
     7
100
AcDbLine
 10
-248.418
 20
47.674
 30
0.0
 11
-248.09646
 21
48.87399999999999
 31
0.0
  0
TEXT
  5
473
330
1E
100
AcDbEntity
  8
0
  6
CONTINUOUS
 62
     7
100
AcDbText
 10
-248.8179999999999
 20
67.48186
 30
0.0
 40
3.2
  1
1500
 50
90.0
 41
0.8125
  7
BIGFONT
100
AcDbText
  0
TEXT
  5
474
330
1E
100
AcDbEntity
  8
0
  6
CONTINUOUS
 62
     7
100
AcDbText
 10
-241.3153
 20
59.41895999999999
 30
0.0
 40
3.2
  1
4×300=1200
 50
90.0
  7
BIGFONT
100
AcDbText
  0
TEXT
  5
475
330
1E
100
AcDbEntity
  8
0
  6
CONTINUOUS
 62
     7
100
AcDbText
 10
-112.0702
 20
71.9839
 30
0.0
 40
3.2
  1
11×200=2200
 50
90.0
  7
BIGFONT
100
AcDbText
  0
LINE
  5
476
330
1E
100
AcDbEntity
  8
0
  6
CONTINUOUS
 62
     7
100
AcDbLine
 10
-240.918
 20
47.67463
 30
0.0
 11
-240.918
 21
52.18453
 31
0.0
  0
LINE
  5
477
330
1E
100
AcDbEntity
  8
0
  6
CONTINUOUS
 62
     7
100
AcDbLine
 10
-231.91876
 20
52.18453
 30
0.0
 11
-241.718
 21
52.18453
 31
0.0
  0
LINE
  5
478
330
1E
100
AcDbEntity
  8
0
  6
CONTINUOUS
 62
     7
100
AcDbLine
 10
-237.1936299999999
 20
47.67463
 30
0.0
 11
-241.718
 21
47.67463
 31
0.0
  0
LINE
  5
479
330
1E
100
AcDbEntity
  8
0
  6
CONTINUOUS
 62
     7
100
AcDbLine
 10
-240.59646
 20
50.98399999999998
 30
0.0
 11
-240.918
 21
52.18399999999999
 31
0.0
  0
LINE
  5
47A
330
1E
100
AcDbEntity
  8
0
  6
CONTINUOUS
 62
     7
100
AcDbLine
 10
-240.918
 20
52.18399999999999
 30
0.0
 11
-241.2395299999999
 21
50.98399999999998
 31
0.0
  0
LINE
  5
47B
330
1E
100
AcDbEntity
  8
0
  6
CONTINUOUS
 62
     7
100
AcDbLine
 10
-241.2395299999999
 20
48.87399999999999
 30
0.0
 11
-240.918
 21
47.674
 31
0.0
  0
LINE
  5
47C
330
1E
100
AcDbEntity
  8
0
  6
CONTINUOUS
 62
     7
100
AcDbLine
 10
-240.918
 20
47.674
 30
0.0
 11
-240.59646
 21
48.87399999999999
 31
0.0
  0
LINE
  5
47D
330
1E
100
AcDbEntity
  8
0
  6
CONTINUOUS
 62
     7
100
AcDbLine
 10
-240.918
 20
52.18453
 30
0.0
 11
-240.918
 21
92.18985999999999
 31
0.0
  0
LINE
  5
47E
330
1E
100
AcDbEntity
  8
0
  6
CONTINUOUS
 62
     7
100
AcDbLine
 10
-231.8187599999999
 20
92.18985999999999
 30
0.0
 11
-241.718
 21
92.18985999999999
 31
0.0
  0
LINE
  5
47F
330
1E
100
AcDbEntity
  8
0
  6
CONTINUOUS
 62
     7
100
AcDbLine
 10
-240.59646
 20
90.98899999999998
 30
0.0
 11
-240.918
 21
92.18899999999999
 31
0.0
  0
LINE
  5
480
330
1E
100
AcDbEntity
  8
0
  6
CONTINUOUS
 62
     7
100
AcDbLine
 10
-240.918
 20
92.18899999999999
 30
0.0
 11
-241.2395299999999
 21
90.98899999999998
 31
0.0
  0
LINE
  5
481
330
1E
100
AcDbEntity
  8
0
  6
CONTINUOUS
 62
     7
100
AcDbLine
 10
-241.2395299999999
 20
53.384
 30
0.0
 11
-240.918
 21
52.18399999999999
 31
0.0
  0
LINE
  5
482
330
1E
100
AcDbEntity
  8
0
  6
CONTINUOUS
 62
     7
100
AcDbLine
 10
-240.918
 20
52.18399999999999
 30
0.0
 11
-240.59646
 21
53.384
 31
0.0
  0
TEXT
  5
483
330
1E
100
AcDbEntity
  8
0
  6
CONTINUOUS
 62
     7
100
AcDbText
 10
-241.3276299999999
 20
46.76153
 30
0.0
 40
3.2
  1
135
 50
90.0
  7
BIGFONT
100
AcDbText
  0
LINE
  5
484
330
1E
100
AcDbEntity
  8
0
  6
CONTINUOUS
 62
     7
100
AcDbLine
 10
-195.9439299999999
 20
88.50796
 30
0.0
 11
-202.6105999999999
 21
88.50796
 31
0.0
  0
LINE
  5
485
330
1E
100
AcDbEntity
  8
0
  6
CONTINUOUS
 62
     7
100
AcDbLine
 10
-201.41
 20
88.82853
 30
0.0
 11
-202.61
 21
88.50700000000001
 31
0.0
  0
LINE
  5
486
330
1E
100
AcDbEntity
  8
0
  6
CONTINUOUS
 62
     7
100
AcDbLine
 10
-202.61
 20
88.50700000000001
 30
0.0
 11
-201.41
 21
88.18545999999995
 31
0.0
  0
LINE
  5
487
330
1E
100
AcDbEntity
  8
0
  6
CONTINUOUS
 62
     7
100
AcDbLine
 10
-202.6105999999999
 20
88.50796
 30
0.0
 11
-209.2772599999999
 21
88.50796
 31
0.0
  0
LINE
  5
488
330
1E
100
AcDbEntity
  8
0
  6
CONTINUOUS
 62
     7
100
AcDbLine
 10
-208.077
 20
88.82853
 30
0.0
 11
-209.2769999999999
 21
88.50700000000001
 31
0.0
  0
LINE
  5
489
330
1E
100
AcDbEntity
  8
0
  6
CONTINUOUS
 62
     7
100
AcDbLine
 10
-209.2769999999999
 20
88.50700000000001
 30
0.0
 11
-208.077
 21
88.18545999999995
 31
0.0
  0
LINE
  5
48A
330
1E
100
AcDbEntity
  8
0
  6
CONTINUOUS
 62
     7
100
AcDbLine
 10
-209.2772599999999
 20
88.50796
 30
0.0
 11
-215.9439299999999
 21
88.50796
 31
0.0
  0
LINE
  5
48B
330
1E
100
AcDbEntity
  8
0
  6
CONTINUOUS
 62
     7
100
AcDbLine
 10
-214.7429999999999
 20
88.82853
 30
0.0
 11
-215.9429999999999
 21
88.50700000000001
 31
0.0
  0
LINE
  5
48C
330
1E
100
AcDbEntity
  8
0
  6
CONTINUOUS
 62
     7
100
AcDbLine
 10
-215.9429999999999
 20
88.50700000000001
 30
0.0
 11
-214.7429999999999
 21
88.18545999999995
 31
0.0
  0
LINE
  5
48D
330
1E
100
AcDbEntity
  8
0
  6
CONTINUOUS
 62
     7
100
AcDbLine
 10
-215.9439299999999
 20
88.50796
 30
0.0
 11
-222.6106
 21
88.50796
 31
0.0
  0
LINE
  5
48E
330
1E
100
AcDbEntity
  8
0
  6
CONTINUOUS
 62
     7
100
AcDbLine
 10
-221.41
 20
88.82853
 30
0.0
 11
-222.61
 21
88.50700000000001
 31
0.0
  0
LINE
  5
48F
330
1E
100
AcDbEntity
  8
0
  6
CONTINUOUS
 62
     7
100
AcDbLine
 10
-222.61
 20
88.50700000000001
 30
0.0
 11
-221.41
 21
88.18545999999995
 31
0.0
  0
LINE
  5
490
330
1E
100
AcDbEntity
  8
0
  6
CONTINUOUS
 62
     7
100
AcDbLine
 10
-222.6106
 20
88.50796
 30
0.0
 11
-229.27726
 21
88.50796
 31
0.0
  0
LINE
  5
491
330
1E
100
AcDbEntity
  8
0
  6
CONTINUOUS
 62
     7
100
AcDbLine
 10
-228.0769999999999
 20
88.82853
 30
0.0
 11
-229.2769999999999
 21
88.50700000000001
 31
0.0
  0
LINE
  5
492
330
1E
100
AcDbEntity
  8
0
  6
CONTINUOUS
 62
     7
100
AcDbLine
 10
-229.2769999999999
 20
88.50700000000001
 30
0.0
 11
-228.0769999999999
 21
88.18545999999995
 31
0.0
  0
LINE
  5
493
330
1E
100
AcDbEntity
  8
0
  6
CONTINUOUS
 62
     7
100
AcDbLine
 10
-199.136
 20
92.1718
 30
0.0
 11
-199.136
 21
82.1718
 31
0.0
  0
LINE
  5
494
330
1E
100
AcDbEntity
  8
0
  6
CONTINUOUS
 62
     7
100
AcDbLine
 10
-199.4575299999999
 20
83.37099999999997
 30
0.0
 11
-199.136
 21
82.171
 31
0.0
  0
LINE
  5
495
330
1E
100
AcDbEntity
  8
0
  6
CONTINUOUS
 62
     7
100
AcDbLine
 10
-199.136
 20
82.171
 30
0.0
 11
-198.81446
 21
83.37099999999997
 31
0.0
  0
LINE
  5
496
330
1E
100
AcDbEntity
  8
0
  6
CONTINUOUS
 62
     7
100
AcDbLine
 10
-199.136
 20
104.1914
 30
0.0
 11
-199.136
 21
92.15189999999999
 31
0.0
  0
LINE
  5
497
330
1E
100
AcDbEntity
  8
0
  6
CONTINUOUS
 62
     7
100
AcDbLine
 10
-199.4575299999999
 20
93.351
 30
0.0
 11
-199.136
 21
92.15099999999999
 31
0.0
  0
LINE
  5
498
330
1E
100
AcDbEntity
  8
0
  6
CONTINUOUS
 62
     7
100
AcDbLine
 10
-199.136
 20
92.15099999999999
 30
0.0
 11
-198.81446
 21
93.351
 31
0.0
  0
LINE
  5
499
330
1E
100
AcDbEntity
  8
0
  6
CONTINUOUS
 62
     1
100
AcDbLine
 10
-100.0049
 20
49.5053
 30
0.0
 11
-37.4701
 21
49.5053
 31
0.0
  0
POINT
  5
49A
330
1E
100
AcDbEntity
  8
0
  6
CONTINUOUS
 62
     1
100
AcDbPoint
 10
37.8014
 20
124.53863
 30
0.0
  0
POINT
  5
49B
330
1E
100
AcDbEntity
  8
0
  6
CONTINUOUS
 62
     1
100
AcDbPoint
 10
37.8014
 20
117.87196
 30
0.0
  0
POINT
  5
49C
330
1E
100
AcDbEntity
  8
0
  6
CONTINUOUS
 62
     7
100
AcDbPoint
 10
37.8014
 20
111.2052999999999
 30
0.0
  0
POINT
  5
49D
330
1E
100
AcDbEntity
  8
0
  6
CONTINUOUS
 62
     1
100
AcDbPoint
 10
37.8014
 20
104.53863
 30
0.0
  0
POINT
  5
49E
330
1E
100
AcDbEntity
  8
0
  6
CONTINUOUS
 62
     1
100
AcDbPoint
 10
37.8014
 20
97.87196000000001
 30
0.0
  0
POINT
  5
49F
330
1E
100
AcDbEntity
  8
0
  6
CONTINUOUS
 62
     1
100
AcDbPoint
 10
37.8014
 20
91.2053
 30
0.0
  0
POINT
  5
4A0
330
1E
100
AcDbEntity
  8
0
  6
CONTINUOUS
 62
     1
100
AcDbPoint
 10
37.8014
 20
84.53863
 30
0.0
  0
POINT
  5
4A1
330
1E
100
AcDbEntity
  8
0
  6
CONTINUOUS
 62
     1
100
AcDbPoint
 10
37.8014
 20
77.87196
 30
0.0
  0
POINT
  5
4A2
330
1E
100
AcDbEntity
  8
0
  6
CONTINUOUS
 62
     1
100
AcDbPoint
 10
37.8014
 20
71.20529999999998
 30
0.0
  0
POINT
  5
4A3
330
1E
100
AcDbEntity
  8
0
  6
CONTINUOUS
 62
     1
100
AcDbPoint
 10
37.8014
 20
64.53863
 30
0.0
  0
POINT
  5
4A4
330
1E
100
AcDbEntity
  8
0
  6
CONTINUOUS
 62
     1
100
AcDbPoint
 10
37.8014
 20
57.87195999999998
 30
0.0
  0
POINT
  5
4A5
330
1E
100
AcDbEntity
  8
0
  6
CONTINUOUS
 62
     1
100
AcDbPoint
 10
37.8014
 20
51.38073
 30
0.0
  0
POINT
  5
4A6
330
1E
100
AcDbEntity
  8
0
  6
CONTINUOUS
 62
     1
100
AcDbPoint
 10
35.64085999999999
 20
82.1718
 30
0.0
  0
POINT
  5
4A7
330
1E
100
AcDbEntity
  8
0
  6
CONTINUOUS
 62
     1
100
AcDbPoint
 10
35.64085999999999
 20
72.1718
 30
0.0
  0
POINT
  5
4A8
330
1E
100
AcDbEntity
  8
0
  6
CONTINUOUS
 62
     1
100
AcDbPoint
 10
35.64085999999999
 20
62.17179999999999
 30
0.0
  0
LINE
  5
4A9
330
1E
100
AcDbEntity
  8
0
  6
DASHED
 62
     1
100
AcDbLine
 10
-229.4440999999999
 20
-55.34533
 30
0.0
 11
-215.11436
 21
-55.34533
 31
0.0
  0
LINE
  5
4AA
330
1E
100
AcDbEntity
  8
0
  6
DASHED
 62
     1
100
AcDbLine
 10
-181.9439299999999
 20
49.1513
 30
0.0
 11
-181.9439299999999
 21
63.65133
 31
0.0
  0
LINE
  5
4AB
330
1E
100
AcDbEntity
  8
0
  6
CONTINUOUS
 62
     1
100
AcDbLine
 10
-37.4701
 20
49.17163
 30
0.0
 11
-37.4701
 21
129.3386299999999
 31
0.0
  0
LINE
  5
4AC
330
1E
100
AcDbEntity
  8
0
  6
CONTINUOUS
 62
     1
100
AcDbLine
 10
-97.55016000000001
 20
-102.6786599999997
 30
0.0
 11
-97.55016000000001
 21
-37.84532999999999
 31
0.0
  0
LINE
  5
4AD
330
1E
100
AcDbEntity
  8
0
  6
CONTINUOUS
 62
     1
100
AcDbLine
 10
-99.85016000000001
 20
-40.14533
 30
0.0
 11
-35.01682999999999
 21
-40.14533
 31
0.0
  0
LINE
  5
4AE
330
1E
100
AcDbEntity
  8
0
  6
CONTINUOUS
 62
     7
100
AcDbLine
 10
-99.85689999999999
 20
-35.1323
 30
0.0
 11
-99.85689999999999
 21
-26.84182999999999
 31
0.0
  0
LINE
  5
4AF
330
1E
100
AcDbEntity
  8
0
  6
CONTINUOUS
 62
     7
100
AcDbLine
 10
-101.6902299999999
 20
-35.1323
 30
0.0
 11
-101.6902299999999
 21
-26.84182999999999
 31
0.0
  0
LINE
  5
4B0
330
1E
100
AcDbEntity
  8
0
  6
CONTINUOUS
 62
     7
100
AcDbLine
 10
-109.59886
 20
-27.67865999999999
 30
0.0
 11
-101.6834999999999
 21
-27.67865999999999
 31
0.0
  0
LINE
  5
4B1
330
1E
100
AcDbEntity
  8
0
  6
CONTINUOUS
 62
     7
100
AcDbLine
 10
-102.8829999999999
 20
-27.99953
 30
0.0
 11
-101.6829999999999
 21
-27.678
 31
0.0
  0
LINE
  5
4B2
330
1E
100
AcDbEntity
  8
0
  6
CONTINUOUS
 62
     7
100
AcDbLine
 10
-101.6829999999999
 20
-27.678
 30
0.0
 11
-102.8829999999999
 21
-27.35646
 31
0.0
  0
LINE
  5
4B3
330
1E
100
AcDbEntity
  8
0
  6
CONTINUOUS
 62
     7
100
AcDbLine
 10
-102.54993
 20
-27.67865999999999
 30
0.0
 11
-96.10763
 21
-27.67865999999999
 31
0.0
  0
POINT
  5
4B4
330
1E
100
AcDbEntity
  8
0
  6
CONTINUOUS
 62
     7
100
AcDbPoint
 10
-99.85689999999999
 20
-27.67865999999999
 30
0.0
  0
TEXT
  5
4B5
330
1E
100
AcDbEntity
  8
0
  6
CONTINUOUS
 62
     7
100
AcDbText
 10
-109.20176
 20
-27.18503
 30
0.0
 40
3.2
  1
55
  7
BIGFONT
100
AcDbText
  0
TEXT
  5
4B6
330
1E
100
AcDbEntity
  8
0
  6
CONTINUOUS
 62
     7
100
AcDbText
 10
-101.4988
 20
-31.29153
 30
0.0
 40
3.2
  1
69
  7
BIGFONT
100
AcDbText
  0
LINE
  5
4B7
330
1E
100
AcDbEntity
  8
0
  6
CONTINUOUS
 62
     7
100
AcDbLine
 10
-71.6835
 20
-102.6786599999997
 30
0.0
 11
-71.6835
 21
-96.012
 31
0.0
  0
LINE
  5
4B8
330
1E
100
AcDbEntity
  8
0
  6
CONTINUOUS
 62
     7
100
AcDbLine
 10
-71.36146
 20
-97.21200000000001
 30
0.0
 11
-71.68300000000002
 21
-96.012
 31
0.0
  0
LINE
  5
4B9
330
1E
100
AcDbEntity
  8
0
  6
CONTINUOUS
 62
     7
100
AcDbLine
 10
-71.68300000000002
 20
-96.012
 30
0.0
 11
-72.00453
 21
-97.21200000000001
 31
0.0
  0
LINE
  5
4BA
330
1E
100
AcDbEntity
  8
0
  6
CONTINUOUS
 62
     7
100
AcDbLine
 10
-71.6835
 20
-114.47036
 30
0.0
 11
-71.6835
 21
-102.6885599999999
 31
0.0
  0
LINE
  5
4BB
330
1E
100
AcDbEntity
  8
0
  6
CONTINUOUS
 62
     7
100
AcDbLine
 10
-71.36146
 20
-103.888
 30
0.0
 11
-71.68300000000002
 21
-102.6879999999999
 31
0.0
  0
LINE
  5
4BC
330
1E
100
AcDbEntity
  8
0
  6
CONTINUOUS
 62
     7
100
AcDbLine
 10
-71.68300000000002
 20
-102.6879999999999
 30
0.0
 11
-72.00453
 21
-103.888
 31
0.0
  0
LINE
  5
4BD
330
1E
100
AcDbEntity
  8
0
  6
CONTINUOUS
 62
     7
100
AcDbLine
 10
-23.70873
 20
-65.84403
 30
0.0
 11
-35.01682999999999
 21
-65.84403
 31
0.0
  0
LINE
  5
4BE
330
1E
100
AcDbEntity
  8
0
  6
CONTINUOUS
 62
     7
100
AcDbLine
 10
-33.816
 20
-65.52246
 30
0.0
 11
-35.01599999999999
 21
-65.84399999999999
 31
0.0
  0
LINE
  5
4BF
330
1E
100
AcDbEntity
  8
0
  6
CONTINUOUS
 62
     7
100
AcDbLine
 10
-35.01599999999999
 20
-65.84399999999999
 30
0.0
 11
-33.816
 21
-66.16553
 31
0.0
  0
LINE
  5
4C0
330
1E
100
AcDbEntity
  8
0
  6
CONTINUOUS
 62
     1
100
AcDbLine
 10
-229.2787299999999
 20
92.1718
 30
0.0
 11
-164.19426
 21
92.1718
 31
0.0
  0
LINE
  5
4C1
330
1E
100
AcDbEntity
  8
0
  6
CONTINUOUS
 62
     1
100
AcDbLine
 10
-229.2787299999999
 20
82.1718
 30
0.0
 11
-164.19426
 21
82.1718
 31
0.0
  0
LINE
  5
4C2
330
1E
100
AcDbEntity
  8
0
  6
CONTINUOUS
 62
     1
100
AcDbLine
 10
-229.2787299999999
 20
72.1718
 30
0.0
 11
-164.19426
 21
72.1718
 31
0.0
  0
LINE
  5
4C3
330
1E
100
AcDbEntity
  8
0
  6
CONTINUOUS
 62
     1
100
AcDbLine
 10
-229.2787299999999
 20
62.17179999999999
 30
0.0
 11
-164.19426
 21
62.17179999999999
 31
0.0
  0
LINE
  5
4C4
330
1E
100
AcDbEntity
  8
0
  6
CONTINUOUS
 62
     1
100
AcDbLine
 10
-229.2787299999999
 20
52.17179999999999
 30
0.0
 11
-164.19426
 21
52.17179999999999
 31
0.0
  0
LINE
  5
4C5
330
1E
100
AcDbEntity
  8
0
  6
CONTINUOUS
 62
     7
100
AcDbLine
 10
-230.9431599999999
 20
30.17463
 30
0.0
 11
-229.2851
 21
30.17463
 31
0.0
  0
LINE
  5
4C6
330
1E
100
AcDbEntity
  8
0
  6
CONTINUOUS
 62
     7
100
AcDbLine
 10
-229.2851
 20
46.6718
 30
0.0
 11
-229.2851
 21
29.37463
 31
0.0
  0
LINE
  5
4C7
330
1E
100
AcDbEntity
  8
0
  6
CONTINUOUS
 62
     7
100
AcDbLine
 10
-230.9431599999999
 20
35.76102999999999
 30
0.0
 11
-230.9431599999999
 21
29.37463
 31
0.0
  0
LINE
  5
4C8
330
1E
100
AcDbEntity
  8
0
  6
CONTINUOUS
 62
     7
100
AcDbLine
 10
-226.8851
 20
30.17463
 30
0.0
 11
-229.2851
 21
30.17463
 31
0.0
  0
LINE
  5
4C9
330
1E
100
AcDbEntity
  8
0
  6
CONTINUOUS
 62
     7
100
AcDbLine
 10
-228.085
 20
30.49552999999999
 30
0.0
 11
-229.285
 21
30.174
 31
0.0
  0
LINE
  5
4CA
330
1E
100
AcDbEntity
  8
0
  6
CONTINUOUS
 62
     7
100
AcDbLine
 10
-229.285
 20
30.174
 30
0.0
 11
-228.085
 21
29.85246
 31
0.0
  0
LINE
  5
4CB
330
1E
100
AcDbEntity
  8
0
  6
CONTINUOUS
 62
     7
100
AcDbLine
 10
-230.9431599999999
 20
30.17463
 30
0.0
 11
-233.34316
 21
30.17463
 31
0.0
  0
LINE
  5
4CC
330
1E
100
AcDbEntity
  8
0
  6
CONTINUOUS
 62
     7
100
AcDbLine
 10
-232.1429999999998
 20
29.85246
 30
0.0
 11
-230.9429999999999
 21
30.174
 31
0.0
  0
LINE
  5
4CD
330
1E
100
AcDbEntity
  8
0
  6
CONTINUOUS
 62
     7
100
AcDbLine
 10
-230.9429999999999
 20
30.174
 30
0.0
 11
-232.1429999999998
 21
30.49552999999999
 31
0.0
  0
LINE
  5
4CE
330
1E
100
AcDbEntity
  8
0
  6
CONTINUOUS
 62
     7
100
AcDbLine
 10
-233.34316
 20
30.17463
 30
0.0
 11
-238.74316
 21
30.17463
 31
0.0
  0
TEXT
  5
4CF
330
1E
100
AcDbEntity
  8
0
  6
CONTINUOUS
 62
     7
100
AcDbText
 10
-238.74316
 20
30.57463
 30
0.0
 40
3.2
  1
50
 41
0.8125
  7
BIGFONT
100
AcDbText
  0
LINE
  5
4D0
330
1E
100
AcDbEntity
  8
0
  6
CONTINUOUS
 62
     7
100
AcDbLine
 10
-229.2851
 20
30.17463
 30
0.0
 11
-175.98963
 21
30.17463
 31
0.0
  0
LINE
  5
4D1
330
1E
100
AcDbEntity
  8
0
  6
CONTINUOUS
 62
     7
100
AcDbLine
 10
-175.98963
 20
46.6718
 30
0.0
 11
-175.98963
 21
29.37463
 31
0.0
  0
LINE
  5
4D2
330
1E
100
AcDbEntity
  8
0
  6
CONTINUOUS
 62
     7
100
AcDbLine
 10
-177.1889999999999
 20
29.85246
 30
0.0
 11
-175.989
 21
30.174
 31
0.0
  0
LINE
  5
4D3
330
1E
100
AcDbEntity
  8
0
  6
CONTINUOUS
 62
     7
100
AcDbLine
 10
-175.989
 20
30.174
 30
0.0
 11
-177.1889999999999
 21
30.49552999999999
 31
0.0
  0
LINE
  5
4D4
330
1E
100
AcDbEntity
  8
0
  6
CONTINUOUS
 62
     7
100
AcDbLine
 10
-228.085
 20
30.49552999999999
 30
0.0
 11
-229.285
 21
30.174
 31
0.0
  0
LINE
  5
4D5
330
1E
100
AcDbEntity
  8
0
  6
CONTINUOUS
 62
     7
100
AcDbLine
 10
-229.285
 20
30.174
 30
0.0
 11
-228.085
 21
29.85246
 31
0.0
  0
TEXT
  5
4D6
330
1E
100
AcDbEntity
  8
0
  6
CONTINUOUS
 62
     7
100
AcDbText
 10
-215.9996599999999
 20
30.70923
 30
0.0
 40
3.2
  1
8×200=1600
  7
BIGFONT
100
AcDbText
  0
LINE
  5
4D7
330
1E
100
AcDbEntity
  8
0
  6
CONTINUOUS
 62
     7
100
AcDbLine
 10
-23.74343
 20
95.17462999999999
 30
0.0
 11
-37.5015
 21
95.17462999999999
 31
0.0
  0
LINE
  5
4D8
330
1E
100
AcDbEntity
  8
0
  6
CONTINUOUS
 62
     7
100
AcDbLine
 10
-36.301
 20
95.49553000000001
 30
0.0
 11
-37.50099999999999
 21
95.174
 31
0.0
  0
LINE
  5
4D9
330
1E
100
AcDbEntity
  8
0
  6
CONTINUOUS
 62
     7
100
AcDbLine
 10
-37.50099999999999
 20
95.174
 30
0.0
 11
-36.301
 21
94.85246
 31
0.0
  0
LINE
  5
4DA
330
1E
100
AcDbEntity
  8
0
  6
DASHED
 62
     1
100
AcDbLine
 10
-171.6107599999999
 20
-51.84173
 30
0.0
 11
-171.6107599999999
 21
-37.512
 31
0.0
  0
LINE
  5
4DB
330
1E
100
AcDbEntity
  8
0
  6
DASHED
 62
     1
100
AcDbLine
 10
-178.2774299999999
 20
-51.84173
 30
0.0
 11
-178.2774299999999
 21
-37.512
 31
0.0
  0
LINE
  5
4DC
330
1E
100
AcDbEntity
  8
0
  6
DASHED
 62
     1
100
AcDbLine
 10
-184.9440999999999
 20
-51.84173
 30
0.0
 11
-184.9440999999999
 21
-37.512
 31
0.0
  0
LINE
  5
4DD
330
1E
100
AcDbEntity
  8
0
  6
DASHED
 62
     1
100
AcDbLine
 10
-191.61076
 20
-51.84173
 30
0.0
 11
-191.61076
 21
-37.512
 31
0.0
  0
LINE
  5
4DE
330
1E
100
AcDbEntity
  8
0
  6
DASHED
 62
     1
100
AcDbLine
 10
-198.27743
 20
-51.84173
 30
0.0
 11
-198.27743
 21
-37.512
 31
0.0
  0
LINE
  5
4DF
330
1E
100
AcDbEntity
  8
0
  6
DASHED
 62
     1
100
AcDbLine
 10
-204.9440999999999
 20
-51.84173
 30
0.0
 11
-204.9440999999999
 21
-37.512
 31
0.0
  0
LINE
  5
4E0
330
1E
100
AcDbEntity
  8
0
  6
DASHED
 62
     1
100
AcDbLine
 10
-211.6107599999998
 20
-51.84173
 30
0.0
 11
-211.6107599999998
 21
-37.512
 31
0.0
  0
LINE
  5
4E1
330
1E
100
AcDbEntity
  8
0
  6
CONTINUOUS
 62
     7
100
AcDbLine
 10
-170.9440999999999
 20
-65.84403
 30
0.0
 11
-177.61076
 21
-65.84403
 31
0.0
  0
LINE
  5
4E2
330
1E
100
AcDbEntity
  8
0
  6
CONTINUOUS
 62
     7
100
AcDbLine
 10
-176.41
 20
-65.52246
 30
0.0
 11
-177.61
 21
-65.84399999999999
 31
0.0
  0
LINE
  5
4E3
330
1E
100
AcDbEntity
  8
0
  6
CONTINUOUS
 62
     7
100
AcDbLine
 10
-177.61
 20
-65.84399999999999
 30
0.0
 11
-176.41
 21
-66.16553
 31
0.0
  0
LINE
  5
4E4
330
1E
100
AcDbEntity
  8
0
  6
CONTINUOUS
 62
     7
100
AcDbLine
 10
-177.61076
 20
-65.84403
 30
0.0
 11
-184.27743
 21
-65.84403
 31
0.0
  0
LINE
  5
4E5
330
1E
100
AcDbEntity
  8
0
  6
CONTINUOUS
 62
     7
100
AcDbLine
 10
-183.077
 20
-65.52246
 30
0.0
 11
-184.2769999999999
 21
-65.84399999999999
 31
0.0
  0
LINE
  5
4E6
330
1E
100
AcDbEntity
  8
0
  6
CONTINUOUS
 62
     7
100
AcDbLine
 10
-184.2769999999999
 20
-65.84399999999999
 30
0.0
 11
-183.077
 21
-66.16553
 31
0.0
  0
LINE
  5
4E7
330
1E
100
AcDbEntity
  8
0
  6
CONTINUOUS
 62
     7
100
AcDbLine
 10
-184.27743
 20
-65.84403
 30
0.0
 11
-190.9440999999999
 21
-65.84403
 31
0.0
  0
LINE
  5
4E8
330
1E
100
AcDbEntity
  8
0
  6
CONTINUOUS
 62
     7
100
AcDbLine
 10
-189.7439999999999
 20
-65.52246
 30
0.0
 11
-190.944
 21
-65.84399999999999
 31
0.0
  0
LINE
  5
4E9
330
1E
100
AcDbEntity
  8
0
  6
CONTINUOUS
 62
     7
100
AcDbLine
 10
-190.944
 20
-65.84399999999999
 30
0.0
 11
-189.7439999999999
 21
-66.16553
 31
0.0
  0
LINE
  5
4EA
330
1E
100
AcDbEntity
  8
0
  6
CONTINUOUS
 62
     7
100
AcDbLine
 10
-190.9440999999999
 20
-65.84403
 30
0.0
 11
-197.6107599999999
 21
-65.84403
 31
0.0
  0
LINE
  5
4EB
330
1E
100
AcDbEntity
  8
0
  6
CONTINUOUS
 62
     7
100
AcDbLine
 10
-196.41
 20
-65.52246
 30
0.0
 11
-197.61
 21
-65.84399999999999
 31
0.0
  0
LINE
  5
4EC
330
1E
100
AcDbEntity
  8
0
  6
CONTINUOUS
 62
     7
100
AcDbLine
 10
-197.61
 20
-65.84399999999999
 30
0.0
 11
-196.41
 21
-66.16553
 31
0.0
  0
LINE
  5
4ED
330
1E
100
AcDbEntity
  8
0
  6
CONTINUOUS
 62
     7
100
AcDbLine
 10
-197.6107599999999
 20
-65.84403
 30
0.0
 11
-204.27743
 21
-65.84403
 31
0.0
  0
LINE
  5
4EE
330
1E
100
AcDbEntity
  8
0
  6
CONTINUOUS
 62
     7
100
AcDbLine
 10
-203.0769999999999
 20
-65.52246
 30
0.0
 11
-204.2769999999999
 21
-65.84399999999999
 31
0.0
  0
LINE
  5
4EF
330
1E
100
AcDbEntity
  8
0
  6
CONTINUOUS
 62
     7
100
AcDbLine
 10
-204.2769999999999
 20
-65.84399999999999
 30
0.0
 11
-203.0769999999999
 21
-66.16553
 31
0.0
  0
LINE
  5
4F0
330
1E
100
AcDbEntity
  8
0
  6
CONTINUOUS
 62
     7
100
AcDbLine
 10
-204.27743
 20
-65.84403
 30
0.0
 11
-210.9440999999999
 21
-65.84403
 31
0.0
  0
LINE
  5
4F1
330
1E
100
AcDbEntity
  8
0
  6
CONTINUOUS
 62
     7
100
AcDbLine
 10
-209.744
 20
-65.52246
 30
0.0
 11
-210.9439999999999
 21
-65.84399999999999
 31
0.0
  0
LINE
  5
4F2
330
1E
100
AcDbEntity
  8
0
  6
CONTINUOUS
 62
     7
100
AcDbLine
 10
-210.9439999999999
 20
-65.84399999999999
 30
0.0
 11
-209.744
 21
-66.16553
 31
0.0
  0
LINE
  5
4F3
330
1E
100
AcDbEntity
  8
0
  6
CONTINUOUS
 62
     7
100
AcDbLine
 10
-210.9440999999999
 20
-65.84403
 30
0.0
 11
-217.6107599999999
 21
-65.84403
 31
0.0
  0
LINE
  5
4F4
330
1E
100
AcDbEntity
  8
0
  6
CONTINUOUS
 62
     7
100
AcDbLine
 10
-216.4099999999999
 20
-65.52246
 30
0.0
 11
-217.61
 21
-65.84399999999999
 31
0.0
  0
LINE
  5
4F5
330
1E
100
AcDbEntity
  8
0
  6
CONTINUOUS
 62
     7
100
AcDbLine
 10
-217.61
 20
-65.84399999999999
 30
0.0
 11
-216.4099999999999
 21
-66.16553
 31
0.0
  0
LINE
  5
4F6
330
1E
100
AcDbEntity
  8
0
  6
CONTINUOUS
 62
     7
100
AcDbLine
 10
-200.87933
 20
-76.02093
 30
0.0
 11
-200.87933
 21
-69.35425999999999
 31
0.0
  0
LINE
  5
4F7
330
1E
100
AcDbEntity
  8
0
  6
CONTINUOUS
 62
     7
100
AcDbLine
 10
-200.55746
 20
-70.554
 30
0.0
 11
-200.8789999999999
 21
-69.354
 31
0.0
  0
LINE
  5
4F8
330
1E
100
AcDbEntity
  8
0
  6
CONTINUOUS
 62
     7
100
AcDbLine
 10
-200.8789999999999
 20
-69.354
 30
0.0
 11
-201.20053
 21
-70.554
 31
0.0
  0
LINE
  5
4F9
330
1E
100
AcDbEntity
  8
0
  6
CONTINUOUS
 62
     7
100
AcDbLine
 10
-200.87933
 20
-69.35425999999999
 30
0.0
 11
-200.87933
 21
-62.6876
 31
0.0
  0
LINE
  5
4FA
330
1E
100
AcDbEntity
  8
0
  6
CONTINUOUS
 62
     7
100
AcDbLine
 10
-200.55746
 20
-63.887
 30
0.0
 11
-200.8789999999999
 21
-62.68699999999999
 31
0.0
  0
LINE
  5
4FB
330
1E
100
AcDbEntity
  8
0
  6
CONTINUOUS
 62
     7
100
AcDbLine
 10
-200.8789999999999
 20
-62.68699999999999
 30
0.0
 11
-201.20053
 21
-63.887
 31
0.0
  0
LINE
  5
4FC
330
1E
100
AcDbEntity
  8
0
  6
CONTINUOUS
 62
     7
100
AcDbLine
 10
-200.87933
 20
-62.6876
 30
0.0
 11
-200.87933
 21
-56.02093
 31
0.0
  0
LINE
  5
4FD
330
1E
100
AcDbEntity
  8
0
  6
CONTINUOUS
 62
     7
100
AcDbLine
 10
-200.55746
 20
-57.22
 30
0.0
 11
-200.8789999999999
 21
-56.02
 31
0.0
  0
LINE
  5
4FE
330
1E
100
AcDbEntity
  8
0
  6
CONTINUOUS
 62
     7
100
AcDbLine
 10
-200.8789999999999
 20
-56.02
 30
0.0
 11
-201.20053
 21
-57.22
 31
0.0
  0
LINE
  5
4FF
330
1E
100
AcDbEntity
  8
0
  6
CONTINUOUS
 62
     7
100
AcDbLine
 10
-200.87933
 20
-56.02093
 30
0.0
 11
-200.87933
 21
-49.35425999999999
 31
0.0
  0
LINE
  5
500
330
1E
100
AcDbEntity
  8
0
  6
CONTINUOUS
 62
     7
100
AcDbLine
 10
-200.55746
 20
-50.55399999999998
 30
0.0
 11
-200.8789999999999
 21
-49.354
 31
0.0
  0
LINE
  5
501
330
1E
100
AcDbEntity
  8
0
  6
CONTINUOUS
 62
     7
100
AcDbLine
 10
-200.8789999999999
 20
-49.354
 30
0.0
 11
-201.20053
 21
-50.55399999999998
 31
0.0
  0
LINE
  5
502
330
1E
100
AcDbEntity
  8
0
  6
CONTINUOUS
 62
     1
100
AcDbLine
 10
-204.27743
 20
-102.6786599999997
 30
0.0
 11
-204.27743
 21
-37.512
 31
0.0
  0
LINE
  5
503
330
1E
100
AcDbEntity
  8
0
  6
CONTINUOUS
 62
     1
100
AcDbLine
 10
-197.6107599999999
 20
-102.6786599999997
 30
0.0
 11
-197.6107599999999
 21
-37.512
 31
0.0
  0
LINE
  5
504
330
1E
100
AcDbEntity
  8
0
  6
CONTINUOUS
 62
     1
100
AcDbLine
 10
-217.6107599999999
 20
-102.6786599999997
 30
0.0
 11
-217.6107599999999
 21
-37.512
 31
0.0
  0
LINE
  5
505
330
1E
100
AcDbEntity
  8
0
  6
CONTINUOUS
 62
     1
100
AcDbLine
 10
-226.81076
 20
-102.6786599999997
 30
0.0
 11
-226.81076
 21
-37.512
 31
0.0
  0
LINE
  5
506
330
1E
100
AcDbEntity
  8
0
  6
CONTINUOUS
 62
     1
100
AcDbLine
 10
-210.9440999999999
 20
-102.6786599999997
 30
0.0
 11
-210.9440999999999
 21
-37.512
 31
0.0
  0
LINE
  5
507
330
1E
100
AcDbEntity
  8
0
  6
CONTINUOUS
 62
     1
100
AcDbLine
 10
-229.4440999999999
 20
-49.34533
 30
0.0
 11
-164.27743
 21
-49.34533
 31
0.0
  0
LINE
  5
508
330
1E
100
AcDbEntity
  8
0
  6
CONTINUOUS
 62
     7
100
AcDbLine
 10
-217.5875299999999
 20
-27.67865999999999
 30
0.0
 11
-164.26613
 21
-27.67865999999999
 31
0.0
  0
LINE
  5
509
330
1E
100
AcDbEntity
  8
0
  6
CONTINUOUS
 62
     7
100
AcDbLine
 10
-164.26613
 20
-35.012
 30
0.0
 11
-164.26613
 21
-26.87865999999999
 31
0.0
  0
LINE
  5
50A
330
1E
100
AcDbEntity
  8
0
  6
CONTINUOUS
 62
     7
100
AcDbLine
 10
-217.5875299999999
 20
-35.012
 30
0.0
 11
-217.5875299999999
 21
-26.87865999999999
 31
0.0
  0
LINE
  5
50B
330
1E
100
AcDbEntity
  8
0
  6
CONTINUOUS
 62
     7
100
AcDbLine
 10
-165.4659999999998
 20
-27.99953
 30
0.0
 11
-164.266
 21
-27.678
 31
0.0
  0
LINE
  5
50C
330
1E
100
AcDbEntity
  8
0
  6
CONTINUOUS
 62
     7
100
AcDbLine
 10
-164.266
 20
-27.678
 30
0.0
 11
-165.4659999999998
 21
-27.35646
 31
0.0
  0
LINE
  5
50D
330
1E
100
AcDbEntity
  8
0
  6
CONTINUOUS
 62
     7
100
AcDbLine
 10
-216.387
 20
-27.35646
 30
0.0
 11
-217.5869999999999
 21
-27.678
 31
0.0
  0
LINE
  5
50E
330
1E
100
AcDbEntity
  8
0
  6
CONTINUOUS
 62
     7
100
AcDbLine
 10
-217.5869999999999
 20
-27.678
 30
0.0
 11
-216.387
 21
-27.99953
 31
0.0
  0
LINE
  5
50F
330
1E
100
AcDbEntity
  8
0
  6
CONTINUOUS
 62
     7
100
AcDbLine
 10
-164.26613
 20
-27.67865999999999
 30
0.0
 11
-162.61076
 21
-27.67865999999999
 31
0.0
  0
LINE
  5
510
330
1E
100
AcDbEntity
  8
0
  6
CONTINUOUS
 62
     7
100
AcDbLine
 10
-162.61076
 20
-29.96646
 30
0.0
 11
-162.61076
 21
-26.87865999999999
 31
0.0
  0
LINE
  5
511
330
1E
100
AcDbEntity
  8
0
  6
CONTINUOUS
 62
     7
100
AcDbLine
 10
-160.21076
 20
-27.67865999999999
 30
0.0
 11
-162.61076
 21
-27.67865999999999
 31
0.0
  0
LINE
  5
512
330
1E
100
AcDbEntity
  8
0
  6
CONTINUOUS
 62
     7
100
AcDbLine
 10
-161.41
 20
-27.35646
 30
0.0
 11
-162.61
 21
-27.678
 31
0.0
  0
LINE
  5
513
330
1E
100
AcDbEntity
  8
0
  6
CONTINUOUS
 62
     7
100
AcDbLine
 10
-162.61
 20
-27.678
 30
0.0
 11
-161.41
 21
-27.99953
 31
0.0
  0
LINE
  5
514
330
1E
100
AcDbEntity
  8
0
  6
CONTINUOUS
 62
     7
100
AcDbLine
 10
-164.26613
 20
-27.67865999999999
 30
0.0
 11
-166.66613
 21
-27.67865999999999
 31
0.0
  0
LINE
  5
515
330
1E
100
AcDbEntity
  8
0
  6
CONTINUOUS
 62
     7
100
AcDbLine
 10
-165.4659999999998
 20
-27.99953
 30
0.0
 11
-164.266
 21
-27.678
 31
0.0
  0
LINE
  5
516
330
1E
100
AcDbEntity
  8
0
  6
CONTINUOUS
 62
     7
100
AcDbLine
 10
-164.266
 20
-27.678
 30
0.0
 11
-165.4659999999998
 21
-27.35646
 31
0.0
  0
LINE
  5
517
330
1E
100
AcDbEntity
  8
0
  6
CONTINUOUS
 62
     7
100
AcDbLine
 10
-160.21076
 20
-27.67865999999999
 30
0.0
 11
-155.59076
 21
-27.67865999999999
 31
0.0
  0
TEXT
  5
518
330
1E
100
AcDbEntity
  8
0
  6
CONTINUOUS
 62
     7
100
AcDbText
 10
-160.79076
 20
-27.27866
 30
0.0
 40
3.2
  1
50
 41
0.8125
  7
BIGFONT
100
AcDbText
  0
LINE
  5
519
330
1E
100
AcDbEntity
  8
0
  6
CONTINUOUS
 62
     7
100
AcDbLine
 10
-220.1
 20
-62.0594
 30
0.0
 11
-220.1
 21
-55.39273000000001
 31
0.0
  0
LINE
  5
51A
330
1E
100
AcDbEntity
  8
0
  6
CONTINUOUS
 62
     7
100
AcDbLine
 10
-219.7784599999998
 20
-56.592
 30
0.0
 11
-220.1
 21
-55.39200000000001
 31
0.0
  0
LINE
  5
51B
330
1E
100
AcDbEntity
  8
0
  6
CONTINUOUS
 62
     7
100
AcDbLine
 10
-220.1
 20
-55.39200000000001
 30
0.0
 11
-220.4215299999999
 21
-56.592
 31
0.0
  0
LINE
  5
51C
330
1E
100
AcDbEntity
  8
0
  6
CONTINUOUS
 62
     1
100
AcDbLine
 10
-190.9440999999999
 20
-69.34533
 30
0.0
 11
-190.9440999999999
 21
-37.512
 31
0.0
  0
LINE
  5
51D
330
1E
100
AcDbEntity
  8
0
  6
CONTINUOUS
 62
     1
100
AcDbLine
 10
-184.27743
 20
-69.34533
 30
0.0
 11
-184.27743
 21
-37.512
 31
0.0
  0
LINE
  5
51E
330
1E
100
AcDbEntity
  8
0
  6
CONTINUOUS
 62
     1
100
AcDbLine
 10
-177.61076
 20
-69.34533
 30
0.0
 11
-177.61076
 21
-37.512
 31
0.0
  0
LINE
  5
51F
330
1E
100
AcDbEntity
  8
0
  6
CONTINUOUS
 62
     1
100
AcDbLine
 10
-170.9440999999999
 20
-69.34533
 30
0.0
 11
-170.9440999999999
 21
-37.512
 31
0.0
  0
LINE
  5
520
330
1E
100
AcDbEntity
  8
0
  6
CONTINUOUS
 62
     1
100
AcDbLine
 10
-164.27743
 20
-69.34533
 30
0.0
 11
-164.27743
 21
-37.512
 31
0.0
  0
LINE
  5
521
330
1E
100
AcDbEntity
  8
0
  6
CONTINUOUS
 62
     7
100
AcDbLine
 10
-204.9611
 20
-46.84533
 30
0.0
 11
-211.62776
 21
-46.84533
 31
0.0
  0
LINE
  5
522
330
1E
100
AcDbEntity
  8
0
  6
CONTINUOUS
 62
     7
100
AcDbLine
 10
-210.427
 20
-46.52346
 30
0.0
 11
-211.627
 21
-46.84499999999998
 31
0.0
  0
LINE
  5
523
330
1E
100
AcDbEntity
  8
0
  6
CONTINUOUS
 62
     7
100
AcDbLine
 10
-211.627
 20
-46.84499999999998
 30
0.0
 11
-210.427
 21
-47.16652999999999
 31
0.0
  0
LINE
  5
524
330
1E
100
AcDbEntity
  8
0
  6
CONTINUOUS
 62
     7
100
AcDbLine
 10
-152.61126
 20
-46.84533
 30
0.0
 11
-164.9610999999999
 21
-46.84533
 31
0.0
  0
LINE
  5
525
330
1E
100
AcDbEntity
  8
0
  6
CONTINUOUS
 62
     7
100
AcDbLine
 10
-163.761
 20
-46.52346
 30
0.0
 11
-164.9609999999999
 21
-46.84499999999998
 31
0.0
  0
LINE
  5
526
330
1E
100
AcDbEntity
  8
0
  6
CONTINUOUS
 62
     7
100
AcDbLine
 10
-164.9609999999999
 20
-46.84499999999998
 30
0.0
 11
-163.761
 21
-47.16652999999999
 31
0.0
  0
LINE
  5
527
330
1E
100
AcDbEntity
  8
0
  6
CONTINUOUS
 62
     7
100
AcDbLine
 10
-181.9439299999999
 20
60.01746
 30
0.0
 11
-188.6106
 21
60.01746
 31
0.0
  0
LINE
  5
528
330
1E
100
AcDbEntity
  8
0
  6
CONTINUOUS
 62
     7
100
AcDbLine
 10
-187.41
 20
60.33853
 30
0.0
 11
-188.61
 21
60.01699999999999
 31
0.0
  0
LINE
  5
529
330
1E
100
AcDbEntity
  8
0
  6
CONTINUOUS
 62
     7
100
AcDbLine
 10
-188.61
 20
60.01699999999999
 30
0.0
 11
-187.41
 21
59.69546
 31
0.0
  0
LINE
  5
52A
330
1E
100
AcDbEntity
  8
0
  6
CONTINUOUS
 62
     7
100
AcDbLine
 10
-152.59426
 20
60.01746
 30
0.0
 11
-181.9439299999999
 21
60.01746
 31
0.0
  0
LINE
  5
52B
330
1E
100
AcDbEntity
  8
0
  6
CONTINUOUS
 62
     7
100
AcDbLine
 10
-180.743
 20
60.33853
 30
0.0
 11
-181.9429999999999
 21
60.01699999999999
 31
0.0
  0
LINE
  5
52C
330
1E
100
AcDbEntity
  8
0
  6
CONTINUOUS
 62
     7
100
AcDbLine
 10
-181.9429999999999
 20
60.01699999999999
 30
0.0
 11
-180.743
 21
59.69546
 31
0.0
  0
LINE
  5
52D
330
1E
100
AcDbEntity
  8
0
  6
CONTINUOUS
 62
     7
100
AcDbLine
 10
-198.2944299999999
 20
-46.84533
 30
0.0
 11
-204.9611
 21
-46.84533
 31
0.0
  0
LINE
  5
52E
330
1E
100
AcDbEntity
  8
0
  6
CONTINUOUS
 62
     7
100
AcDbLine
 10
-203.7609999999999
 20
-46.52346
 30
0.0
 11
-204.9609999999999
 21
-46.84499999999998
 31
0.0
  0
LINE
  5
52F
330
1E
100
AcDbEntity
  8
0
  6
CONTINUOUS
 62
     7
100
AcDbLine
 10
-204.9609999999999
 20
-46.84499999999998
 30
0.0
 11
-203.7609999999999
 21
-47.16652999999999
 31
0.0
  0
LINE
  5
530
330
1E
100
AcDbEntity
  8
0
  6
CONTINUOUS
 62
     7
100
AcDbLine
 10
-191.62776
 20
-46.84533
 30
0.0
 11
-198.2944299999999
 21
-46.84533
 31
0.0
  0
LINE
  5
531
330
1E
100
AcDbEntity
  8
0
  6
CONTINUOUS
 62
     7
100
AcDbLine
 10
-197.0939999999999
 20
-46.52346
 30
0.0
 11
-198.294
 21
-46.84499999999998
 31
0.0
  0
LINE
  5
532
330
1E
100
AcDbEntity
  8
0
  6
CONTINUOUS
 62
     7
100
AcDbLine
 10
-198.294
 20
-46.84499999999998
 30
0.0
 11
-197.0939999999999
 21
-47.16652999999999
 31
0.0
  0
LINE
  5
533
330
1E
100
AcDbEntity
  8
0
  6
CONTINUOUS
 62
     7
100
AcDbLine
 10
-184.9610999999999
 20
-46.84533
 30
0.0
 11
-191.62776
 21
-46.84533
 31
0.0
  0
LINE
  5
534
330
1E
100
AcDbEntity
  8
0
  6
CONTINUOUS
 62
     7
100
AcDbLine
 10
-190.4269999999999
 20
-46.52346
 30
0.0
 11
-191.627
 21
-46.84499999999998
 31
0.0
  0
LINE
  5
535
330
1E
100
AcDbEntity
  8
0
  6
CONTINUOUS
 62
     7
100
AcDbLine
 10
-191.627
 20
-46.84499999999998
 30
0.0
 11
-190.4269999999999
 21
-47.16652999999999
 31
0.0
  0
LINE
  5
536
330
1E
100
AcDbEntity
  8
0
  6
CONTINUOUS
 62
     7
100
AcDbLine
 10
-178.29443
 20
-46.84533
 30
0.0
 11
-184.9610999999999
 21
-46.84533
 31
0.0
  0
LINE
  5
537
330
1E
100
AcDbEntity
  8
0
  6
CONTINUOUS
 62
     7
100
AcDbLine
 10
-183.7609999999999
 20
-46.52346
 30
0.0
 11
-184.961
 21
-46.84499999999998
 31
0.0
  0
LINE
  5
538
330
1E
100
AcDbEntity
  8
0
  6
CONTINUOUS
 62
     7
100
AcDbLine
 10
-184.961
 20
-46.84499999999998
 30
0.0
 11
-183.7609999999999
 21
-47.16652999999999
 31
0.0
  0
LINE
  5
539
330
1E
100
AcDbEntity
  8
0
  6
CONTINUOUS
 62
     7
100
AcDbLine
 10
-171.62776
 20
-46.84533
 30
0.0
 11
-178.29443
 21
-46.84533
 31
0.0
  0
LINE
  5
53A
330
1E
100
AcDbEntity
  8
0
  6
CONTINUOUS
 62
     7
100
AcDbLine
 10
-177.0939999999999
 20
-46.52346
 30
0.0
 11
-178.294
 21
-46.84499999999998
 31
0.0
  0
LINE
  5
53B
330
1E
100
AcDbEntity
  8
0
  6
CONTINUOUS
 62
     7
100
AcDbLine
 10
-178.294
 20
-46.84499999999998
 30
0.0
 11
-177.0939999999999
 21
-47.16652999999999
 31
0.0
  0
LINE
  5
53C
330
1E
100
AcDbEntity
  8
0
  6
CONTINUOUS
 62
     7
100
AcDbLine
 10
-164.9610999999999
 20
-46.84533
 30
0.0
 11
-171.62776
 21
-46.84533
 31
0.0
  0
LINE
  5
53D
330
1E
100
AcDbEntity
  8
0
  6
CONTINUOUS
 62
     7
100
AcDbLine
 10
-171.62776
 20
-46.84533
 30
0.0
 11
-174.0277599999999
 21
-46.84533
 31
0.0
  0
LINE
  5
53E
330
1E
100
AcDbEntity
  8
0
  6
CONTINUOUS
 62
     7
100
AcDbLine
 10
-170.4269999999999
 20
-46.52346
 30
0.0
 11
-171.627
 21
-46.84499999999998
 31
0.0
  0
LINE
  5
53F
330
1E
100
AcDbEntity
  8
0
  6
CONTINUOUS
 62
     7
100
AcDbLine
 10
-171.627
 20
-46.84499999999998
 30
0.0
 11
-170.4269999999999
 21
-47.16652999999999
 31
0.0
  0
LINE
  5
540
330
1E
100
AcDbEntity
  8
0
  6
CONTINUOUS
 62
     7
100
AcDbLine
 10
33.73885999999998
 20
47.67463
 30
0.0
 11
33.73885999999998
 21
64.9387
 31
0.0
  0
POINT
  5
541
330
1E
100
AcDbEntity
  8
0
  6
CONTINUOUS
 62
     1
100
AcDbPoint
 10
67.07219999999999
 20
49.566
 30
0.0
  0
LINE
  5
542
330
1E
100
AcDbEntity
  8
0
  6
CONTINUOUS
 62
     7
100
AcDbLine
 10
65.47575999999999
 20
62.48726
 30
0.0
 11
60.40553
 21
51.38073
 31
0.0
  0
LINE
  5
543
330
1E
100
AcDbEntity
  8
0
  6
CONTINUOUS
 62
     7
100
AcDbLine
 10
60.61083
 20
52.60515999999999
 30
0.0
 11
60.405
 21
51.38
 31
0.0
  0
LINE
  5
544
330
1E
100
AcDbEntity
  8
0
  6
CONTINUOUS
 62
     7
100
AcDbLine
 10
60.405
 20
51.38
 30
0.0
 11
61.19584
 21
52.3381
 31
0.0
  0
LINE
  5
545
330
1E
100
AcDbEntity
  8
0
  6
CONTINUOUS
 62
     7
100
AcDbLine
 10
65.47575999999999
 20
62.48726
 30
0.0
 11
56.60793
 21
51.76923
 31
0.0
  0
LINE
  5
546
330
1E
100
AcDbEntity
  8
0
  6
CONTINUOUS
 62
     7
100
AcDbLine
 10
57.12422
 20
52.89854
 30
0.0
 11
56.607
 21
51.76899999999999
 31
0.0
  0
LINE
  5
547
330
1E
100
AcDbEntity
  8
0
  6
CONTINUOUS
 62
     7
100
AcDbLine
 10
56.607
 20
51.76899999999999
 30
0.0
 11
57.6197
 21
52.48859
 31
0.0
  0
LINE
  5
548
330
1E
100
AcDbEntity
  8
0
  6
CONTINUOUS
 62
     1
100
AcDbLine
 10
-222.61076
 20
-102.6786599999997
 30
0.0
 11
-222.61076
 21
-37.512
 31
0.0
  0
LINE
  5
549
330
1E
100
AcDbEntity
  8
0
  6
CONTINUOUS
 62
     1
100
AcDbLine
 10
-229.4440999999999
 20
-44.34533
 30
0.0
 11
-164.27743
 21
-44.34533
 31
0.0
  0
LINE
  5
54A
330
1E
100
AcDbEntity
  8
0
  6
CONTINUOUS
 62
     7
100
AcDbLine
 10
-226.8031
 20
-27.67865999999999
 30
0.0
 11
-222.60406
 21
-27.67865999999999
 31
0.0
  0
LINE
  5
54B
330
1E
100
AcDbEntity
  8
0
  6
CONTINUOUS
 62
     7
100
AcDbLine
 10
-222.60406
 20
-35.012
 30
0.0
 11
-222.60406
 21
-26.87865999999999
 31
0.0
  0
LINE
  5
54C
330
1E
100
AcDbEntity
  8
0
  6
CONTINUOUS
 62
     7
100
AcDbLine
 10
-226.8031
 20
-35.012
 30
0.0
 11
-226.8031
 21
-26.87865999999999
 31
0.0
  0
LINE
  5
54D
330
1E
100
AcDbEntity
  8
0
  6
CONTINUOUS
 62
     7
100
AcDbLine
 10
-223.804
 20
-27.99953
 30
0.0
 11
-222.604
 21
-27.678
 31
0.0
  0
LINE
  5
54E
330
1E
100
AcDbEntity
  8
0
  6
CONTINUOUS
 62
     7
100
AcDbLine
 10
-222.604
 20
-27.678
 30
0.0
 11
-223.804
 21
-27.35646
 31
0.0
  0
LINE
  5
54F
330
1E
100
AcDbEntity
  8
0
  6
CONTINUOUS
 62
     7
100
AcDbLine
 10
-225.6029999999999
 20
-27.35646
 30
0.0
 11
-226.8029999999999
 21
-27.678
 31
0.0
  0
LINE
  5
550
330
1E
100
AcDbEntity
  8
0
  6
CONTINUOUS
 62
     7
100
AcDbLine
 10
-226.8029999999999
 20
-27.678
 30
0.0
 11
-225.6029999999999
 21
-27.99953
 31
0.0
  0
LINE
  5
551
330
1E
100
AcDbEntity
  8
0
  6
CONTINUOUS
 62
     7
100
AcDbLine
 10
-222.60406
 20
-27.67865999999999
 30
0.0
 11
-217.5875299999999
 21
-27.67865999999999
 31
0.0
  0
LINE
  5
552
330
1E
100
AcDbEntity
  8
0
  6
CONTINUOUS
 62
     7
100
AcDbLine
 10
-217.5875299999999
 20
-30.30813
 30
0.0
 11
-217.5875299999999
 21
-26.87865999999999
 31
0.0
  0
LINE
  5
553
330
1E
100
AcDbEntity
  8
0
  6
CONTINUOUS
 62
     7
100
AcDbLine
 10
-218.787
 20
-27.99953
 30
0.0
 11
-217.5869999999999
 21
-27.678
 31
0.0
  0
LINE
  5
554
330
1E
100
AcDbEntity
  8
0
  6
CONTINUOUS
 62
     7
100
AcDbLine
 10
-217.5869999999999
 20
-27.678
 30
0.0
 11
-218.787
 21
-27.35646
 31
0.0
  0
LINE
  5
555
330
1E
100
AcDbEntity
  8
0
  6
CONTINUOUS
 62
     7
100
AcDbLine
 10
-221.404
 20
-27.35646
 30
0.0
 11
-222.604
 21
-27.678
 31
0.0
  0
LINE
  5
556
330
1E
100
AcDbEntity
  8
0
  6
CONTINUOUS
 62
     7
100
AcDbLine
 10
-222.604
 20
-27.678
 30
0.0
 11
-221.404
 21
-27.99953
 31
0.0
  0
LINE
  5
557
330
1E
100
AcDbEntity
  8
0
  6
CONTINUOUS
 62
     7
100
AcDbLine
 10
-222.60406
 20
-27.67865999999999
 30
0.0
 11
-223.6440599999999
 21
-27.67865999999999
 31
0.0
  0
TEXT
  5
558
330
1E
100
AcDbEntity
  8
0
  6
CONTINUOUS
 62
     7
100
AcDbText
 10
-223.6440599999999
 20
-31.27866
 30
0.0
 40
3.2
  1
150
 41
0.8125
  7
BIGFONT
100
AcDbText
  0
TEXT
  5
559
330
1E
100
AcDbEntity
  8
0
  6
CONTINUOUS
 62
     7
100
AcDbText
 10
-229.57156
 20
-27.16575999999999
 30
0.0
 40
3.2
  1
128
  7
BIGFONT
100
AcDbText
  0
LINE
  5
55A
330
1E
100
AcDbEntity
  8
0
  6
CONTINUOUS
 62
     7
100
AcDbLine
 10
-217.6107599999999
 20
-65.84403
 30
0.0
 11
-222.61076
 21
-65.84403
 31
0.0
  0
LINE
  5
55B
330
1E
100
AcDbEntity
  8
0
  6
CONTINUOUS
 62
     7
100
AcDbLine
 10
-221.41
 20
-65.52246
 30
0.0
 11
-222.61
 21
-65.84399999999999
 31
0.0
  0
LINE
  5
55C
330
1E
100
AcDbEntity
  8
0
  6
CONTINUOUS
 62
     7
100
AcDbLine
 10
-222.61
 20
-65.84399999999999
 30
0.0
 11
-221.41
 21
-66.16553
 31
0.0
  0
LINE
  5
55D
330
1E
100
AcDbEntity
  8
0
  6
CONTINUOUS
 62
     7
100
AcDbLine
 10
-222.5241
 20
-65.84403
 30
0.0
 11
-226.81076
 21
-65.84403
 31
0.0
  0
LINE
  5
55E
330
1E
100
AcDbEntity
  8
0
  6
CONTINUOUS
 62
     7
100
AcDbLine
 10
-225.6099999999999
 20
-65.52246
 30
0.0
 11
-226.81
 21
-65.84399999999999
 31
0.0
  0
LINE
  5
55F
330
1E
100
AcDbEntity
  8
0
  6
CONTINUOUS
 62
     7
100
AcDbLine
 10
-226.81
 20
-65.84399999999999
 30
0.0
 11
-225.6099999999999
 21
-66.16553
 31
0.0
  0
LINE
  5
560
330
1E
100
AcDbEntity
  8
0
  6
CONTINUOUS
 62
     7
100
AcDbLine
 10
-200.87933
 20
-44.34533
 30
0.0
 11
-200.87933
 21
-40.14533
 31
0.0
  0
LINE
  5
561
330
1E
100
AcDbEntity
  8
0
  6
CONTINUOUS
 62
     7
100
AcDbLine
 10
-200.55746
 20
-41.345
 30
0.0
 11
-200.8789999999999
 21
-40.145
 31
0.0
  0
LINE
  5
562
330
1E
100
AcDbEntity
  8
0
  6
CONTINUOUS
 62
     7
100
AcDbLine
 10
-200.8789999999999
 20
-40.145
 30
0.0
 11
-201.20053
 21
-41.345
 31
0.0
  0
LINE
  5
563
330
1E
100
AcDbEntity
  8
0
  6
CONTINUOUS
 62
     7
100
AcDbLine
 10
-200.87933
 20
-49.35673
 30
0.0
 11
-200.87933
 21
-44.34533
 31
0.0
  0
LINE
  5
564
330
1E
100
AcDbEntity
  8
0
  6
CONTINUOUS
 62
     7
100
AcDbLine
 10
-200.55746
 20
-45.54499999999999
 30
0.0
 11
-200.8789999999999
 21
-44.34499999999998
 31
0.0
  0
LINE
  5
565
330
1E
100
AcDbEntity
  8
0
  6
CONTINUOUS
 62
     7
100
AcDbLine
 10
-200.8789999999999
 20
-44.34499999999998
 30
0.0
 11
-201.20053
 21
-45.54499999999999
 31
0.0
  0
LINE
  5
566
330
1E
100
AcDbEntity
  8
0
  6
CONTINUOUS
 62
     1
100
AcDbLine
 10
-93.35016000000001
 20
-102.6786599999997
 30
0.0
 11
-93.35016000000001
 21
-37.84532999999999
 31
0.0
  0
LINE
  5
567
330
1E
100
AcDbEntity
  8
0
  6
CONTINUOUS
 62
     1
100
AcDbLine
 10
-88.35016000000001
 20
-102.6786599999997
 30
0.0
 11
-88.35016000000001
 21
-37.84532999999999
 31
0.0
  0
LINE
  5
568
330
1E
100
AcDbEntity
  8
0
  6
CONTINUOUS
 62
     1
100
AcDbLine
 10
-81.6835
 20
-102.6786599999997
 30
0.0
 11
-81.6835
 21
-37.84532999999999
 31
0.0
  0
LINE
  5
569
330
1E
100
AcDbEntity
  8
0
  6
CONTINUOUS
 62
     1
100
AcDbLine
 10
-75.01682999999998
 20
-102.6786599999997
 30
0.0
 11
-75.01682999999998
 21
-37.84532999999999
 31
0.0
  0
LINE
  5
56A
330
1E
100
AcDbEntity
  8
0
  6
CONTINUOUS
 62
     1
100
AcDbLine
 10
-68.35016
 20
-102.6786599999997
 30
0.0
 11
-68.35016
 21
-37.84532999999999
 31
0.0
  0
LINE
  5
56B
330
1E
100
AcDbEntity
  8
0
  6
CONTINUOUS
 62
     1
100
AcDbLine
 10
-61.6835
 20
-102.6786599999997
 30
0.0
 11
-61.6835
 21
-37.84532999999999
 31
0.0
  0
LINE
  5
56C
330
1E
100
AcDbEntity
  8
0
  6
CONTINUOUS
 62
     1
100
AcDbLine
 10
-55.01683
 20
-102.6786599999997
 30
0.0
 11
-55.01683
 21
-37.84532999999999
 31
0.0
  0
LINE
  5
56D
330
1E
100
AcDbEntity
  8
0
  6
CONTINUOUS
 62
     1
100
AcDbLine
 10
-48.35015999999999
 20
-102.6786599999997
 30
0.0
 11
-48.35015999999999
 21
-37.84532999999999
 31
0.0
  0
LINE
  5
56E
330
1E
100
AcDbEntity
  8
0
  6
CONTINUOUS
 62
     1
100
AcDbLine
 10
-99.85016000000001
 20
-44.34533
 30
0.0
 11
-35.01682999999999
 21
-44.34533
 31
0.0
  0
LINE
  5
56F
330
1E
100
AcDbEntity
  8
0
  6
CONTINUOUS
 62
     1
100
AcDbLine
 10
-99.85016000000001
 20
-49.34533
 30
0.0
 11
-35.01682999999999
 21
-49.34533
 31
0.0
  0
LINE
  5
570
330
1E
100
AcDbEntity
  8
0
  6
CONTINUOUS
 62
     1
100
AcDbLine
 10
-99.85016000000001
 20
-56.012
 30
0.0
 11
-35.01682999999999
 21
-56.012
 31
0.0
  0
LINE
  5
571
330
1E
100
AcDbEntity
  8
0
  6
CONTINUOUS
 62
     1
100
AcDbLine
 10
-99.85016000000001
 20
-62.67866
 30
0.0
 11
-35.01682999999999
 21
-62.67866
 31
0.0
  0
LINE
  5
572
330
1E
100
AcDbEntity
  8
0
  6
CONTINUOUS
 62
     1
100
AcDbLine
 10
-99.85016000000001
 20
-69.34533
 30
0.0
 11
-35.01682999999999
 21
-69.34533
 31
0.0
  0
LINE
  5
573
330
1E
100
AcDbEntity
  8
0
  6
CONTINUOUS
 62
     1
100
AcDbLine
 10
-99.85016000000001
 20
-76.012
 30
0.0
 11
-35.01682999999999
 21
-76.012
 31
0.0
  0
LINE
  5
574
330
1E
100
AcDbEntity
  8
0
  6
CONTINUOUS
 62
     1
100
AcDbLine
 10
-99.85016000000001
 20
-82.67865999999996
 30
0.0
 11
-35.01682999999999
 21
-82.67865999999996
 31
0.0
  0
LINE
  5
575
330
1E
100
AcDbEntity
  8
0
  6
CONTINUOUS
 62
     1
100
AcDbLine
 10
-99.85016000000001
 20
-89.34533
 30
0.0
 11
-35.01682999999999
 21
-89.34533
 31
0.0
  0
LINE
  5
576
330
1E
100
AcDbEntity
  8
0
  6
CONTINUOUS
 62
     1
100
AcDbLine
 10
-99.85016000000001
 20
-96.012
 30
0.0
 11
-40.70716
 21
-96.012
 31
0.0
  0
LINE
  5
577
330
1E
100
AcDbEntity
  8
0
  6
CONTINUOUS
 62
     1
100
AcDbLine
 10
-41.6835
 20
-96.98833
 30
0.0
 11
-41.6835
 21
-37.84532999999999
 31
0.0
  0
LINE
  5
578
330
1E
100
AcDbEntity
  8
0
  6
CONTINUOUS
 62
     7
100
AcDbLine
 10
-97.55663
 20
-27.67865999999999
 30
0.0
 11
-93.35886
 21
-27.67865999999999
 31
0.0
  0
LINE
  5
579
330
1E
100
AcDbEntity
  8
0
  6
CONTINUOUS
 62
     7
100
AcDbLine
 10
-93.35886
 20
-35.012
 30
0.0
 11
-93.35886
 21
-26.87865999999999
 31
0.0
  0
LINE
  5
57A
330
1E
100
AcDbEntity
  8
0
  6
CONTINUOUS
 62
     7
100
AcDbLine
 10
-97.55663
 20
-35.012
 30
0.0
 11
-97.55663
 21
-26.87865999999999
 31
0.0
  0
LINE
  5
57B
330
1E
100
AcDbEntity
  8
0
  6
CONTINUOUS
 62
     7
100
AcDbLine
 10
-94.55800000000001
 20
-27.99953
 30
0.0
 11
-93.35799999999997
 21
-27.678
 31
0.0
  0
LINE
  5
57C
330
1E
100
AcDbEntity
  8
0
  6
CONTINUOUS
 62
     7
100
AcDbLine
 10
-93.35799999999997
 20
-27.678
 30
0.0
 11
-94.55800000000001
 21
-27.35646
 31
0.0
  0
LINE
  5
57D
330
1E
100
AcDbEntity
  8
0
  6
CONTINUOUS
 62
     7
100
AcDbLine
 10
-96.356
 20
-27.35646
 30
0.0
 11
-97.55600000000001
 21
-27.678
 31
0.0
  0
LINE
  5
57E
330
1E
100
AcDbEntity
  8
0
  6
CONTINUOUS
 62
     7
100
AcDbLine
 10
-97.55600000000001
 20
-27.678
 30
0.0
 11
-96.356
 21
-27.99953
 31
0.0
  0
TEXT
  5
57F
330
1E
100
AcDbEntity
  8
0
  6
CONTINUOUS
 62
     7
100
AcDbText
 10
-99.35774999999999
 20
-27.27866
 30
0.0
 40
3.2
  1
126
 41
0.8125
  7
BIGFONT
100
AcDbText
  0
LINE
  5
580
330
1E
100
AcDbEntity
  8
0
  6
CONTINUOUS
 62
     7
100
AcDbLine
 10
-93.35886
 20
-27.67865999999999
 30
0.0
 11
-88.35615999999998
 21
-27.67865999999999
 31
0.0
  0
LINE
  5
581
330
1E
100
AcDbEntity
  8
0
  6
CONTINUOUS
 62
     7
100
AcDbLine
 10
-88.35615999999998
 20
-35.012
 30
0.0
 11
-88.35615999999998
 21
-26.87865999999999
 31
0.0
  0
LINE
  5
582
330
1E
100
AcDbEntity
  8
0
  6
CONTINUOUS
 62
     7
100
AcDbLine
 10
-89.556
 20
-27.99953
 30
0.0
 11
-88.35599999999997
 21
-27.678
 31
0.0
  0
LINE
  5
583
330
1E
100
AcDbEntity
  8
0
  6
CONTINUOUS
 62
     7
100
AcDbLine
 10
-88.35599999999997
 20
-27.678
 30
0.0
 11
-89.556
 21
-27.35646
 31
0.0
  0
LINE
  5
584
330
1E
100
AcDbEntity
  8
0
  6
CONTINUOUS
 62
     7
100
AcDbLine
 10
-92.15799999999999
 20
-27.35646
 30
0.0
 11
-93.35799999999997
 21
-27.678
 31
0.0
  0
LINE
  5
585
330
1E
100
AcDbEntity
  8
0
  6
CONTINUOUS
 62
     7
100
AcDbLine
 10
-93.35799999999997
 20
-27.678
 30
0.0
 11
-92.15799999999999
 21
-27.99953
 31
0.0
  0
LINE
  5
586
330
1E
100
AcDbEntity
  8
0
  6
CONTINUOUS
 62
     7
100
AcDbLine
 10
-93.35886
 20
-27.67865999999999
 30
0.0
 11
-94.13885999999999
 21
-27.67865999999999
 31
0.0
  0
TEXT
  5
587
330
1E
100
AcDbEntity
  8
0
  6
CONTINUOUS
 62
     7
100
AcDbText
 10
-94.13885999999999
 20
-31.27866
 30
0.0
 40
3.2
  1
150
 41
0.8125
  7
BIGFONT
100
AcDbText
  0
LINE
  5
588
330
1E
100
AcDbEntity
  8
0
  6
CONTINUOUS
 62
     7
100
AcDbLine
 10
-88.35615999999998
 20
-27.67865999999999
 30
0.0
 11
-35.02366
 21
-27.67865999999999
 31
0.0
  0
LINE
  5
589
330
1E
100
AcDbEntity
  8
0
  6
CONTINUOUS
 62
     7
100
AcDbLine
 10
-35.02366
 20
-35.012
 30
0.0
 11
-35.02366
 21
-26.87865999999999
 31
0.0
  0
LINE
  5
58A
330
1E
100
AcDbEntity
  8
0
  6
CONTINUOUS
 62
     7
100
AcDbLine
 10
-36.223
 20
-27.99953
 30
0.0
 11
-35.023
 21
-27.678
 31
0.0
  0
LINE
  5
58B
330
1E
100
AcDbEntity
  8
0
  6
CONTINUOUS
 62
     7
100
AcDbLine
 10
-35.023
 20
-27.678
 30
0.0
 11
-36.223
 21
-27.35646
 31
0.0
  0
LINE
  5
58C
330
1E
100
AcDbEntity
  8
0
  6
CONTINUOUS
 62
     7
100
AcDbLine
 10
-87.156
 20
-27.35646
 30
0.0
 11
-88.35599999999997
 21
-27.678
 31
0.0
  0
LINE
  5
58D
330
1E
100
AcDbEntity
  8
0
  6
CONTINUOUS
 62
     7
100
AcDbLine
 10
-88.35599999999997
 20
-27.678
 30
0.0
 11
-87.156
 21
-27.99953
 31
0.0
  0
LINE
  5
58E
330
1E
100
AcDbEntity
  8
0
  6
CONTINUOUS
 62
     7
100
AcDbLine
 10
-35.02366
 20
-27.67865999999999
 30
0.0
 11
-33.35015999999999
 21
-27.67865999999999
 31
0.0
  0
LINE
  5
58F
330
1E
100
AcDbEntity
  8
0
  6
CONTINUOUS
 62
     7
100
AcDbLine
 10
-33.35015999999999
 20
-31.30103
 30
0.0
 11
-33.35015999999999
 21
-26.87865999999999
 31
0.0
  0
LINE
  5
590
330
1E
100
AcDbEntity
  8
0
  6
CONTINUOUS
 62
     7
100
AcDbLine
 10
-30.95015999999999
 20
-27.67865999999999
 30
0.0
 11
-33.35015999999999
 21
-27.67865999999999
 31
0.0
  0
LINE
  5
591
330
1E
100
AcDbEntity
  8
0
  6
CONTINUOUS
 62
     7
100
AcDbLine
 10
-32.14999999999999
 20
-27.35646
 30
0.0
 11
-33.35
 21
-27.678
 31
0.0
  0
LINE
  5
592
330
1E
100
AcDbEntity
  8
0
  6
CONTINUOUS
 62
     7
100
AcDbLine
 10
-33.35
 20
-27.678
 30
0.0
 11
-32.14999999999999
 21
-27.99953
 31
0.0
  0
LINE
  5
593
330
1E
100
AcDbEntity
  8
0
  6
CONTINUOUS
 62
     7
100
AcDbLine
 10
-35.02366
 20
-27.67865999999999
 30
0.0
 11
-37.42366
 21
-27.67865999999999
 31
0.0
  0
LINE
  5
594
330
1E
100
AcDbEntity
  8
0
  6
CONTINUOUS
 62
     7
100
AcDbLine
 10
-36.223
 20
-27.99953
 30
0.0
 11
-35.023
 21
-27.678
 31
0.0
  0
LINE
  5
595
330
1E
100
AcDbEntity
  8
0
  6
CONTINUOUS
 62
     7
100
AcDbLine
 10
-35.023
 20
-27.678
 30
0.0
 11
-36.223
 21
-27.35646
 31
0.0
  0
LINE
  5
596
330
1E
100
AcDbEntity
  8
0
  6
CONTINUOUS
 62
     7
100
AcDbLine
 10
-30.95015999999999
 20
-27.67865999999999
 30
0.0
 11
-26.59015999999999
 21
-27.67865999999999
 31
0.0
  0
TEXT
  5
597
330
1E
100
AcDbEntity
  8
0
  6
CONTINUOUS
 62
     7
100
AcDbText
 10
-31.79015999999998
 20
-27.27866
 30
0.0
 40
3.2
  1
50
 41
0.8125
  7
BIGFONT
100
AcDbText
  0
LINE
  5
598
330
1E
100
AcDbEntity
  8
0
  6
CONTINUOUS
 62
     7
100
AcDbLine
 10
-71.6835
 20
-96.012
 30
0.0
 11
-71.6835
 21
-89.34533
 31
0.0
  0
LINE
  5
599
330
1E
100
AcDbEntity
  8
0
  6
CONTINUOUS
 62
     7
100
AcDbLine
 10
-71.36146
 20
-90.545
 30
0.0
 11
-71.68300000000002
 21
-89.34499999999998
 31
0.0
  0
LINE
  5
59A
330
1E
100
AcDbEntity
  8
0
  6
CONTINUOUS
 62
     7
100
AcDbLine
 10
-71.68300000000002
 20
-89.34499999999998
 30
0.0
 11
-72.00453
 21
-90.545
 31
0.0
  0
LINE
  5
59B
330
1E
100
AcDbEntity
  8
0
  6
CONTINUOUS
 62
     7
100
AcDbLine
 10
-71.6835
 20
-89.34533
 30
0.0
 11
-71.6835
 21
-82.67865999999996
 31
0.0
  0
LINE
  5
59C
330
1E
100
AcDbEntity
  8
0
  6
CONTINUOUS
 62
     7
100
AcDbLine
 10
-71.36146
 20
-83.87799999999998
 30
0.0
 11
-71.68300000000002
 21
-82.67799999999999
 31
0.0
  0
LINE
  5
59D
330
1E
100
AcDbEntity
  8
0
  6
CONTINUOUS
 62
     7
100
AcDbLine
 10
-71.68300000000002
 20
-82.67799999999999
 30
0.0
 11
-72.00453
 21
-83.87799999999998
 31
0.0
  0
LINE
  5
59E
330
1E
100
AcDbEntity
  8
0
  6
CONTINUOUS
 62
     7
100
AcDbLine
 10
-71.6835
 20
-82.67865999999996
 30
0.0
 11
-71.6835
 21
-76.012
 31
0.0
  0
LINE
  5
59F
330
1E
100
AcDbEntity
  8
0
  6
CONTINUOUS
 62
     7
100
AcDbLine
 10
-71.36146
 20
-77.212
 30
0.0
 11
-71.68300000000002
 21
-76.012
 31
0.0
  0
LINE
  5
5A0
330
1E
100
AcDbEntity
  8
0
  6
CONTINUOUS
 62
     7
100
AcDbLine
 10
-71.68300000000002
 20
-76.012
 30
0.0
 11
-72.00453
 21
-77.212
 31
0.0
  0
LINE
  5
5A1
330
1E
100
AcDbEntity
  8
0
  6
CONTINUOUS
 62
     7
100
AcDbLine
 10
-71.6835
 20
-76.012
 30
0.0
 11
-71.6835
 21
-69.34533
 31
0.0
  0
LINE
  5
5A2
330
1E
100
AcDbEntity
  8
0
  6
CONTINUOUS
 62
     7
100
AcDbLine
 10
-71.36146
 20
-70.545
 30
0.0
 11
-71.68300000000002
 21
-69.34499999999998
 31
0.0
  0
LINE
  5
5A3
330
1E
100
AcDbEntity
  8
0
  6
CONTINUOUS
 62
     7
100
AcDbLine
 10
-71.68300000000002
 20
-69.34499999999998
 30
0.0
 11
-72.00453
 21
-70.545
 31
0.0
  0
LINE
  5
5A4
330
1E
100
AcDbEntity
  8
0
  6
CONTINUOUS
 62
     7
100
AcDbLine
 10
-71.6835
 20
-69.34533
 30
0.0
 11
-71.6835
 21
-62.67866
 31
0.0
  0
LINE
  5
5A5
330
1E
100
AcDbEntity
  8
0
  6
CONTINUOUS
 62
     7
100
AcDbLine
 10
-71.36146
 20
-63.878
 30
0.0
 11
-71.68300000000002
 21
-62.67800000000001
 31
0.0
  0
LINE
  5
5A6
330
1E
100
AcDbEntity
  8
0
  6
CONTINUOUS
 62
     7
100
AcDbLine
 10
-71.68300000000002
 20
-62.67800000000001
 30
0.0
 11
-72.00453
 21
-63.878
 31
0.0
  0
LINE
  5
5A7
330
1E
100
AcDbEntity
  8
0
  6
CONTINUOUS
 62
     7
100
AcDbLine
 10
-71.6835
 20
-62.67866
 30
0.0
 11
-71.6835
 21
-56.012
 31
0.0
  0
LINE
  5
5A8
330
1E
100
AcDbEntity
  8
0
  6
CONTINUOUS
 62
     7
100
AcDbLine
 10
-71.36146
 20
-57.21199999999999
 30
0.0
 11
-71.68300000000002
 21
-56.012
 31
0.0
  0
LINE
  5
5A9
330
1E
100
AcDbEntity
  8
0
  6
CONTINUOUS
 62
     7
100
AcDbLine
 10
-71.68300000000002
 20
-56.012
 30
0.0
 11
-72.00453
 21
-57.21199999999999
 31
0.0
  0
LINE
  5
5AA
330
1E
100
AcDbEntity
  8
0
  6
CONTINUOUS
 62
     7
100
AcDbLine
 10
-71.6835
 20
-56.012
 30
0.0
 11
-71.6835
 21
-49.34533
 31
0.0
  0
LINE
  5
5AB
330
1E
100
AcDbEntity
  8
0
  6
CONTINUOUS
 62
     7
100
AcDbLine
 10
-71.36146
 20
-50.545
 30
0.0
 11
-71.68300000000002
 21
-49.34499999999999
 31
0.0
  0
LINE
  5
5AC
330
1E
100
AcDbEntity
  8
0
  6
CONTINUOUS
 62
     7
100
AcDbLine
 10
-71.68300000000002
 20
-49.34499999999999
 30
0.0
 11
-72.00453
 21
-50.545
 31
0.0
  0
LINE
  5
5AD
330
1E
100
AcDbEntity
  8
0
  6
CONTINUOUS
 62
     7
100
AcDbLine
 10
-71.6835
 20
-44.34533
 30
0.0
 11
-71.6835
 21
-40.14533
 31
0.0
  0
LINE
  5
5AE
330
1E
100
AcDbEntity
  8
0
  6
CONTINUOUS
 62
     7
100
AcDbLine
 10
-71.36146
 20
-41.345
 30
0.0
 11
-71.68300000000002
 21
-40.145
 31
0.0
  0
LINE
  5
5AF
330
1E
100
AcDbEntity
  8
0
  6
CONTINUOUS
 62
     7
100
AcDbLine
 10
-71.68300000000002
 20
-40.145
 30
0.0
 11
-72.00453
 21
-41.345
 31
0.0
  0
LINE
  5
5B0
330
1E
100
AcDbEntity
  8
0
  6
CONTINUOUS
 62
     7
100
AcDbLine
 10
-71.6835
 20
-49.3468
 30
0.0
 11
-71.6835
 21
-44.34533
 31
0.0
  0
LINE
  5
5B1
330
1E
100
AcDbEntity
  8
0
  6
CONTINUOUS
 62
     7
100
AcDbLine
 10
-71.36146
 20
-45.54499999999999
 30
0.0
 11
-71.68300000000002
 21
-44.34499999999998
 31
0.0
  0
LINE
  5
5B2
330
1E
100
AcDbEntity
  8
0
  6
CONTINUOUS
 62
     7
100
AcDbLine
 10
-71.68300000000002
 20
-44.34499999999998
 30
0.0
 11
-72.00453
 21
-45.54499999999999
 31
0.0
  0
LINE
  5
5B3
330
1E
100
AcDbEntity
  8
0
  6
CONTINUOUS
 62
     1
100
AcDbLine
 10
-170.9439299999999
 20
49.17445999999999
 30
0.0
 11
-170.9439299999999
 21
97.67180000000001
 31
0.0
  0
LINE
  5
5B4
330
1E
100
AcDbEntity
  8
0
  6
CONTINUOUS
 62
     7
100
AcDbLine
 10
-170.9439299999999
 20
88.50796
 30
0.0
 11
-175.95796
 21
88.50796
 31
0.0
  0
LINE
  5
5B5
330
1E
100
AcDbEntity
  8
0
  6
CONTINUOUS
 62
     7
100
AcDbLine
 10
-174.757
 20
88.82853
 30
0.0
 11
-175.957
 21
88.50700000000001
 31
0.0
  0
LINE
  5
5B6
330
1E
100
AcDbEntity
  8
0
  6
CONTINUOUS
 62
     7
100
AcDbLine
 10
-175.957
 20
88.50700000000001
 30
0.0
 11
-174.757
 21
88.18545999999995
 31
0.0
  0
LINE
  5
5B7
330
1E
100
AcDbEntity
  8
0
  6
CONTINUOUS
 62
     7
100
AcDbLine
 10
-166.77726
 20
88.50796
 30
0.0
 11
-170.94406
 21
88.50796
 31
0.0
  0
LINE
  5
5B8
330
1E
100
AcDbEntity
  8
0
  6
CONTINUOUS
 62
     7
100
AcDbLine
 10
-169.744
 20
88.82853
 30
0.0
 11
-170.9439999999998
 21
88.50700000000001
 31
0.0
  0
LINE
  5
5B9
330
1E
100
AcDbEntity
  8
0
  6
CONTINUOUS
 62
     7
100
AcDbLine
 10
-170.9439999999998
 20
88.50700000000001
 30
0.0
 11
-169.744
 21
88.18545999999995
 31
0.0
  0
LINE
  5
5BA
330
1E
100
AcDbEntity
  8
0
  6
CONTINUOUS
 62
     7
100
AcDbLine
 10
-152.59426
 20
88.50796
 30
0.0
 11
-166.7799999999999
 21
88.50796
 31
0.0
  0
LINE
  5
5BB
330
1E
100
AcDbEntity
  8
0
  6
CONTINUOUS
 62
     7
100
AcDbLine
 10
-165.58
 20
88.82853
 30
0.0
 11
-166.7799999999999
 21
88.50700000000001
 31
0.0
  0
LINE
  5
5BC
330
1E
100
AcDbEntity
  8
0
  6
CONTINUOUS
 62
     7
100
AcDbLine
 10
-166.7799999999999
 20
88.50700000000001
 30
0.0
 11
-165.58
 21
88.18545999999995
 31
0.0
  0
LINE
  5
5BD
330
1E
100
AcDbEntity
  8
0
  6
CONTINUOUS
 62
     1
100
AcDbLine
 10
-166.67726
 20
49.17445999999999
 30
0.0
 11
-166.67726
 21
97.67180000000001
 31
0.0
  0
LINE
  5
5BE
330
1E
100
AcDbEntity
  8
0
  6
CONTINUOUS
 62
     7
100
AcDbLine
 10
-175.98963
 20
30.17463
 30
0.0
 11
-170.9496
 21
30.17463
 31
0.0
  0
LINE
  5
5BF
330
1E
100
AcDbEntity
  8
0
  6
CONTINUOUS
 62
     7
100
AcDbLine
 10
-170.9496
 20
46.6718
 30
0.0
 11
-170.9496
 21
29.37463
 31
0.0
  0
LINE
  5
5C0
330
1E
100
AcDbEntity
  8
0
  6
CONTINUOUS
 62
     7
100
AcDbLine
 10
-175.98963
 20
34.38302999999999
 30
0.0
 11
-175.98963
 21
29.37463
 31
0.0
  0
LINE
  5
5C1
330
1E
100
AcDbEntity
  8
0
  6
CONTINUOUS
 62
     7
100
AcDbLine
 10
-172.149
 20
29.85246
 30
0.0
 11
-170.949
 21
30.174
 31
0.0
  0
LINE
  5
5C2
330
1E
100
AcDbEntity
  8
0
  6
CONTINUOUS
 62
     7
100
AcDbLine
 10
-170.949
 20
30.174
 30
0.0
 11
-172.149
 21
30.49552999999999
 31
0.0
  0
LINE
  5
5C3
330
1E
100
AcDbEntity
  8
0
  6
CONTINUOUS
 62
     7
100
AcDbLine
 10
-174.7889999999999
 20
30.49552999999999
 30
0.0
 11
-175.989
 21
30.174
 31
0.0
  0
LINE
  5
5C4
330
1E
100
AcDbEntity
  8
0
  6
CONTINUOUS
 62
     7
100
AcDbLine
 10
-175.989
 20
30.174
 30
0.0
 11
-174.7889999999999
 21
29.85246
 31
0.0
  0
TEXT
  5
5C5
330
1E
100
AcDbEntity
  8
0
  6
CONTINUOUS
 62
     7
100
AcDbText
 10
-177.10961
 20
30.57463
 30
0.0
 40
3.2
  1
150
 41
0.8125
  7
BIGFONT
100
AcDbText
  0
LINE
  5
5C6
330
1E
100
AcDbEntity
  8
0
  6
CONTINUOUS
 62
     7
100
AcDbLine
 10
-170.9496
 20
30.17463
 30
0.0
 11
-166.6853999999998
 21
30.17463
 31
0.0
  0
LINE
  5
5C7
330
1E
100
AcDbEntity
  8
0
  6
CONTINUOUS
 62
     7
100
AcDbLine
 10
-166.6853999999998
 20
46.6718
 30
0.0
 11
-166.6853999999998
 21
29.37463
 31
0.0
  0
LINE
  5
5C8
330
1E
100
AcDbEntity
  8
0
  6
CONTINUOUS
 62
     7
100
AcDbLine
 10
-167.8849999999999
 20
29.85246
 30
0.0
 11
-166.685
 21
30.174
 31
0.0
  0
LINE
  5
5C9
330
1E
100
AcDbEntity
  8
0
  6
CONTINUOUS
 62
     7
100
AcDbLine
 10
-166.685
 20
30.174
 30
0.0
 11
-167.8849999999999
 21
30.49552999999999
 31
0.0
  0
LINE
  5
5CA
330
1E
100
AcDbEntity
  8
0
  6
CONTINUOUS
 62
     7
100
AcDbLine
 10
-169.7489999999999
 20
30.49552999999999
 30
0.0
 11
-170.949
 21
30.174
 31
0.0
  0
LINE
  5
5CB
330
1E
100
AcDbEntity
  8
0
  6
CONTINUOUS
 62
     7
100
AcDbLine
 10
-170.949
 20
30.174
 30
0.0
 11
-169.7489999999999
 21
29.85246
 31
0.0
  0
TEXT
  5
5CC
330
1E
100
AcDbEntity
  8
0
  6
CONTINUOUS
 62
     7
100
AcDbText
 10
-172.7175
 20
26.57462999999999
 30
0.0
 40
3.2
  1
128
 41
0.8125
  7
BIGFONT
100
AcDbText
  0
LINE
  5
5CD
330
1E
100
AcDbEntity
  8
0
  6
CONTINUOUS
 62
     1
100
AcDbLine
 10
-41.6701
 20
49.17163
 30
0.0
 11
-41.6701
 21
129.3386299999999
 31
0.0
  0
LINE
  5
5CE
330
1E
100
AcDbEntity
  8
0
  6
CONTINUOUS
 62
     7
100
AcDbLine
 10
-41.6701
 20
95.17462999999999
 30
0.0
 11
-46.6701
 21
95.17462999999999
 31
0.0
  0
LINE
  5
5CF
330
1E
100
AcDbEntity
  8
0
  6
CONTINUOUS
 62
     7
100
AcDbLine
 10
-45.46999999999999
 20
95.49553000000001
 30
0.0
 11
-46.67
 21
95.174
 31
0.0
  0
LINE
  5
5D0
330
1E
100
AcDbEntity
  8
0
  6
CONTINUOUS
 62
     7
100
AcDbLine
 10
-46.67
 20
95.174
 30
0.0
 11
-45.46999999999999
 21
94.85246
 31
0.0
  0
LINE
  5
5D1
330
1E
100
AcDbEntity
  8
0
  6
CONTINUOUS
 62
     7
100
AcDbLine
 10
-37.46873
 20
95.17462999999999
 30
0.0
 11
-41.6701
 21
95.17462999999999
 31
0.0
  0
LINE
  5
5D2
330
1E
100
AcDbEntity
  8
0
  6
CONTINUOUS
 62
     7
100
AcDbLine
 10
-40.46999999999999
 20
95.49553000000001
 30
0.0
 11
-41.67
 21
95.174
 31
0.0
  0
LINE
  5
5D3
330
1E
100
AcDbEntity
  8
0
  6
CONTINUOUS
 62
     7
100
AcDbLine
 10
-41.67
 20
95.174
 30
0.0
 11
-40.46999999999999
 21
94.85246
 31
0.0
  0
LINE
  5
5D4
330
1E
100
AcDbEntity
  8
0
  6
CONTINUOUS
 62
     1
100
AcDbLine
 10
-100.0049
 20
51.2053
 30
0.0
 11
-37.4701
 21
51.2053
 31
0.0
  0
LINE
  5
5D5
330
1E
100
AcDbEntity
  8
0
  6
CONTINUOUS
 62
     1
100
AcDbLine
 10
-100.0049
 20
57.87195999999998
 30
0.0
 11
-37.4701
 21
57.87195999999998
 31
0.0
  0
LINE
  5
5D6
330
1E
100
AcDbEntity
  8
0
  6
CONTINUOUS
 62
     1
100
AcDbLine
 10
-100.0049
 20
64.53863
 30
0.0
 11
-37.4701
 21
64.53863
 31
0.0
  0
LINE
  5
5D7
330
1E
100
AcDbEntity
  8
0
  6
CONTINUOUS
 62
     1
100
AcDbLine
 10
-100.0049
 20
71.20529999999998
 30
0.0
 11
-37.4701
 21
71.20529999999998
 31
0.0
  0
LINE
  5
5D8
330
1E
100
AcDbEntity
  8
0
  6
CONTINUOUS
 62
     1
100
AcDbLine
 10
-100.0049
 20
77.87196
 30
0.0
 11
-37.4701
 21
77.87196
 31
0.0
  0
LINE
  5
5D9
330
1E
100
AcDbEntity
  8
0
  6
CONTINUOUS
 62
     1
100
AcDbLine
 10
-100.0049
 20
84.53863
 30
0.0
 11
-37.4701
 21
84.53863
 31
0.0
  0
LINE
  5
5DA
330
1E
100
AcDbEntity
  8
0
  6
CONTINUOUS
 62
     1
100
AcDbLine
 10
-100.0049
 20
91.2053
 30
0.0
 11
-37.4701
 21
91.2053
 31
0.0
  0
LINE
  5
5DB
330
1E
100
AcDbEntity
  8
0
  6
CONTINUOUS
 62
     1
100
AcDbLine
 10
-100.0049
 20
97.87196000000001
 30
0.0
 11
-37.4701
 21
97.87196000000001
 31
0.0
  0
LINE
  5
5DC
330
1E
100
AcDbEntity
  8
0
  6
CONTINUOUS
 62
     1
100
AcDbLine
 10
-100.0049
 20
104.53863
 30
0.0
 11
-37.4701
 21
104.53863
 31
0.0
  0
LINE
  5
5DD
330
1E
100
AcDbEntity
  8
0
  6
CONTINUOUS
 62
     1
100
AcDbLine
 10
-100.0049
 20
111.2052999999999
 30
0.0
 11
-37.4701
 21
111.2052999999999
 31
0.0
  0
LINE
  5
5DE
330
1E
100
AcDbEntity
  8
0
  6
CONTINUOUS
 62
     1
100
AcDbLine
 10
-100.0049
 20
117.87196
 30
0.0
 11
-37.4701
 21
117.87196
 31
0.0
  0
LINE
  5
5DF
330
1E
100
AcDbEntity
  8
0
  6
CONTINUOUS
 62
     1
100
AcDbLine
 10
-100.0049
 20
124.53863
 30
0.0
 11
-37.4701
 21
124.53863
 31
0.0
  0
LINE
  5
5E0
330
1E
100
AcDbEntity
  8
0
  6
CONTINUOUS
 62
     7
100
AcDbLine
 10
-101.67743
 20
30.17463
 30
0.0
 11
-100.01936
 21
30.17463
 31
0.0
  0
LINE
  5
5E1
330
1E
100
AcDbEntity
  8
0
  6
CONTINUOUS
 62
     7
100
AcDbLine
 10
-100.01936
 20
46.6718
 30
0.0
 11
-100.01936
 21
29.37463
 31
0.0
  0
LINE
  5
5E2
330
1E
100
AcDbEntity
  8
0
  6
CONTINUOUS
 62
     7
100
AcDbLine
 10
-101.67743
 20
35.76102999999999
 30
0.0
 11
-101.67743
 21
29.37463
 31
0.0
  0
LINE
  5
5E3
330
1E
100
AcDbEntity
  8
0
  6
CONTINUOUS
 62
     7
100
AcDbLine
 10
-97.61936
 20
30.17463
 30
0.0
 11
-100.01936
 21
30.17463
 31
0.0
  0
LINE
  5
5E4
330
1E
100
AcDbEntity
  8
0
  6
CONTINUOUS
 62
     7
100
AcDbLine
 10
-98.81900000000001
 20
30.49552999999999
 30
0.0
 11
-100.0189999999999
 21
30.174
 31
0.0
  0
LINE
  5
5E5
330
1E
100
AcDbEntity
  8
0
  6
CONTINUOUS
 62
     7
100
AcDbLine
 10
-100.0189999999999
 20
30.174
 30
0.0
 11
-98.81900000000001
 21
29.85246
 31
0.0
  0
LINE
  5
5E6
330
1E
100
AcDbEntity
  8
0
  6
CONTINUOUS
 62
     7
100
AcDbLine
 10
-101.67743
 20
30.17463
 30
0.0
 11
-104.07743
 21
30.17463
 31
0.0
  0
LINE
  5
5E7
330
1E
100
AcDbEntity
  8
0
  6
CONTINUOUS
 62
     7
100
AcDbLine
 10
-102.8769999999999
 20
29.85246
 30
0.0
 11
-101.677
 21
30.174
 31
0.0
  0
LINE
  5
5E8
330
1E
100
AcDbEntity
  8
0
  6
CONTINUOUS
 62
     7
100
AcDbLine
 10
-101.677
 20
30.174
 30
0.0
 11
-102.8769999999999
 21
30.49552999999999
 31
0.0
  0
LINE
  5
5E9
330
1E
100
AcDbEntity
  8
0
  6
CONTINUOUS
 62
     7
100
AcDbLine
 10
-104.07743
 20
30.17463
 30
0.0
 11
-109.47743
 21
30.17463
 31
0.0
  0
TEXT
  5
5EA
330
1E
100
AcDbEntity
  8
0
  6
CONTINUOUS
 62
     7
100
AcDbText
 10
-109.47743
 20
30.57463
 30
0.0
 40
3.2
  1
50
 41
0.8125
  7
BIGFONT
100
AcDbText
  0
LINE
  5
5EB
330
1E
100
AcDbEntity
  8
0
  6
CONTINUOUS
 62
     7
100
AcDbLine
 10
-100.01936
 20
30.17463
 30
0.0
 11
-46.7239
 21
30.17463
 31
0.0
  0
LINE
  5
5EC
330
1E
100
AcDbEntity
  8
0
  6
CONTINUOUS
 62
     7
100
AcDbLine
 10
-46.7239
 20
46.6718
 30
0.0
 11
-46.7239
 21
29.37463
 31
0.0
  0
LINE
  5
5ED
330
1E
100
AcDbEntity
  8
0
  6
CONTINUOUS
 62
     7
100
AcDbLine
 10
-47.923
 20
29.85246
 30
0.0
 11
-46.72299999999999
 21
30.174
 31
0.0
  0
LINE
  5
5EE
330
1E
100
AcDbEntity
  8
0
  6
CONTINUOUS
 62
     7
100
AcDbLine
 10
-46.72299999999999
 20
30.174
 30
0.0
 11
-47.923
 21
30.49552999999999
 31
0.0
  0
LINE
  5
5EF
330
1E
100
AcDbEntity
  8
0
  6
CONTINUOUS
 62
     7
100
AcDbLine
 10
-98.81900000000001
 20
30.49552999999999
 30
0.0
 11
-100.0189999999999
 21
30.174
 31
0.0
  0
LINE
  5
5F0
330
1E
100
AcDbEntity
  8
0
  6
CONTINUOUS
 62
     7
100
AcDbLine
 10
-100.0189999999999
 20
30.174
 30
0.0
 11
-98.81900000000001
 21
29.85246
 31
0.0
  0
TEXT
  5
5F1
330
1E
100
AcDbEntity
  8
0
  6
CONTINUOUS
 62
     7
100
AcDbText
 10
-86.73393
 20
30.70923
 30
0.0
 40
3.2
  1
8×200=1600
  7
BIGFONT
100
AcDbText
  0
LINE
  5
5F2
330
1E
100
AcDbEntity
  8
0
  6
CONTINUOUS
 62
     7
100
AcDbLine
 10
-46.7239
 20
30.17463
 30
0.0
 11
-41.68385999999999
 21
30.17463
 31
0.0
  0
LINE
  5
5F3
330
1E
100
AcDbEntity
  8
0
  6
CONTINUOUS
 62
     7
100
AcDbLine
 10
-41.68385999999999
 20
46.6718
 30
0.0
 11
-41.68385999999999
 21
29.37463
 31
0.0
  0
LINE
  5
5F4
330
1E
100
AcDbEntity
  8
0
  6
CONTINUOUS
 62
     7
100
AcDbLine
 10
-46.7239
 20
34.38302999999999
 30
0.0
 11
-46.7239
 21
29.37463
 31
0.0
  0
LINE
  5
5F5
330
1E
100
AcDbEntity
  8
0
  6
CONTINUOUS
 62
     7
100
AcDbLine
 10
-42.883
 20
29.85246
 30
0.0
 11
-41.683
 21
30.174
 31
0.0
  0
LINE
  5
5F6
330
1E
100
AcDbEntity
  8
0
  6
CONTINUOUS
 62
     7
100
AcDbLine
 10
-41.683
 20
30.174
 30
0.0
 11
-42.883
 21
30.49552999999999
 31
0.0
  0
LINE
  5
5F7
330
1E
100
AcDbEntity
  8
0
  6
CONTINUOUS
 62
     7
100
AcDbLine
 10
-45.523
 20
30.49552999999999
 30
0.0
 11
-46.72299999999999
 21
30.174
 31
0.0
  0
LINE
  5
5F8
330
1E
100
AcDbEntity
  8
0
  6
CONTINUOUS
 62
     7
100
AcDbLine
 10
-46.72299999999999
 20
30.174
 30
0.0
 11
-45.523
 21
29.85246
 31
0.0
  0
TEXT
  5
5F9
330
1E
100
AcDbEntity
  8
0
  6
CONTINUOUS
 62
     7
100
AcDbText
 10
-47.84387999999998
 20
30.57463
 30
0.0
 40
3.2
  1
150
 41
0.8125
  7
BIGFONT
100
AcDbText
  0
LINE
  5
5FA
330
1E
100
AcDbEntity
  8
0
  6
CONTINUOUS
 62
     7
100
AcDbLine
 10
-41.68385999999999
 20
30.17463
 30
0.0
 11
-37.41966
 21
30.17463
 31
0.0
  0
LINE
  5
5FB
330
1E
100
AcDbEntity
  8
0
  6
CONTINUOUS
 62
     7
100
AcDbLine
 10
-37.41966
 20
46.6718
 30
0.0
 11
-37.41966
 21
29.37463
 31
0.0
  0
LINE
  5
5FC
330
1E
100
AcDbEntity
  8
0
  6
CONTINUOUS
 62
     7
100
AcDbLine
 10
-38.619
 20
29.85246
 30
0.0
 11
-37.41899999999999
 21
30.174
 31
0.0
  0
LINE
  5
5FD
330
1E
100
AcDbEntity
  8
0
  6
CONTINUOUS
 62
     7
100
AcDbLine
 10
-37.41899999999999
 20
30.174
 30
0.0
 11
-38.619
 21
30.49552999999999
 31
0.0
  0
LINE
  5
5FE
330
1E
100
AcDbEntity
  8
0
  6
CONTINUOUS
 62
     7
100
AcDbLine
 10
-40.483
 20
30.49552999999999
 30
0.0
 11
-41.683
 21
30.174
 31
0.0
  0
LINE
  5
5FF
330
1E
100
AcDbEntity
  8
0
  6
CONTINUOUS
 62
     7
100
AcDbLine
 10
-41.683
 20
30.174
 30
0.0
 11
-40.483
 21
29.85246
 31
0.0
  0
TEXT
  5
600
330
1E
100
AcDbEntity
  8
0
  6
CONTINUOUS
 62
     7
100
AcDbText
 10
-43.45176
 20
26.57462999999999
 30
0.0
 40
3.2
  1
128
 41
0.8125
  7
BIGFONT
100
AcDbText
  0
CIRCLE
  5
601
330
1E
100
AcDbEntity
  8
0
  6
CONTINUOUS
 62
     7
100
AcDbCircle
 10
-96.54845999999999
 20
40.14933
 30
0.0
 40
2.5
  0
TEXT
  5
602
330
1E
100
AcDbEntity
  8
0
  6
CONTINUOUS
 62
     7
100
AcDbText
 10
-98.14753000000001
 20
38.32595999999997
 30
0.0
 40
3.2
  1
２
  7
BIGFONT
100
AcDbText
  0
LINE
  5
603
330
1E
100
AcDbEntity
  8
0
  6
CONTINUOUS
 62
     7
100
AcDbLine
 10
-99.28913000000001
 20
37.67463
 30
0.0
 11
-83.28913
 21
37.67463
 31
0.0
  0
TEXT
  5
604
330
1E
100
AcDbEntity
  8
0
  6
CONTINUOUS
 62
     7
100
AcDbText
 10
-92.59036
 20
38.39396
 30
0.0
 40
3.2
  1
D16
  7
BIGFONT
100
AcDbText
  0
CIRCLE
  5
605
330
1E
100
AcDbEntity
  8
0
  6
CONTINUOUS
 62
     7
100
AcDbCircle
 10
-66.61166
 20
40.16166
 30
0.0
 40
2.5
  0
TEXT
  5
606
330
1E
100
AcDbEntity
  8
0
  6
CONTINUOUS
 62
     7
100
AcDbText
 10
-68.1716
 20
38.3293
 30
0.0
 40
3.2
  1
３
  7
BIGFONT
100
AcDbText
  0
LINE
  5
607
330
1E
100
AcDbEntity
  8
0
  6
CONTINUOUS
 62
     7
100
AcDbLine
 10
-69.9987
 20
37.67463
 30
0.0
 11
-53.99869999999999
 21
37.67463
 31
0.0
  0
TEXT
  5
608
330
1E
100
AcDbEntity
  8
0
  6
CONTINUOUS
 62
     7
100
AcDbText
 10
-62.6895
 20
38.41633
 30
0.0
 40
3.2
  1
D10
  7
BIGFONT
100
AcDbText
  0
LINE
  5
609
330
1E
100
AcDbEntity
  8
0
  6
CONTINUOUS
 62
     7
100
AcDbLine
 10
-83.28913
 20
37.67463
 30
0.0
 11
-83.28913
 21
51.2053
 31
0.0
  0
LINE
  5
60A
330
1E
100
AcDbEntity
  8
0
  6
CONTINUOUS
 62
     7
100
AcDbLine
 10
-82.96746
 20
50.005
 30
0.0
 11
-83.289
 21
51.20499999999999
 31
0.0
  0
LINE
  5
60B
330
1E
100
AcDbEntity
  8
0
  6
CONTINUOUS
 62
     7
100
AcDbLine
 10
-83.289
 20
51.20499999999999
 30
0.0
 11
-83.61053000000003
 21
50.005
 31
0.0
  0
LINE
  5
60C
330
1E
100
AcDbEntity
  8
0
  6
CONTINUOUS
 62
     7
100
AcDbLine
 10
-69.9987
 20
37.67463
 30
0.0
 11
-69.9987
 21
49.5053
 31
0.0
  0
LINE
  5
60D
330
1E
100
AcDbEntity
  8
0
  6
CONTINUOUS
 62
     7
100
AcDbLine
 10
-69.67645999999999
 20
48.305
 30
0.0
 11
-69.998
 21
49.505
 31
0.0
  0
LINE
  5
60E
330
1E
100
AcDbEntity
  8
0
  6
CONTINUOUS
 62
     7
100
AcDbLine
 10
-69.998
 20
49.505
 30
0.0
 11
-70.31953
 21
48.305
 31
0.0
  0
LINE
  5
60F
330
1E
100
AcDbEntity
  8
0
  6
CONTINUOUS
 62
     7
100
AcDbLine
 10
-69.9987
 20
64.53863
 30
0.0
 11
-69.9987
 21
57.87195999999998
 31
0.0
  0
LINE
  5
610
330
1E
100
AcDbEntity
  8
0
  6
CONTINUOUS
 62
     7
100
AcDbLine
 10
-70.31953
 20
59.07099999999999
 30
0.0
 11
-69.998
 21
57.871
 31
0.0
  0
LINE
  5
611
330
1E
100
AcDbEntity
  8
0
  6
CONTINUOUS
 62
     7
100
AcDbLine
 10
-69.998
 20
57.871
 30
0.0
 11
-69.67645999999999
 21
59.07099999999999
 31
0.0
  0
LINE
  5
612
330
1E
100
AcDbEntity
  8
0
  6
CONTINUOUS
 62
     7
100
AcDbLine
 10
-69.9987
 20
71.20529999999998
 30
0.0
 11
-69.9987
 21
64.53863
 31
0.0
  0
LINE
  5
613
330
1E
100
AcDbEntity
  8
0
  6
CONTINUOUS
 62
     7
100
AcDbLine
 10
-70.31953
 20
65.738
 30
0.0
 11
-69.998
 21
64.538
 31
0.0
  0
LINE
  5
614
330
1E
100
AcDbEntity
  8
0
  6
CONTINUOUS
 62
     7
100
AcDbLine
 10
-69.998
 20
64.538
 30
0.0
 11
-69.67645999999999
 21
65.738
 31
0.0
  0
LINE
  5
615
330
1E
100
AcDbEntity
  8
0
  6
CONTINUOUS
 62
     7
100
AcDbLine
 10
-69.9987
 20
77.87196
 30
0.0
 11
-69.9987
 21
71.20529999999998
 31
0.0
  0
LINE
  5
616
330
1E
100
AcDbEntity
  8
0
  6
CONTINUOUS
 62
     7
100
AcDbLine
 10
-70.31953
 20
72.405
 30
0.0
 11
-69.998
 21
71.20499999999998
 31
0.0
  0
LINE
  5
617
330
1E
100
AcDbEntity
  8
0
  6
CONTINUOUS
 62
     7
100
AcDbLine
 10
-69.998
 20
71.20499999999998
 30
0.0
 11
-69.67645999999999
 21
72.405
 31
0.0
  0
LINE
  5
618
330
1E
100
AcDbEntity
  8
0
  6
CONTINUOUS
 62
     7
100
AcDbLine
 10
-69.9987
 20
84.53863
 30
0.0
 11
-69.9987
 21
77.87196
 31
0.0
  0
LINE
  5
619
330
1E
100
AcDbEntity
  8
0
  6
CONTINUOUS
 62
     7
100
AcDbLine
 10
-70.31953
 20
79.07099999999998
 30
0.0
 11
-69.998
 21
77.87099999999998
 31
0.0
  0
LINE
  5
61A
330
1E
100
AcDbEntity
  8
0
  6
CONTINUOUS
 62
     7
100
AcDbLine
 10
-69.998
 20
77.87099999999998
 30
0.0
 11
-69.67645999999999
 21
79.07099999999998
 31
0.0
  0
LINE
  5
61B
330
1E
100
AcDbEntity
  8
0
  6
CONTINUOUS
 62
     7
100
AcDbLine
 10
-69.9987
 20
91.2053
 30
0.0
 11
-69.9987
 21
84.53863
 31
0.0
  0
LINE
  5
61C
330
1E
100
AcDbEntity
  8
0
  6
CONTINUOUS
 62
     7
100
AcDbLine
 10
-70.31953
 20
85.738
 30
0.0
 11
-69.998
 21
84.53799999999999
 31
0.0
  0
LINE
  5
61D
330
1E
100
AcDbEntity
  8
0
  6
CONTINUOUS
 62
     7
100
AcDbLine
 10
-69.998
 20
84.53799999999999
 30
0.0
 11
-69.67645999999999
 21
85.738
 31
0.0
  0
LINE
  5
61E
330
1E
100
AcDbEntity
  8
0
  6
CONTINUOUS
 62
     7
100
AcDbLine
 10
-69.9987
 20
97.87196000000001
 30
0.0
 11
-69.9987
 21
91.2053
 31
0.0
  0
LINE
  5
61F
330
1E
100
AcDbEntity
  8
0
  6
CONTINUOUS
 62
     7
100
AcDbLine
 10
-70.31953
 20
92.405
 30
0.0
 11
-69.998
 21
91.20499999999999
 31
0.0
  0
LINE
  5
620
330
1E
100
AcDbEntity
  8
0
  6
CONTINUOUS
 62
     7
100
AcDbLine
 10
-69.998
 20
91.20499999999999
 30
0.0
 11
-69.67645999999999
 21
92.405
 31
0.0
  0
LINE
  5
621
330
1E
100
AcDbEntity
  8
0
  6
CONTINUOUS
 62
     7
100
AcDbLine
 10
-69.9987
 20
104.53863
 30
0.0
 11
-69.9987
 21
97.87196000000001
 31
0.0
  0
LINE
  5
622
330
1E
100
AcDbEntity
  8
0
  6
CONTINUOUS
 62
     7
100
AcDbLine
 10
-70.31953
 20
99.07099999999999
 30
0.0
 11
-69.998
 21
97.87100000000002
 31
0.0
  0
LINE
  5
623
330
1E
100
AcDbEntity
  8
0
  6
CONTINUOUS
 62
     7
100
AcDbLine
 10
-69.998
 20
97.87100000000002
 30
0.0
 11
-69.67645999999999
 21
99.07099999999999
 31
0.0
  0
LINE
  5
624
330
1E
100
AcDbEntity
  8
0
  6
CONTINUOUS
 62
     7
100
AcDbLine
 10
-69.9987
 20
111.2052999999999
 30
0.0
 11
-69.9987
 21
104.53863
 31
0.0
  0
LINE
  5
625
330
1E
100
AcDbEntity
  8
0
  6
CONTINUOUS
 62
     7
100
AcDbLine
 10
-70.31953
 20
105.7379999999999
 30
0.0
 11
-69.998
 21
104.5379999999999
 31
0.0
  0
LINE
  5
626
330
1E
100
AcDbEntity
  8
0
  6
CONTINUOUS
 62
     7
100
AcDbLine
 10
-69.998
 20
104.5379999999999
 30
0.0
 11
-69.67645999999999
 21
105.7379999999999
 31
0.0
  0
LINE
  5
627
330
1E
100
AcDbEntity
  8
0
  6
CONTINUOUS
 62
     7
100
AcDbLine
 10
-69.9987
 20
117.87196
 30
0.0
 11
-69.9987
 21
111.2052999999999
 31
0.0
  0
LINE
  5
628
330
1E
100
AcDbEntity
  8
0
  6
CONTINUOUS
 62
     7
100
AcDbLine
 10
-70.31953
 20
112.4049999999999
 30
0.0
 11
-69.998
 21
111.2049999999999
 31
0.0
  0
LINE
  5
629
330
1E
100
AcDbEntity
  8
0
  6
CONTINUOUS
 62
     7
100
AcDbLine
 10
-69.998
 20
111.2049999999999
 30
0.0
 11
-69.67645999999999
 21
112.4049999999999
 31
0.0
  0
LINE
  5
62A
330
1E
100
AcDbEntity
  8
0
  6
CONTINUOUS
 62
     7
100
AcDbLine
 10
-69.9987
 20
124.53863
 30
0.0
 11
-69.9987
 21
117.87196
 31
0.0
  0
LINE
  5
62B
330
1E
100
AcDbEntity
  8
0
  6
CONTINUOUS
 62
     7
100
AcDbLine
 10
-70.31953
 20
119.0709999999999
 30
0.0
 11
-69.998
 21
117.8709999999999
 31
0.0
  0
LINE
  5
62C
330
1E
100
AcDbEntity
  8
0
  6
CONTINUOUS
 62
     7
100
AcDbLine
 10
-69.998
 20
117.8709999999999
 30
0.0
 11
-69.67645999999999
 21
119.0709999999999
 31
0.0
  0
LINE
  5
62D
330
1E
100
AcDbEntity
  8
0
  6
CONTINUOUS
 62
     7
100
AcDbLine
 10
-69.9987
 20
129.3386299999999
 30
0.0
 11
-69.9987
 21
124.53863
 31
0.0
  0
LINE
  5
62E
330
1E
100
AcDbEntity
  8
0
  6
CONTINUOUS
 62
     7
100
AcDbLine
 10
-70.31953
 20
125.7379999999999
 30
0.0
 11
-69.998
 21
124.5379999999999
 31
0.0
  0
LINE
  5
62F
330
1E
100
AcDbEntity
  8
0
  6
CONTINUOUS
 62
     7
100
AcDbLine
 10
-69.998
 20
124.5379999999999
 30
0.0
 11
-69.67645999999999
 21
125.7379999999999
 31
0.0
  0
LINE
  5
630
330
1E
100
AcDbEntity
  8
0
  6
CONTINUOUS
 62
     7
100
AcDbLine
 10
-112.47433
 20
49.50613
 30
0.0
 11
-102.65633
 21
49.50613
 31
0.0
  0
LINE
  5
631
330
1E
100
AcDbEntity
  8
0
  6
CONTINUOUS
 62
     7
100
AcDbLine
 10
-111.6701
 20
41.12756
 30
0.0
 11
-111.6701
 21
47.67463
 31
0.0
  0
LINE
  5
632
330
1E
100
AcDbEntity
  8
0
  6
CONTINUOUS
 62
     7
100
AcDbLine
 10
-111.34846
 20
46.474
 30
0.0
 11
-111.67
 21
47.674
 31
0.0
  0
LINE
  5
633
330
1E
100
AcDbEntity
  8
0
  6
CONTINUOUS
 62
     7
100
AcDbLine
 10
-111.67
 20
47.674
 30
0.0
 11
-111.99153
 21
46.474
 31
0.0
  0
LINE
  5
634
330
1E
100
AcDbEntity
  8
0
  6
CONTINUOUS
 62
     7
100
AcDbLine
 10
-111.6701
 20
51.18985999999999
 30
0.0
 11
-111.6701
 21
124.53833
 31
0.0
  0
LINE
  5
635
330
1E
100
AcDbEntity
  8
0
  6
CONTINUOUS
 62
     7
100
AcDbLine
 10
-102.6701
 20
124.53833
 30
0.0
 11
-112.4700999999999
 21
124.53833
 31
0.0
  0
LINE
  5
636
330
1E
100
AcDbEntity
  8
0
  6
CONTINUOUS
 62
     7
100
AcDbLine
 10
-102.6701
 20
51.18985999999999
 30
0.0
 11
-112.4700999999999
 21
51.18985999999999
 31
0.0
  0
LINE
  5
637
330
1E
100
AcDbEntity
  8
0
  6
CONTINUOUS
 62
     7
100
AcDbLine
 10
-111.34846
 20
123.3379999999999
 30
0.0
 11
-111.67
 21
124.5379999999999
 31
0.0
  0
LINE
  5
638
330
1E
100
AcDbEntity
  8
0
  6
CONTINUOUS
 62
     7
100
AcDbLine
 10
-111.67
 20
124.5379999999999
 30
0.0
 11
-111.99153
 21
123.3379999999999
 31
0.0
  0
LINE
  5
639
330
1E
100
AcDbEntity
  8
0
  6
CONTINUOUS
 62
     7
100
AcDbLine
 10
-111.99153
 20
52.38900000000001
 30
0.0
 11
-111.67
 21
51.189
 31
0.0
  0
LINE
  5
63A
330
1E
100
AcDbEntity
  8
0
  6
CONTINUOUS
 62
     7
100
AcDbLine
 10
-111.67
 20
51.189
 30
0.0
 11
-111.34846
 21
52.38900000000001
 31
0.0
  0
LINE
  5
63B
330
1E
100
AcDbEntity
  8
0
  6
CONTINUOUS
 62
     7
100
AcDbLine
 10
-111.6701
 20
124.53833
 30
0.0
 11
-111.6701
 21
129.3341
 31
0.0
  0
LINE
  5
63C
330
1E
100
AcDbEntity
  8
0
  6
CONTINUOUS
 62
     7
100
AcDbLine
 10
-102.6701
 20
129.3341
 30
0.0
 11
-112.4700999999999
 21
129.3341
 31
0.0
  0
LINE
  5
63D
330
1E
100
AcDbEntity
  8
0
  6
CONTINUOUS
 62
     7
100
AcDbLine
 10
-111.34846
 20
128.1339999999999
 30
0.0
 11
-111.67
 21
129.334
 31
0.0
  0
LINE
  5
63E
330
1E
100
AcDbEntity
  8
0
  6
CONTINUOUS
 62
     7
100
AcDbLine
 10
-111.67
 20
129.334
 30
0.0
 11
-111.99153
 21
128.1339999999999
 31
0.0
  0
LINE
  5
63F
330
1E
100
AcDbEntity
  8
0
  6
CONTINUOUS
 62
     7
100
AcDbLine
 10
-111.99153
 20
125.7379999999999
 30
0.0
 11
-111.67
 21
124.5379999999999
 31
0.0
  0
LINE
  5
640
330
1E
100
AcDbEntity
  8
0
  6
CONTINUOUS
 62
     7
100
AcDbLine
 10
-111.67
 20
124.5379999999999
 30
0.0
 11
-111.34846
 21
125.7379999999999
 31
0.0
  0
LINE
  5
641
330
1E
100
AcDbEntity
  8
0
  6
CONTINUOUS
 62
     7
100
AcDbLine
 10
-111.6701
 20
124.53833
 30
0.0
 11
-111.6701
 21
122.45833
 31
0.0
  0
TEXT
  5
642
330
1E
100
AcDbEntity
  8
0
  6
CONTINUOUS
 62
     7
100
AcDbText
 10
-112.0700999999999
 20
122.45833
 30
0.0
 40
3.2
  1
１４４
 50
90.0
 41
0.8125
  7
BIGFONT
100
AcDbText
  0
LINE
  5
643
330
1E
100
AcDbEntity
  8
0
  6
CONTINUOUS
 62
     7
100
AcDbLine
 10
-111.6701
 20
129.3341
 30
0.0
 11
-111.6701
 21
131.0079599999999
 31
0.0
  0
LINE
  5
644
330
1E
100
AcDbEntity
  8
0
  6
CONTINUOUS
 62
     7
100
AcDbLine
 10
-107.6958999999999
 20
131.0079599999999
 30
0.0
 11
-112.4700999999999
 21
131.0079599999999
 31
0.0
  0
LINE
  5
645
330
1E
100
AcDbEntity
  8
0
  6
CONTINUOUS
 62
     7
100
AcDbLine
 10
-111.6701
 20
133.40796
 30
0.0
 11
-111.6701
 21
131.0079599999999
 31
0.0
  0
LINE
  5
646
330
1E
100
AcDbEntity
  8
0
  6
CONTINUOUS
 62
     7
100
AcDbLine
 10
-111.99153
 20
132.2069999999999
 30
0.0
 11
-111.67
 21
131.007
 31
0.0
  0
LINE
  5
647
330
1E
100
AcDbEntity
  8
0
  6
CONTINUOUS
 62
     7
100
AcDbLine
 10
-111.67
 20
131.007
 30
0.0
 11
-111.34846
 21
132.2069999999999
 31
0.0
  0
LINE
  5
648
330
1E
100
AcDbEntity
  8
0
  6
CONTINUOUS
 62
     7
100
AcDbLine
 10
-111.6701
 20
129.3341
 30
0.0
 11
-111.6701
 21
126.9341
 31
0.0
  0
LINE
  5
649
330
1E
100
AcDbEntity
  8
0
  6
CONTINUOUS
 62
     7
100
AcDbLine
 10
-111.34846
 20
128.1339999999999
 30
0.0
 11
-111.67
 21
129.334
 31
0.0
  0
LINE
  5
64A
330
1E
100
AcDbEntity
  8
0
  6
CONTINUOUS
 62
     7
100
AcDbLine
 10
-111.67
 20
129.334
 30
0.0
 11
-111.99153
 21
128.1339999999999
 31
0.0
  0
LINE
  5
64B
330
1E
100
AcDbEntity
  8
0
  6
CONTINUOUS
 62
     7
100
AcDbLine
 10
-111.6701
 20
133.40796
 30
0.0
 11
-111.6701
 21
137.24796
 31
0.0
  0
TEXT
  5
64C
330
1E
100
AcDbEntity
  8
0
  6
CONTINUOUS
 62
     7
100
AcDbText
 10
-112.0700999999999
 20
132.04796
 30
0.0
 40
3.2
  1
５０
 50
90.0
 41
0.8125
  7
BIGFONT
100
AcDbText
  0
LINE
  5
64D
330
1E
100
AcDbEntity
  8
0
  6
CONTINUOUS
 62
     7
100
AcDbLine
 10
-111.6701
 20
47.67463
 30
0.0
 11
-111.6701
 21
52.88146
 31
0.0
  0
POINT
  5
64E
330
1E
100
AcDbEntity
  8
0
  6
CONTINUOUS
 62
     7
100
AcDbPoint
 10
-111.6701
 20
49.50613
 30
0.0
  0
TEXT
  5
64F
330
1E
100
AcDbEntity
  8
0
  6
CONTINUOUS
 62
     7
100
AcDbText
 10
-112.0646
 20
48.31303
 30
0.0
 40
3.2
  1
51
 50
90.0
  7
BIGFONT
100
AcDbText
  0
TEXT
  5
650
330
1E
100
AcDbEntity
  8
0
  6
CONTINUOUS
 62
     7
100
AcDbText
 10
-112.0846299999999
 20
40.624
 30
0.0
 40
3.2
  1
55
 50
90.0
  7
BIGFONT
100
AcDbText
  0
LINE
  5
651
330
1E
100
AcDbEntity
  8
0
  6
CONTINUOUS
 62
     7
100
AcDbLine
 10
-93.35016000000001
 20
-65.84403
 30
0.0
 11
-97.55016000000001
 21
-65.84403
 31
0.0
  0
LINE
  5
652
330
1E
100
AcDbEntity
  8
0
  6
CONTINUOUS
 62
     7
100
AcDbLine
 10
-96.34999999999999
 20
-65.52246
 30
0.0
 11
-97.55
 21
-65.84399999999999
 31
0.0
  0
LINE
  5
653
330
1E
100
AcDbEntity
  8
0
  6
CONTINUOUS
 62
     7
100
AcDbLine
 10
-97.55
 20
-65.84399999999999
 30
0.0
 11
-96.34999999999999
 21
-66.16553
 31
0.0
  0
LINE
  5
654
330
1E
100
AcDbEntity
  8
0
  6
CONTINUOUS
 62
     7
100
AcDbLine
 10
-88.35016000000001
 20
-65.84403
 30
0.0
 11
-93.35016000000001
 21
-65.84403
 31
0.0
  0
LINE
  5
655
330
1E
100
AcDbEntity
  8
0
  6
CONTINUOUS
 62
     7
100
AcDbLine
 10
-92.15000000000001
 20
-65.52246
 30
0.0
 11
-93.34999999999999
 21
-65.84399999999999
 31
0.0
  0
LINE
  5
656
330
1E
100
AcDbEntity
  8
0
  6
CONTINUOUS
 62
     7
100
AcDbLine
 10
-93.34999999999999
 20
-65.84399999999999
 30
0.0
 11
-92.15000000000001
 21
-66.16553
 31
0.0
  0
LINE
  5
657
330
1E
100
AcDbEntity
  8
0
  6
CONTINUOUS
 62
     7
100
AcDbLine
 10
-81.6835
 20
-65.84403
 30
0.0
 11
-88.37479999999997
 21
-65.84403
 31
0.0
  0
LINE
  5
658
330
1E
100
AcDbEntity
  8
0
  6
CONTINUOUS
 62
     7
100
AcDbLine
 10
-87.17400000000003
 20
-65.52246
 30
0.0
 11
-88.374
 21
-65.84399999999999
 31
0.0
  0
LINE
  5
659
330
1E
100
AcDbEntity
  8
0
  6
CONTINUOUS
 62
     7
100
AcDbLine
 10
-88.374
 20
-65.84399999999999
 30
0.0
 11
-87.17400000000003
 21
-66.16553
 31
0.0
  0
LINE
  5
65A
330
1E
100
AcDbEntity
  8
0
  6
CONTINUOUS
 62
     7
100
AcDbLine
 10
-75.01682999999998
 20
-65.84403
 30
0.0
 11
-81.70813
 21
-65.84403
 31
0.0
  0
LINE
  5
65B
330
1E
100
AcDbEntity
  8
0
  6
CONTINUOUS
 62
     7
100
AcDbLine
 10
-80.508
 20
-65.52246
 30
0.0
 11
-81.70799999999998
 21
-65.84399999999999
 31
0.0
  0
LINE
  5
65C
330
1E
100
AcDbEntity
  8
0
  6
CONTINUOUS
 62
     7
100
AcDbLine
 10
-81.70799999999998
 20
-65.84399999999999
 30
0.0
 11
-80.508
 21
-66.16553
 31
0.0
  0
LINE
  5
65D
330
1E
100
AcDbEntity
  8
0
  6
CONTINUOUS
 62
     7
100
AcDbLine
 10
-68.35016
 20
-65.84403
 30
0.0
 11
-75.04146
 21
-65.84403
 31
0.0
  0
LINE
  5
65E
330
1E
100
AcDbEntity
  8
0
  6
CONTINUOUS
 62
     7
100
AcDbLine
 10
-73.841
 20
-65.52246
 30
0.0
 11
-75.041
 21
-65.84399999999999
 31
0.0
  0
LINE
  5
65F
330
1E
100
AcDbEntity
  8
0
  6
CONTINUOUS
 62
     7
100
AcDbLine
 10
-75.041
 20
-65.84399999999999
 30
0.0
 11
-73.841
 21
-66.16553
 31
0.0
  0
LINE
  5
660
330
1E
100
AcDbEntity
  8
0
  6
CONTINUOUS
 62
     7
100
AcDbLine
 10
-61.6835
 20
-65.84403
 30
0.0
 11
-68.37479999999999
 21
-65.84403
 31
0.0
  0
LINE
  5
661
330
1E
100
AcDbEntity
  8
0
  6
CONTINUOUS
 62
     7
100
AcDbLine
 10
-67.17400000000001
 20
-65.52246
 30
0.0
 11
-68.37399999999999
 21
-65.84399999999999
 31
0.0
  0
LINE
  5
662
330
1E
100
AcDbEntity
  8
0
  6
CONTINUOUS
 62
     7
100
AcDbLine
 10
-68.37399999999999
 20
-65.84399999999999
 30
0.0
 11
-67.17400000000001
 21
-66.16553
 31
0.0
  0
LINE
  5
663
330
1E
100
AcDbEntity
  8
0
  6
CONTINUOUS
 62
     7
100
AcDbLine
 10
-55.01683
 20
-65.84403
 30
0.0
 11
-61.70813
 21
-65.84403
 31
0.0
  0
LINE
  5
664
330
1E
100
AcDbEntity
  8
0
  6
CONTINUOUS
 62
     7
100
AcDbLine
 10
-60.508
 20
-65.52246
 30
0.0
 11
-61.70799999999999
 21
-65.84399999999999
 31
0.0
  0
LINE
  5
665
330
1E
100
AcDbEntity
  8
0
  6
CONTINUOUS
 62
     7
100
AcDbLine
 10
-61.70799999999999
 20
-65.84399999999999
 30
0.0
 11
-60.508
 21
-66.16553
 31
0.0
  0
LINE
  5
666
330
1E
100
AcDbEntity
  8
0
  6
CONTINUOUS
 62
     7
100
AcDbLine
 10
-48.35015999999999
 20
-65.84403
 30
0.0
 11
-55.04146
 21
-65.84403
 31
0.0
  0
LINE
  5
667
330
1E
100
AcDbEntity
  8
0
  6
CONTINUOUS
 62
     7
100
AcDbLine
 10
-53.841
 20
-65.52246
 30
0.0
 11
-55.04100000000001
 21
-65.84399999999999
 31
0.0
  0
LINE
  5
668
330
1E
100
AcDbEntity
  8
0
  6
CONTINUOUS
 62
     7
100
AcDbLine
 10
-55.04100000000001
 20
-65.84399999999999
 30
0.0
 11
-53.841
 21
-66.16553
 31
0.0
  0
LINE
  5
669
330
1E
100
AcDbEntity
  8
0
  6
CONTINUOUS
 62
     7
100
AcDbLine
 10
-41.6835
 20
-65.84403
 30
0.0
 11
-48.3748
 21
-65.84403
 31
0.0
  0
LINE
  5
66A
330
1E
100
AcDbEntity
  8
0
  6
CONTINUOUS
 62
     7
100
AcDbLine
 10
-47.174
 20
-65.52246
 30
0.0
 11
-48.37399999999998
 21
-65.84399999999999
 31
0.0
  0
LINE
  5
66B
330
1E
100
AcDbEntity
  8
0
  6
CONTINUOUS
 62
     7
100
AcDbLine
 10
-48.37399999999998
 20
-65.84399999999999
 30
0.0
 11
-47.174
 21
-66.16553
 31
0.0
  0
LINE
  5
66C
330
1E
100
AcDbEntity
  8
0
  6
CONTINUOUS
 62
     7
100
AcDbLine
 10
-35.01682999999999
 20
-65.84403
 30
0.0
 11
-41.70812999999998
 21
-65.84403
 31
0.0
  0
LINE
  5
66D
330
1E
100
AcDbEntity
  8
0
  6
CONTINUOUS
 62
     7
100
AcDbLine
 10
-40.508
 20
-65.52246
 30
0.0
 11
-41.70799999999998
 21
-65.84399999999999
 31
0.0
  0
LINE
  5
66E
330
1E
100
AcDbEntity
  8
0
  6
CONTINUOUS
 62
     7
100
AcDbLine
 10
-41.70799999999998
 20
-65.84399999999999
 30
0.0
 11
-40.508
 21
-66.16553
 31
0.0
  0
POINT
  5
66F
330
1E
100
AcDbEntity
  8
0
  6
CONTINUOUS
 62
     1
100
AcDbPoint
 10
42.0722
 20
51.38073
 30
0.0
  0
POINT
  5
670
330
1E
100
AcDbEntity
  8
0
  6
CONTINUOUS
 62
     1
100
AcDbPoint
 10
42.0722
 20
49.566
 30
0.0
  0
LINE
  5
671
330
1E
100
AcDbEntity
  8
0
  6
CONTINUOUS
 62
     7
100
AcDbLine
 10
34.03885999999999
 20
131.0079599999999
 30
0.0
 11
41.188
 21
131.0079599999999
 31
0.0
  0
LINE
  5
672
330
1E
100
AcDbEntity
  8
0
  6
CONTINUOUS
 62
     7
100
AcDbLine
 10
205.5826
 20
51.69343
 30
0.0
 11
205.5826
 21
51.69343
 31
0.0
  0
LINE
  5
673
330
1E
100
AcDbEntity
  8
0
  6
CONTINUOUS
 62
     7
100
AcDbLine
 10
204.77136
 20
51.69343
 30
0.0
 11
206.3826
 21
51.69343
 31
0.0
  0
LINE
  5
674
330
1E
100
AcDbEntity
  8
0
  6
CONTINUOUS
 62
     7
100
AcDbLine
 10
204.326
 20
51.69343
 30
0.0
 11
206.3826
 21
51.69343
 31
0.0
  0
LINE
  5
675
330
1E
100
AcDbEntity
  8
0
  6
CONTINUOUS
 62
     7
100
AcDbLine
 10
205.5819999999999
 20
51.69299999999999
 30
0.0
 11
205.5819999999999
 21
51.69299999999999
 31
0.0
  0
LINE
  5
676
330
1E
100
AcDbEntity
  8
0
  6
CONTINUOUS
 62
     7
100
AcDbLine
 10
205.5819999999999
 20
51.69299999999999
 30
0.0
 11
205.5819999999999
 21
51.69299999999999
 31
0.0
  0
LINE
  5
677
330
1E
100
AcDbEntity
  8
0
  6
CONTINUOUS
 62
     7
100
AcDbLine
 10
205.5819999999999
 20
51.69299999999999
 30
0.0
 11
205.5819999999999
 21
51.69299999999999
 31
0.0
  0
LINE
  5
678
330
1E
100
AcDbEntity
  8
0
  6
CONTINUOUS
 62
     7
100
AcDbLine
 10
205.5819999999999
 20
51.69299999999999
 30
0.0
 11
205.5819999999999
 21
51.69299999999999
 31
0.0
  0
TEXT
  5
679
330
1E
100
AcDbEntity
  8
0
  6
CONTINUOUS
 62
     7
100
AcDbText
 10
205.1826
 20
51.69343
 30
0.0
 40
3.2
  1

 50
90.0
 41
0.8125
  7
BIGFONT
100
AcDbText
  0
LINE
  5
67A
330
1E
100
AcDbEntity
  8
0
  6
CONTINUOUS
 62
     7
100
AcDbLine
 10
234.10223
 20
-98.2609
 30
0.0
 11
240.1847599999999
 21
-91.012
 31
0.0
  0
LINE
  5
67B
330
1E
100
AcDbEntity
  8
0
  6
CONTINUOUS
 62
     7
100
AcDbLine
 10
234.10223
 20
47.67463
 30
0.0
 11
234.10223
 21
53.3413
 31
0.0
  0
LINE
  5
67C
330
1E
100
AcDbEntity
  8
0
  6
CONTINUOUS
 62
     7
100
AcDbLine
 10
226.85143
 20
-104.34533
 30
0.0
 11
234.10223
 21
-98.2609
 31
0.0
  0
ARC
  5
67D
330
1E
100
AcDbEntity
  8
0
  6
CONTINUOUS
 62
     7
100
AcDbCircle
 10
234.1014
 20
-98.26185999999999
 30
0.0
 40
2.847229999999998
100
AcDbArc
 50
50.0
 51
220.0
  0
ARC
  5
67E
330
1E
100
AcDbEntity
  8
0
  6
CONTINUOUS
 62
     7
100
AcDbCircle
 10
234.7278399999999
 20
-98.66032
 30
0.0
 40
2.84704
100
AcDbArc
 50
65.001176
 51
89.15075999999997
  0
ARC
  5
67F
330
1E
100
AcDbEntity
  8
0
  6
CONTINUOUS
 62
     7
100
AcDbCircle
 10
233.59887
 20
-97.71304
 30
0.0
 40
2.84704
100
AcDbArc
 50
35.00117600000001
 51
59.15076
  0
ARC
  5
680
330
1E
100
AcDbEntity
  8
0
  6
CONTINUOUS
 62
     7
100
AcDbCircle
 10
233.5527799999999
 20
-97.7589
 30
0.0
 40
2.84768
100
AcDbArc
 50
210.8700999999999
 51
235.0142299999999
  0
ARC
  5
681
330
1E
100
AcDbEntity
  8
0
  6
CONTINUOUS
 62
     7
100
AcDbCircle
 10
234.50058
 20
-98.88787
 30
0.0
 40
2.84768
100
AcDbArc
 50
180.8701
 51
205.01423
  0
TEXT
  5
682
330
1E
100
AcDbEntity
  8
0
  6
CONTINUOUS
 62
     7
100
AcDbText
 10
228.1283
 20
-99.64268
 30
0.0
 40
3.2
  1
170°
 50
44.99
 41
0.8125
  7
BIGFONT
100
AcDbText
  0
LINE
  5
683
330
1E
100
AcDbEntity
  8
0
  6
CONTINUOUS
 62
     7
100
AcDbLine
 10
177.5181
 20
-45.91872999999998
 30
0.0
 11
181.76186
 21
-41.67866
 31
0.0
  0
LINE
  5
684
330
1E
100
AcDbEntity
  8
0
  6
CONTINUOUS
 62
     7
100
AcDbLine
 10
181.76186
 20
-41.67866
 30
0.0
 11
240.1847599999999
 21
-41.67866
 31
0.0
  0
LINE
  5
685
330
1E
100
AcDbEntity
  8
0
  6
CONTINUOUS
 62
     7
100
AcDbLine
 10
177.5181
 20
-104.34533
 30
0.0
 11
177.5181
 21
-45.91872999999998
 31
0.0
  0
LINE
  5
686
330
1E
100
AcDbEntity
  8
0
  6
CONTINUOUS
 62
     7
100
AcDbLine
 10
185.7829299999999
 20
-54.19223
 30
0.0
 11
190.02707
 21
-49.95252999999999
 31
0.0
  0
LINE
  5
687
330
1E
100
AcDbEntity
  8
0
  6
CONTINUOUS
 62
     7
100
AcDbLine
 10
182.4685999999999
 20
-42.38614
 30
0.0
 11
190.59246
 21
-50.51851
 31
0.0
  0
LINE
  5
688
330
1E
100
AcDbEntity
  8
0
  6
CONTINUOUS
 62
     7
100
AcDbLine
 10
178.22483
 20
-46.62621
 30
0.0
 11
186.34832
 21
-54.75820999999999
 31
0.0
  0
LINE
  5
689
330
1E
100
AcDbEntity
  8
0
  6
CONTINUOUS
 62
     7
100
AcDbLine
 10
189.4052699999999
 20
-51.02756
 30
0.0
 11
190.0269999999999
 21
-49.952
 31
0.0
  0
LINE
  5
68A
330
1E
100
AcDbEntity
  8
0
  6
CONTINUOUS
 62
     7
100
AcDbLine
 10
190.0269999999999
 20
-49.952
 30
0.0
 11
188.95078
 21
-50.5726
 31
0.0
  0
LINE
  5
68B
330
1E
100
AcDbEntity
  8
0
  6
CONTINUOUS
 62
     7
100
AcDbLine
 10
186.40372
 20
-53.11643
 30
0.0
 11
185.782
 21
-54.192
 31
0.0
  0
LINE
  5
68C
330
1E
100
AcDbEntity
  8
0
  6
CONTINUOUS
 62
     7
100
AcDbLine
 10
185.782
 20
-54.192
 30
0.0
 11
186.85821
 21
-53.57139
 31
0.0
  0
TEXT
  5
68D
330
1E
100
AcDbEntity
  8
0
  6
CONTINUOUS
 62
     7
100
AcDbText
 10
188.9857152322774
 20
-57.37556999999998
 30
0.0
 40
3.2
  1
180
 50
44.96
 41
0.8125
  7
BIGFONT
100
AcDbText
  0
LINE
  5
68E
330
1E
100
AcDbEntity
  8
0
  6
CONTINUOUS
 62
     7
100
AcDbLine
 10
-168.6932999999999
 20
-98.2609
 30
0.0
 11
-162.61076
 21
-91.012
 31
0.0
  0
LINE
  5
68F
330
1E
100
AcDbEntity
  8
0
  6
CONTINUOUS
 62
     7
100
AcDbLine
 10
-175.9440999999999
 20
-104.34533
 30
0.0
 11
-168.6932999999999
 21
-98.2609
 31
0.0
  0
LINE
  5
690
330
1E
100
AcDbEntity
  8
0
  6
CONTINUOUS
 62
     7
100
AcDbLine
 10
-39.4327
 20
-98.2609
 30
0.0
 11
-33.35015999999999
 21
-91.012
 31
0.0
  0
LINE
  5
691
330
1E
100
AcDbEntity
  8
0
  6
CONTINUOUS
 62
     7
100
AcDbLine
 10
-46.6835
 20
-104.34533
 30
0.0
 11
-39.4327
 21
-98.2609
 31
0.0
  0
LINE
  5
6D2
330
1E
100
AcDbEntity
  8
2
  6
CONTINUOUS
 62
     7
100
AcDbLine
 10
69.0249
 20
-146.1107
 30
0.0
 11
137.0249
 21
-146.1107
 31
0.0
  0
LINE
  5
6D3
330
1E
100
AcDbEntity
  8
2
  6
CONTINUOUS
 62
     7
100
AcDbLine
 10
137.0249
 20
-171.1107
 30
0.0
 11
137.0249
 21
-146.1107
 31
0.0
  0
LINE
  5
6D4
330
1E
100
AcDbEntity
  8
2
  6
CONTINUOUS
 62
     7
100
AcDbLine
 10
69.0249
 20
-171.1107
 30
0.0
 11
137.0249
 21
-171.1107
 31
0.0
  0
LINE
  5
6D5
330
1E
100
AcDbEntity
  8
2
  6
CONTINUOUS
 62
     7
100
AcDbLine
 10
69.0249
 20
-171.1107
 30
0.0
 11
69.0249
 21
-146.1107
 31
0.0
  0
LINE
  5
6D6
330
1E
100
AcDbEntity
  8
2
  6
CONTINUOUS
 62
     7
100
AcDbLine
 10
69.0249
 20
-153.1107
 30
0.0
 11
137.0249
 21
-153.1107
 31
0.0
  0
LINE
  5
6D7
330
1E
100
AcDbEntity
  8
2
  6
CONTINUOUS
 62
     7
100
AcDbLine
 10
69.0249
 20
-159.1107
 30
0.0
 11
137.0249
 21
-159.1107
 31
0.0
  0
LINE
  5
6D8
330
1E
100
AcDbEntity
  8
2
  6
CONTINUOUS
 62
     7
100
AcDbLine
 10
69.0249
 20
-165.1107
 30
0.0
 11
137.0249
 21
-165.1107
 31
0.0
  0
LINE
  5
6D9
330
1E
100
AcDbEntity
  8
2
  6
CONTINUOUS
 62
     7
100
AcDbLine
 10
117.0249
 20
-171.1107
 30
0.0
 11
117.0249
 21
-153.1107
 31
0.0
  0
TEXT
  5
6DA
330
1E
100
AcDbEntity
  8
2
  6
CONTINUOUS
 62
     7
100
AcDbText
 10
74.8714
 20
-158.1107
 30
0.0
 40
4.0
  1
鉄　　筋
  7
BIGFONT
100
AcDbText
  0
TEXT
  5
6DB
330
1E
100
AcDbEntity
  8
2
  6
CONTINUOUS
 62
     7
100
AcDbText
 10
74.8714
 20
-164.1107
 30
0.0
 40
4.0
  1
コンクリート容積
  7
BIGFONT
100
AcDbText
  0
TEXT
  5
6DC
330
1E
100
AcDbEntity
  8
2
  6
CONTINUOUS
 62
     7
100
AcDbText
 10
74.8714
 20
-170.1107
 30
0.0
 40
4.0
  1
総　重　量
  7
BIGFONT
100
AcDbText
  0
TEXT
  5
6DD
330
1E
100
AcDbEntity
  8
2
  6
CONTINUOUS
 62
     7
100
AcDbText
 10
76.8028
 20
-151.8951999999998
 30
0.0
 40
5.0
  1
重　量　内　訳　表
  7
BIGFONT
100
AcDbText
  0
TEXT
  5
6DE
330
1E
100
AcDbEntity
  8
2
  6
CONTINUOUS
 62
     7
100
AcDbText
 10
117.7764
 20
-158.1107
 30
0.0
 40
3.2
  1
257.65
 41
0.9
  7
BIGFONT
100
AcDbText
  0
TEXT
  5
6DF
330
1E
100
AcDbEntity
  8
2
  6
CONTINUOUS
 62
     7
100
AcDbText
 10
132.8372061747588
 20
-158.1107
 30
0.0
 40
2.799999999999998
  1
ｋｇ
 41
0.7
  7
BIGFONT
100
AcDbText
  0
TEXT
  5
6E0
330
1E
100
AcDbEntity
  8
2
  6
CONTINUOUS
 62
     7
100
AcDbText
 10
119.2763999999999
 20
-164.2393
 30
0.0
 40
3.2
  1
2.292
 41
0.9
  7
BIGFONT
100
AcDbText
  0
TEXT
  5
6E1
330
1E
100
AcDbEntity
  8
2
  6
CONTINUOUS
 62
     7
100
AcDbText
 10
120.1764
 20
-170.2392999999998
 30
0.0
 40
3.2
  1
5500
  7
BIGFONT
100
AcDbText
  0
TEXT
  5
6E2
330
1E
100
AcDbEntity
  8
2
  6
CONTINUOUS
 62
     7
100
AcDbText
 10
132.7861061747588
 20
-170.1107
 30
0.0
 40
2.799999999999998
  1
ｋｇ
 41
0.7
  7
BIGFONT
100
AcDbText
  0
TEXT
  5
6E3
330
1E
100
AcDbEntity
  8
2
  6
CONTINUOUS
 62
     7
100
AcDbText
 10
133.0379061747588
 20
-164.1107
 30
0.0
 40
2.799999999999998
  1
ｍ
 41
0.7
  7
BIGFONT
100
AcDbText
  0
TEXT
  5
6E4
330
1E
100
AcDbEntity
  8
2
  6
CONTINUOUS
 62
     7
100
AcDbText
 10
134.8194006134565
 20
-162.9075
 30
0.0
 40
1.199999999999999
  1
３
 41
0.8
  7
BIGFONT
100
AcDbText
  0
LINE
  5
7AD
330
1E
100
AcDbEntity
  8
2
  6
CONTINUOUS
 62
     7
100
AcDbLine
 10
-9.975099999999995
 20
-53.1107
 30
0.0
 11
137.0248999999999
 21
-53.1107
 31
0.0
  0
TEXT
  5
7AE
330
1E
100
AcDbEntity
  8
2
  6
CONTINUOUS
 62
     7
100
AcDbText
 10
-2.65620000000001
 20
-50.05370000000002
 30
0.0
 40
5.0
  1
鉄筋表
  7
BIGFONT
100
AcDbText
  0
LINE
  5
7AF
330
1E
100
AcDbEntity
  8
2
  6
CONTINUOUS
 62
     7
100
AcDbLine
 10
-9.975099999999995
 20
-69.11070000000001
 30
0.0
 11
137.0248999999994
 21
-69.11070000000001
 31
0.0
  0
LINE
  5
7B0
330
1E
100
AcDbEntity
  8
2
  6
CONTINUOUS
 62
     7
100
AcDbLine
 10
-9.975099999999995
 20
-61.11070000000001
 30
0.0
 11
137.0248999999994
 21
-61.11070000000001
 31
0.0
  0
LINE
  5
7B1
330
1E
100
AcDbEntity
  8
2
  6
CONTINUOUS
 62
     7
100
AcDbLine
 10
-9.975099999999995
 20
-108.1106999999998
 30
0.0
 11
137.0248999999994
 21
-108.1106999999998
 31
0.0
  0
LINE
  5
7B2
330
1E
100
AcDbEntity
  8
2
  6
CONTINUOUS
 62
     7
100
AcDbLine
 10
-9.975099999999995
 20
-87.11070000000004
 30
0.0
 11
137.0248999999994
 21
-87.11070000000004
 31
0.0
  0
LINE
  5
7B3
330
1E
100
AcDbEntity
  8
2
  6
CONTINUOUS
 62
     7
100
AcDbLine
 10
-9.975099999999995
 20
-100.1106999999999
 30
0.0
 11
137.0248999999994
 21
-100.1106999999999
 31
0.0
  0
LINE
  5
7B4
330
1E
100
AcDbEntity
  8
2
  6
CONTINUOUS
 62
     7
100
AcDbLine
 10
-9.975099999999995
 20
-116.1106999999995
 30
0.0
 11
137.0248999999994
 21
-116.1106999999995
 31
0.0
  0
LINE
  5
7B5
330
1E
100
AcDbEntity
  8
2
  6
CONTINUOUS
 62
     7
100
AcDbLine
 10
-9.975099999999995
 20
-124.1106999999999
 30
0.0
 11
137.0248999999994
 21
-124.1106999999999
 31
0.0
  0
LINE
  5
7B6
330
1E
100
AcDbEntity
  8
2
  6
CONTINUOUS
 62
     7
100
AcDbLine
 10
-9.975099999999995
 20
-132.1106999999997
 30
0.0
 11
137.0248999999994
 21
-132.1106999999997
 31
0.0
  0
LINE
  5
7B7
330
1E
100
AcDbEntity
  8
2
  6
CONTINUOUS
 62
     7
100
AcDbLine
 10
-9.975099999999995
 20
-140.1106999999996
 30
0.0
 11
137.0248999999994
 21
-140.1106999999996
 31
0.0
  0
LINE
  5
7B8
330
1E
100
AcDbEntity
  8
2
  6
CONTINUOUS
 62
     7
100
AcDbLine
 10
-9.975099999999995
 20
-140.1106999999996
 30
0.0
 11
-9.975099999999995
 21
-108.1106999999998
 31
0.0
  0
LINE
  5
7B9
330
1E
100
AcDbEntity
  8
2
  6
CONTINUOUS
 62
     7
100
AcDbLine
 10
-9.975099999999995
 20
-69.11070000000001
 30
0.0
 11
-9.975099999999995
 21
-53.1107
 31
0.0
  0
LINE
  5
7BA
330
1E
100
AcDbEntity
  8
2
  6
CONTINUOUS
 62
     7
100
AcDbLine
 10
0.0249000000000024
 20
-132.1106999999997
 30
0.0
 11
0.0249000000000024
 21
-53.1107
 31
0.0
  0
LINE
  5
7BB
330
1E
100
AcDbEntity
  8
2
  6
CONTINUOUS
 62
     7
100
AcDbLine
 10
-9.975099999999995
 20
-108.1106999999998
 30
0.0
 11
-9.975099999999995
 21
-69.11070000000001
 31
0.0
  0
TEXT
  5
7BC
330
1E
100
AcDbEntity
  8
2
  6
CONTINUOUS
 62
     7
100
AcDbText
 10
-6.528999999999996
 20
-129.5963999999997
 30
0.0
 40
3.5
  1
７
  7
BIGFONT
100
AcDbText
  0
TEXT
  5
7BD
330
1E
100
AcDbEntity
  8
2
  6
CONTINUOUS
 62
     7
100
AcDbText
 10
-6.528999999999996
 20
-121.5963999999996
 30
0.0
 40
3.5
  1
６
  7
BIGFONT
100
AcDbText
  0
TEXT
  5
7BE
330
1E
100
AcDbEntity
  8
2
  6
CONTINUOUS
 62
     7
100
AcDbText
 10
-6.528999999999996
 20
-113.5963999999999
 30
0.0
 40
3.5
  1
５
  7
BIGFONT
100
AcDbText
  0
TEXT
  5
7BF
330
1E
100
AcDbEntity
  8
2
  6
CONTINUOUS
 62
     7
100
AcDbText
 10
-6.528999999999996
 20
-105.5963999999999
 30
0.0
 40
3.5
  1
４
  7
BIGFONT
100
AcDbText
  0
TEXT
  5
7C0
330
1E
100
AcDbEntity
  8
2
  6
CONTINUOUS
 62
     7
100
AcDbText
 10
-6.493699999999987
 20
-92.47780000000004
 30
0.0
 40
3.5
  1
３
  7
BIGFONT
100
AcDbText
  0
TEXT
  5
7C1
330
1E
100
AcDbEntity
  8
2
  6
CONTINUOUS
 62
     7
100
AcDbText
 10
-6.493699999999987
 20
-74.97779999999997
 30
0.0
 40
3.5
  1
２
  7
BIGFONT
100
AcDbText
  0
TEXT
  5
7C2
330
1E
100
AcDbEntity
  8
2
  6
CONTINUOUS
 62
     7
100
AcDbText
 10
-9.252299999999991
 20
-59.43990000000002
 30
0.0
 40
4.0
  1
番号
  7
BIGFONT
100
AcDbText
  0
TEXT
  5
7C3
330
1E
100
AcDbEntity
  8
2
  6
CONTINUOUS
 62
     7
100
AcDbText
 10
-6.528999999999996
 20
-66.59640000000002
 30
0.0
 40
3.5
  1
１
  7
BIGFONT
100
AcDbText
  0
LINE
  5
7C4
330
1E
100
AcDbEntity
  8
2
  6
CONTINUOUS
 62
     7
100
AcDbLine
 10
102.0248999999995
 20
-140.1106999999996
 30
0.0
 11
102.0248999999995
 21
-53.1107
 31
0.0
  0
LINE
  5
7C5
330
1E
100
AcDbEntity
  8
2
  6
CONTINUOUS
 62
     7
100
AcDbLine
 10
137.0248999999994
 20
-140.1106999999996
 30
0.0
 11
137.0248999999994
 21
-108.1106999999998
 31
0.0
  0
TEXT
  5
7C6
330
1E
100
AcDbEntity
  8
2
  6
CONTINUOUS
 62
     7
100
AcDbText
 10
84.75969999999989
 20
-138.3681999999999
 30
0.0
 40
4.0
  1
合計
  7
BIGFONT
100
AcDbText
  0
TEXT
  5
7C7
330
1E
100
AcDbEntity
  8
2
  6
CONTINUOUS
 62
     7
100
AcDbText
 10
113.4025334756204
 20
-138.3681999999999
 30
0.0
 40
3.2
  1
257.65
  7
BIGFONT
100
AcDbText
  0
TEXT
  5
7C8
330
1E
100
AcDbEntity
  8
2
  6
CONTINUOUS
 62
     7
100
AcDbText
 10
130.6748727605087
 20
-138.3681999999999
 30
0.0
 40
3.2
  1
ｋｇ
 41
0.8
  7
BIGFONT
100
AcDbText
  0
TEXT
  5
7C9
330
1E
100
AcDbEntity
  8
2
  6
CONTINUOUS
 62
     7
100
AcDbText
 10
89.07850886789862
 20
-85.6494044033449
 30
0.0
 40
3.5
  1
2117
  7
BIGFONT
100
AcDbText
  0
TEXT
  5
7CA
330
1E
100
AcDbEntity
  8
2
  6
CONTINUOUS
 62
     7
100
AcDbText
 10
86.75116187226246
 20
-66.63429999999999
 30
0.0
 40
3.5
  1
2547
  7
BIGFONT
100
AcDbText
  0
TEXT
  5
7CB
330
1E
100
AcDbEntity
  8
2
  6
CONTINUOUS
 62
     7
100
AcDbText
 10
87.79296550422719
 20
-73.82232932312745
 30
0.0
 40
3.5
  1
1759
  7
BIGFONT
100
AcDbText
  0
TEXT
  5
7CC
330
1E
100
AcDbEntity
  8
2
  6
CONTINUOUS
 62
     7
100
AcDbText
 10
86.72167905775683
 20
-91.82232932312746
 30
0.0
 40
3.5
  1
2395
  7
BIGFONT
100
AcDbText
  0
TEXT
  5
7CD
330
1E
100
AcDbEntity
  8
2
  6
CONTINUOUS
 62
     7
100
AcDbText
 10
87.44706382955888
 20
-98.33288950402732
 30
0.0
 40
3.5
  1
3405
  7
BIGFONT
100
AcDbText
  0
TEXT
  5
7CE
330
1E
100
AcDbEntity
  8
2
  6
CONTINUOUS
 62
     7
100
AcDbText
 10
87.79296550422719
 20
-80.33288950402726
 30
0.0
 40
3.5
  1
1959
  7
BIGFONT
100
AcDbText
  0
TEXT
  5
7CF
330
1E
100
AcDbEntity
  8
2
  6
CONTINUOUS
 62
     7
100
AcDbText
 10
90.09507154924865
 20
-105.6342999999996
 30
0.0
 40
3.5
  1
676
  7
BIGFONT
100
AcDbText
  0
TEXT
  5
7D0
330
1E
100
AcDbEntity
  8
2
  6
CONTINUOUS
 62
     7
100
AcDbText
 10
90.1058064416375
 20
-129.6342999999998
 30
0.0
 40
3.5
  1
553
  7
BIGFONT
100
AcDbText
  0
TEXT
  5
7D1
330
1E
100
AcDbEntity
  8
2
  6
CONTINUOUS
 62
     7
100
AcDbText
 10
86.77758794011385
 20
-121.6342999999999
 30
0.0
 40
3.5
  1
3895
  7
BIGFONT
100
AcDbText
  0
TEXT
  5
7D2
330
1E
100
AcDbEntity
  8
2
  6
CONTINUOUS
 62
     7
100
AcDbText
 10
86.53548355856498
 20
-113.6342999999999
 30
0.0
 40
3.5
  1
3757
  7
BIGFONT
100
AcDbText
  0
LINE
  5
7D3
330
1E
100
AcDbEntity
  8
2
  6
CONTINUOUS
 62
     7
100
AcDbLine
 10
15.02489999999994
 20
-132.1106999999997
 30
0.0
 11
15.02489999999994
 21
-53.1107
 31
0.0
  0
LINE
  5
7D4
330
1E
100
AcDbEntity
  8
2
  6
CONTINUOUS
 62
     7
100
AcDbLine
 10
84.02489999999993
 20
-132.1106999999997
 30
0.0
 11
84.02489999999993
 21
-53.1107
 31
0.0
  0
LINE
  5
7D5
330
1E
100
AcDbEntity
  8
2
  6
CONTINUOUS
 62
     7
100
AcDbLine
 10
69.02489999999993
 20
-132.1106999999997
 30
0.0
 11
69.02489999999993
 21
-53.1107
 31
0.0
  0
LINE
  5
7D6
330
1E
100
AcDbEntity
  8
2
  6
CONTINUOUS
 62
     7
100
AcDbLine
 10
51.02489999999995
 20
-132.1106999999997
 30
0.0
 11
51.02489999999995
 21
-53.1107
 31
0.0
  0
LINE
  5
7D7
330
1E
100
AcDbEntity
  8
2
  6
CONTINUOUS
 62
     7
100
AcDbLine
 10
33.02489999999994
 20
-132.1106999999997
 30
0.0
 11
33.02489999999994
 21
-53.1107
 31
0.0
  0
TEXT
  5
7D8
330
1E
100
AcDbEntity
  8
2
  6
CONTINUOUS
 62
     7
100
AcDbText
 10
42.07649681561774
 20
-74.2522509135984
 30
0.0
 40
3.5
  1
75
  7
BIGFONT
100
AcDbText
  0
TEXT
  5
7D9
330
1E
100
AcDbEntity
  8
2
  6
CONTINUOUS
 62
     7
100
AcDbText
 10
42.07649681561774
 20
-85.44732444617983
 30
0.0
 40
3.5
  1
75
  7
BIGFONT
100
AcDbText
  0
TEXT
  5
7DA
330
1E
100
AcDbEntity
  8
2
  6
CONTINUOUS
 62
     7
100
AcDbText
 10
42.07649681561774
 20
-80.13080954686214
 30
0.0
 40
3.5
  1
75
  7
BIGFONT
100
AcDbText
  0
TEXT
  5
7DB
330
1E
100
AcDbEntity
  8
2
  6
CONTINUOUS
 62
     7
100
AcDbText
 10
42.07649681561774
 20
-92.25225091359844
 30
0.0
 40
3.5
  1
55
  7
BIGFONT
100
AcDbText
  0
TEXT
  5
7DC
330
1E
100
AcDbEntity
  8
2
  6
CONTINUOUS
 62
     7
100
AcDbText
 10
42.07649681561774
 20
-98.13080954686217
 30
0.0
 40
3.5
  1
55
  7
BIGFONT
100
AcDbText
  0
TEXT
  5
7DD
330
1E
100
AcDbEntity
  8
2
  6
CONTINUOUS
 62
     7
100
AcDbText
 10
42.07649681561774
 20
-113.6342999999999
 30
0.0
 40
3.5
  1
57
  7
BIGFONT
100
AcDbText
  0
TEXT
  5
7DE
330
1E
100
AcDbEntity
  8
2
  6
CONTINUOUS
 62
     7
100
AcDbText
 10
42.07649681561774
 20
-121.6342999999999
 30
0.0
 40
3.5
  1
55
  7
BIGFONT
100
AcDbText
  0
TEXT
  5
7DF
330
1E
100
AcDbEntity
  8
2
  6
CONTINUOUS
 62
     7
100
AcDbText
 10
38.5484510617062
 20
-105.6342999999996
 30
0.0
 40
3.5
  1
468
  7
BIGFONT
100
AcDbText
  0
TEXT
  5
7E0
330
1E
100
AcDbEntity
  8
2
  6
CONTINUOUS
 62
     7
100
AcDbText
 10
20.12559156396452
 20
-113.6342999999999
 30
0.0
 40
3.5
  1
1850
  7
BIGFONT
100
AcDbText
  0
TEXT
  5
7E1
330
1E
100
AcDbEntity
  8
2
  6
CONTINUOUS
 62
     7
100
AcDbText
 10
20.13596492347784
 20
-121.6342999999999
 30
0.0
 40
3.5
  1
1920
  7
BIGFONT
100
AcDbText
  0
TEXT
  5
7E2
330
1E
100
AcDbEntity
  8
2
  6
CONTINUOUS
 62
     7
100
AcDbText
 10
21.83908071736647
 20
-129.6342999999998
 30
0.0
 40
3.5
  1
553
  7
BIGFONT
100
AcDbText
  0
TEXT
  5
7E3
330
1E
100
AcDbEntity
  8
2
  6
CONTINUOUS
 62
     7
100
AcDbText
 10
23.87472941860784
 20
-105.6342999999996
 30
0.0
 40
3.5
  1
104
  7
BIGFONT
100
AcDbText
  0
TEXT
  5
7E4
330
1E
100
AcDbEntity
  8
2
  6
CONTINUOUS
 62
     7
100
AcDbText
 10
3.471000000000003
 20
-129.5963999999997
 30
0.0
 40
3.5
  1
D10
  7
BIGFONT
100
AcDbText
  0
TEXT
  5
7E5
330
1E
100
AcDbEntity
  8
2
  6
CONTINUOUS
 62
     7
100
AcDbText
 10
3.471000000000003
 20
-121.5963999999996
 30
0.0
 40
3.5
  1
D10
  7
BIGFONT
100
AcDbText
  0
TEXT
  5
7E6
330
1E
100
AcDbEntity
  8
2
  6
CONTINUOUS
 62
     7
100
AcDbText
 10
3.471000000000003
 20
-113.5963999999999
 30
0.0
 40
3.5
  1
D13
  7
BIGFONT
100
AcDbText
  0
TEXT
  5
7E7
330
1E
100
AcDbEntity
  8
2
  6
CONTINUOUS
 62
     7
100
AcDbText
 10
3.471000000000003
 20
-105.5963999999999
 30
0.0
 40
3.5
  1
D13
  7
BIGFONT
100
AcDbText
  0
TEXT
  5
7E8
330
1E
100
AcDbEntity
  8
2
  6
CONTINUOUS
 62
     7
100
AcDbText
 10
46.06534321453369
 20
-129.6342999999998
 30
0.0
 40
3.5
  1
0
  7
BIGFONT
100
AcDbText
  0
TEXT
  5
7E9
330
1E
100
AcDbEntity
  8
2
  6
CONTINUOUS
 62
     7
100
AcDbText
 10
20.52912617119232
 20
-85.44732444617983
 30
0.0
 40
3.5
  1
1914
  7
BIGFONT
100
AcDbText
  0
TEXT
  5
7EA
330
1E
100
AcDbEntity
  8
2
  6
CONTINUOUS
 62
     7
100
AcDbText
 10
22.39246162934346
 20
-92.25225091359844
 30
0.0
 40
3.5
  1
920
  7
BIGFONT
100
AcDbText
  0
TEXT
  5
7EB
330
1E
100
AcDbEntity
  8
2
  6
CONTINUOUS
 62
     7
100
AcDbText
 10
20.13876492573904
 20
-98.13080954686217
 30
0.0
 40
3.5
  1
1930
  7
BIGFONT
100
AcDbText
  0
TEXT
  5
7EC
330
1E
100
AcDbEntity
  8
2
  6
CONTINUOUS
 62
     7
100
AcDbText
 10
19.51812256409862
 20
-80.13080954686214
 30
0.0
 40
3.5
  1
1755
  7
BIGFONT
100
AcDbText
  0
TEXT
  5
7ED
330
1E
100
AcDbEntity
  8
2
  6
CONTINUOUS
 62
     7
100
AcDbText
 10
19.52059512423517
 20
-74.2522509135984
 30
0.0
 40
3.5
  1
1555
  7
BIGFONT
100
AcDbText
  0
TEXT
  5
7EE
330
1E
100
AcDbEntity
  8
2
  6
CONTINUOUS
 62
     7
100
AcDbText
 10
3.506300000000008
 20
-84.98761489931769
 30
0.0
 40
3.5
  1
D16
  7
BIGFONT
100
AcDbText
  0
TEXT
  5
7EF
330
1E
100
AcDbEntity
  8
2
  6
CONTINUOUS
 62
     7
100
AcDbText
 10
3.506300000000008
 20
-92.47780000000004
 30
0.0
 40
3.5
  1
D10
  7
BIGFONT
100
AcDbText
  0
TEXT
  5
7F0
330
1E
100
AcDbEntity
  8
2
  6
CONTINUOUS
 62
     7
100
AcDbText
 10
3.506300000000008
 20
-97.17109999999999
 30
0.0
 40
3.5
  1
D10
  7
BIGFONT
100
AcDbText
  0
TEXT
  5
7F1
330
1E
100
AcDbEntity
  8
2
  6
CONTINUOUS
 62
     7
100
AcDbText
 10
3.506300000000008
 20
-79.67110000000002
 30
0.0
 40
3.5
  1
D16
  7
BIGFONT
100
AcDbText
  0
TEXT
  5
7F2
330
1E
100
AcDbEntity
  8
2
  6
CONTINUOUS
 62
     7
100
AcDbText
 10
3.506300000000008
 20
-74.97779999999997
 30
0.0
 40
3.5
  1
D16
  7
BIGFONT
100
AcDbText
  0
TEXT
  5
7F3
330
1E
100
AcDbEntity
  8
2
  6
CONTINUOUS
 62
     7
100
AcDbText
 10
54.80822822305032
 20
-121.6342999999999
 30
0.0
 40
3.5
  1
1920
  7
BIGFONT
100
AcDbText
  0
TEXT
  5
7F4
330
1E
100
AcDbEntity
  8
2
  6
CONTINUOUS
 62
     7
100
AcDbText
 10
64.16716108596489
 20
-129.6342999999998
 30
0.0
 40
3.5
  1
0
  7
BIGFONT
100
AcDbText
  0
TEXT
  5
7F5
330
1E
100
AcDbEntity
  8
2
  6
CONTINUOUS
 62
     7
100
AcDbText
 10
54.84447941511422
 20
-113.6342999999999
 30
0.0
 40
3.5
  1
1850
  7
BIGFONT
100
AcDbText
  0
TEXT
  5
7F6
330
1E
100
AcDbEntity
  8
2
  6
CONTINUOUS
 62
     7
100
AcDbText
 10
58.22203204042631
 20
-105.6342999999996
 30
0.0
 40
3.5
  1
104
  7
BIGFONT
100
AcDbText
  0
TEXT
  5
7F7
330
1E
100
AcDbEntity
  8
2
  6
CONTINUOUS
 62
     7
100
AcDbText
 10
77.01097511317043
 20
-129.6342999999998
 30
0.0
 40
3.5
  1
0
  7
BIGFONT
100
AcDbText
  0
TEXT
  5
7F8
330
1E
100
AcDbEntity
  8
2
  6
CONTINUOUS
 62
     7
100
AcDbText
 10
73.48498515869147
 20
-121.6342999999999
 30
0.0
 40
3.5
  1
30
  7
BIGFONT
100
AcDbText
  0
TEXT
  5
7F9
330
1E
100
AcDbEntity
  8
2
  6
CONTINUOUS
 62
     7
100
AcDbText
 10
73.48498515869147
 20
-113.6342999999999
 30
0.0
 40
3.5
  1
30
  7
BIGFONT
100
AcDbText
  0
TEXT
  5
7FA
330
1E
100
AcDbEntity
  8
2
  6
CONTINUOUS
 62
     7
100
AcDbText
 10
77.01097511317043
 20
-105.6342999999996
 30
0.0
 40
3.5
  1
0
  7
BIGFONT
100
AcDbText
  0
TEXT
  5
7FB
330
1E
100
AcDbEntity
  8
2
  6
CONTINUOUS
 62
     7
100
AcDbText
 10
57.64471064400055
 20
-85.44732444617983
 30
0.0
 40
3.5
  1
128
  7
BIGFONT
100
AcDbText
  0
TEXT
  5
7FC
330
1E
100
AcDbEntity
  8
2
  6
CONTINUOUS
 62
     7
100
AcDbText
 10
54.75296678307683
 20
-92.25225091359844
 30
0.0
 40
3.5
  1
1420
  7
BIGFONT
100
AcDbText
  0
TEXT
  5
7FD
330
1E
100
AcDbEntity
  8
2
  6
CONTINUOUS
 62
     7
100
AcDbText
 10
54.75296678307683
 20
-98.13080954686217
 30
0.0
 40
3.5
  1
1420
  7
BIGFONT
100
AcDbText
  0
TEXT
  5
7FE
330
1E
100
AcDbEntity
  8
2
  6
CONTINUOUS
 62
     7
100
AcDbText
 10
57.64471064400055
 20
-74.2522509135984
 30
0.0
 40
3.5
  1
128
  7
BIGFONT
100
AcDbText
  0
TEXT
  5
7FF
330
1E
100
AcDbEntity
  8
2
  6
CONTINUOUS
 62
     7
100
AcDbText
 10
57.64471064400055
 20
-80.13080954686214
 30
0.0
 40
3.5
  1
128
  7
BIGFONT
100
AcDbText
  0
TEXT
  5
800
330
1E
100
AcDbEntity
  8
2
  6
CONTINUOUS
 62
     7
100
AcDbText
 10
73.48498515869147
 20
-85.6494044033449
 30
0.0
 40
3.5
  1
40
  7
BIGFONT
100
AcDbText
  0
TEXT
  5
801
330
1E
100
AcDbEntity
  8
2
  6
CONTINUOUS
 62
     7
100
AcDbText
 10
73.48498515869147
 20
-98.33288950402732
 30
0.0
 40
3.5
  1
30
  7
BIGFONT
100
AcDbText
  0
TEXT
  5
802
330
1E
100
AcDbEntity
  8
2
  6
CONTINUOUS
 62
     7
100
AcDbText
 10
73.48498515869147
 20
-91.82232932312746
 30
0.0
 40
3.5
  1
30
  7
BIGFONT
100
AcDbText
  0
TEXT
  5
803
330
1E
100
AcDbEntity
  8
2
  6
CONTINUOUS
 62
     7
100
AcDbText
 10
73.48498515869147
 20
-80.33288950402726
 30
0.0
 40
3.5
  1
40
  7
BIGFONT
100
AcDbText
  0
TEXT
  5
804
330
1E
100
AcDbEntity
  8
2
  6
CONTINUOUS
 62
     7
100
AcDbText
 10
73.48498515869147
 20
-73.82232932312745
 30
0.0
 40
3.5
  1
40
  7
BIGFONT
100
AcDbText
  0
TEXT
  5
805
330
1E
100
AcDbEntity
  8
2
  6
CONTINUOUS
 62
     7
100
AcDbText
 10
42.07649681561774
 20
-66.63429999999999
 30
0.0
 40
3.5
  1
75
  7
BIGFONT
100
AcDbText
  0
TEXT
  5
806
330
1E
100
AcDbEntity
  8
2
  6
CONTINUOUS
 62
     7
100
AcDbText
 10
20.76869999999991
 20
-59.6187
 30
0.0
 40
4.0
  1
Ｌ１
  7
BIGFONT
100
AcDbText
  0
TEXT
  5
807
330
1E
100
AcDbEntity
  8
2
  6
CONTINUOUS
 62
     7
100
AcDbText
 10
18.17382893056588
 20
-66.63429999999999
 30
0.0
 40
3.5
  1
2344
  7
BIGFONT
100
AcDbText
  0
TEXT
  5
808
330
1E
100
AcDbEntity
  8
2
  6
CONTINUOUS
 62
     7
100
AcDbText
 10
5.787699999999972
 20
-59.61560000000003
 30
0.0
 40
4.0
  1
径
  7
BIGFONT
100
AcDbText
  0
TEXT
  5
809
330
1E
100
AcDbEntity
  8
2
  6
CONTINUOUS
 62
     7
100
AcDbText
 10
3.471000000000003
 20
-66.59640000000002
 30
0.0
 40
3.5
  1
D16
  7
BIGFONT
100
AcDbText
  0
TEXT
  5
80A
330
1E
100
AcDbEntity
  8
2
  6
CONTINUOUS
 62
     7
100
AcDbText
 10
38.46750000000003
 20
-59.65410000000001
 30
0.0
 40
4.0
  1
Ｌ２
  7
BIGFONT
100
AcDbText
  0
TEXT
  5
80B
330
1E
100
AcDbEntity
  8
2
  6
CONTINUOUS
 62
     7
100
AcDbText
 10
55.65699999999998
 20
-59.58320000000001
 30
0.0
 40
4.0
  1
Ｌ３
  7
BIGFONT
100
AcDbText
  0
TEXT
  5
80C
330
1E
100
AcDbEntity
  8
2
  6
CONTINUOUS
 62
     7
100
AcDbText
 10
57.64471064400055
 20
-66.63429999999999
 30
0.0
 40
3.5
  1
128
  7
BIGFONT
100
AcDbText
  0
TEXT
  5
80D
330
1E
100
AcDbEntity
  8
2
  6
CONTINUOUS
 62
     7
100
AcDbText
 10
74.8272
 20
-59.6187
 30
0.0
 40
4.0
  1
Ｒ
  7
BIGFONT
100
AcDbText
  0
TEXT
  5
80E
330
1E
100
AcDbEntity
  8
2
  6
CONTINUOUS
 62
     7
100
AcDbText
 10
73.48498515869147
 20
-66.63429999999999
 30
0.0
 40
3.5
  1
40
  7
BIGFONT
100
AcDbText
  0
TEXT
  5
80F
330
1E
100
AcDbEntity
  8
2
  6
CONTINUOUS
 62
     7
100
AcDbText
 10
90.72830000000003
 20
-59.65410000000001
 30
0.0
 40
4.0
  1
Ｌ
  7
BIGFONT
100
AcDbText
  0
LINE
  5
810
330
1E
100
AcDbEntity
  8
2
  6
CONTINUOUS
 62
     7
100
AcDbLine
 10
137.0248999999994
 20
-69.11070000000001
 30
0.0
 11
137.0248999999994
 21
-53.1107
 31
0.0
  0
LINE
  5
811
330
1E
100
AcDbEntity
  8
2
  6
CONTINUOUS
 62
     7
100
AcDbLine
 10
117.0248999999996
 20
-132.1106999999997
 30
0.0
 11
117.0248999999996
 21
-53.1107
 31
0.0
  0
LINE
  5
812
330
1E
100
AcDbEntity
  8
2
  6
CONTINUOUS
 62
     7
100
AcDbLine
 10
137.0248999999994
 20
-108.1106999999998
 30
0.0
 11
137.0248999999994
 21
-69.11070000000001
 31
0.0
  0
TEXT
  5
813
330
1E
100
AcDbEntity
  8
2
  6
CONTINUOUS
 62
     7
100
AcDbText
 10
109.2863182922056
 20
-129.6342999999998
 30
0.0
 40
3.5
  1
1
  7
BIGFONT
100
AcDbText
  0
TEXT
  5
814
330
1E
100
AcDbEntity
  8
2
  6
CONTINUOUS
 62
     7
100
AcDbText
 10
108.4091492117893
 20
-121.6342999999999
 30
0.0
 40
3.5
  1
5
  7
BIGFONT
100
AcDbText
  0
TEXT
  5
815
330
1E
100
AcDbEntity
  8
2
  6
CONTINUOUS
 62
     7
100
AcDbText
 10
107.4745549687225
 20
-113.6342999999999
 30
0.0
 40
3.5
  1
12
  7
BIGFONT
100
AcDbText
  0
TEXT
  5
816
330
1E
100
AcDbEntity
  8
2
  6
CONTINUOUS
 62
     7
100
AcDbText
 10
106.4646192694681
 20
-105.6342999999996
 30
0.0
 40
3.5
  1
16
  7
BIGFONT
100
AcDbText
  0
TEXT
  5
817
330
1E
100
AcDbEntity
  8
2
  6
CONTINUOUS
 62
     7
100
AcDbText
 10
123.9792923648062
 20
-129.6342999999998
 30
0.0
 40
3.5
  1
0.31
  7
BIGFONT
100
AcDbText
  0
TEXT
  5
818
330
1E
100
AcDbEntity
  8
2
  6
CONTINUOUS
 62
     7
100
AcDbText
 10
121.6635230529387
 20
-121.6342999999999
 30
0.0
 40
3.5
  1
10.91
  7
BIGFONT
100
AcDbText
  0
TEXT
  5
819
330
1E
100
AcDbEntity
  8
2
  6
CONTINUOUS
 62
     7
100
AcDbText
 10
119.7885857249534
 20
-113.6342999999999
 30
0.0
 40
3.5
  1
44.86
  7
BIGFONT
100
AcDbText
  0
TEXT
  5
81A
330
1E
100
AcDbEntity
  8
2
  6
CONTINUOUS
 62
     7
100
AcDbText
 10
121.6759193420185
 20
-105.6342999999996
 30
0.0
 40
3.5
  1
10.77
  7
BIGFONT
100
AcDbText
  0
TEXT
  5
81B
330
1E
100
AcDbEntity
  8
2
  6
CONTINUOUS
 62
     7
100
AcDbText
 10
106.4646192694681
 20
-85.6494044033449
 30
0.0
 40
3.5
  1
18
  7
BIGFONT
100
AcDbText
  0
TEXT
  5
81C
330
1E
100
AcDbEntity
  8
2
  6
CONTINUOUS
 62
     7
100
AcDbText
 10
107.0349918230729
 20
-98.33288950402732
 30
0.0
 40
3.5
  1
12
  7
BIGFONT
100
AcDbText
  0
TEXT
  5
81D
330
1E
100
AcDbEntity
  8
2
  6
CONTINUOUS
 62
     7
100
AcDbText
 10
107.0201099505909
 20
-91.82232932312746
 30
0.0
 40
3.5
  1
10
  7
BIGFONT
100
AcDbText
  0
TEXT
  5
81E
330
1E
100
AcDbEntity
  8
2
  6
CONTINUOUS
 62
     7
100
AcDbText
 10
108.4091492117893
 20
-80.33288950402726
 30
0.0
 40
3.5
  1
2
  7
BIGFONT
100
AcDbText
  0
TEXT
  5
81F
330
1E
100
AcDbEntity
  8
2
  6
CONTINUOUS
 62
     7
100
AcDbText
 10
108.4091492117893
 20
-73.82232932312745
 30
0.0
 40
3.5
  1
2
  7
BIGFONT
100
AcDbText
  0
TEXT
  5
820
330
1E
100
AcDbEntity
  8
2
  6
CONTINUOUS
 62
     7
100
AcDbText
 10
119.8015010842197
 20
-85.6494044033449
 30
0.0
 40
3.5
  1
59.46
  7
BIGFONT
100
AcDbText
  0
TEXT
  5
821
330
1E
100
AcDbEntity
  8
2
  6
CONTINUOUS
 62
     7
100
AcDbText
 10
120.8513996064425
 20
-91.82232932312746
 30
0.0
 40
3.5
  1
13.41
  7
BIGFONT
100
AcDbText
  0
TEXT
  5
822
330
1E
100
AcDbEntity
  8
2
  6
CONTINUOUS
 62
     7
100
AcDbText
 10
119.8600778757074
 20
-98.33288950402732
 30
0.0
 40
3.5
  1
22.88
  7
BIGFONT
100
AcDbText
  0
TEXT
  5
823
330
1E
100
AcDbEntity
  8
2
  6
CONTINUOUS
 62
     7
100
AcDbText
 10
123.2877680854636
 20
-73.82232932312745
 30
0.0
 40
3.5
  1
5.49
  7
BIGFONT
100
AcDbText
  0
TEXT
  5
824
330
1E
100
AcDbEntity
  8
2
  6
CONTINUOUS
 62
     7
100
AcDbText
 10
123.2877680854636
 20
-80.33288950402726
 30
0.0
 40
3.5
  1
6.11
  7
BIGFONT
100
AcDbText
  0
TEXT
  5
825
330
1E
100
AcDbEntity
  8
2
  6
CONTINUOUS
 62
     7
100
AcDbText
 10
104.6808999999996
 20
-59.5156
 30
0.0
 40
4.0
  1
本数
  7
BIGFONT
100
AcDbText
  0
TEXT
  5
826
330
1E
100
AcDbEntity
  8
2
  6
CONTINUOUS
 62
     7
100
AcDbText
 10
106.4646192694681
 20
-66.63429999999999
 30
0.0
 40
3.5
  1
21
  7
BIGFONT
100
AcDbText
  0
TEXT
  5
827
330
1E
100
AcDbEntity
  8
2
  6
CONTINUOUS
 62
     7
100
AcDbText
 10
121.1238999999997
 20
-59.51570000000002
 30
0.0
 40
4.0
  1
重量
  7
BIGFONT
100
AcDbText
  0
TEXT
  5
828
330
1E
100
AcDbEntity
  8
2
  6
CONTINUOUS
 62
     7
100
AcDbText
 10
119.8459941434041
 20
-66.63429999999999
 30
0.0
 40
3.5
  1
83.45
  7
BIGFONT
100
AcDbText
  0
ENDSEC
  0
SECTION
  2
OBJECTS
  0
DICTIONARY
  5
C
330
0
100
AcDbDictionary
  3
ACAD_GROUP
350
D
  3
ACAD_LAYOUT
350
19
  3
ACAD_MLINESTYLE
350
16
  3
ACAD_PLOTSETTINGS
350
18
1001
ACAD
1000
TREAT_AS_HARD
1070
     0
1000
TREAT_AS_HARD
1070
     0
1000
TREAT_AS_HARD
1070
     0
  0
DICTIONARY
  5
82F
330
1E
100
AcDbDictionary
  3
ACAD_LAYOUTSELFREF
350
848
1001
ACAD
1000
TREAT_AS_HARD
1070
     0
1000
TREAT_AS_HARD
1070
     0
  0
DICTIONARY
  5
82D
330
1A
100
AcDbDictionary
  3
ACAD_LAYOUTSELFREF
350
847
1001
ACAD
1000
TREAT_AS_HARD
1070
     0
1000
TREAT_AS_HARD
1070
     0
  0
DICTIONARY
  5
D
102
{ACAD_REACTORS
330
C
102
}
330
C
100
AcDbDictionary
1001
ACAD
1000
TREAT_AS_HARD
1070
     0
1000
TREAT_AS_HARD
1070
     0
1000
TREAT_AS_HARD
1070
     0
  0
DICTIONARY
  5
19
102
{ACAD_REACTORS
330
C
102
}
330
C
100
AcDbDictionary
1001
ACAD
1000
TREAT_AS_HARD
1070
     0
1000
TREAT_AS_HARD
1070
     0
1000
TREAT_AS_HARD
1070
     0
  0
DICTIONARY
  5
16
102
{ACAD_REACTORS
330
C
102
}
330
C
100
AcDbDictionary
  3
STANDARD
350
17
1001
ACAD
1000
TREAT_AS_HARD
1070
     0
1000
TREAT_AS_HARD
1070
     0
1000
TREAT_AS_HARD
1070
     0
  0
DICTIONARY
  5
18
102
{ACAD_REACTORS
330
C
102
}
330
C
100
AcDbDictionary
1001
ACAD
1000
TREAT_AS_HARD
1070
     0
1000
TREAT_AS_HARD
1070
     0
1000
TREAT_AS_HARD
1070
     0
  0
XRECORD
  5
848
102
{ACAD_REACTORS
330
82F
102
}
330
82F
100
AcDbXrecord
340
1E
  0
XRECORD
  5
847
102
{ACAD_REACTORS
330
82D
102
}
330
82D
100
AcDbXrecord
340
1A
  0
MLINESTYLE
  5
17
102
{ACAD_REACTORS
330
16
102
}
330
16
100
AcDbMlineStyle
  2
STANDARD
 70
     0
  3

 62
   256
 51
90.0
 52
90.0
 71
     2
 49
0.5
 62
   256
  6
BYLAYER
 49
-0.5
 62
   256
  6
BYLAYER
  0
ENDSEC
  0
EOF
