  0
SECTION
  2
HEADER
  9
$ACADVER
  1
AC1012
  9
$DWGCODEPAGE
  3
dos932
  9
$INSBASE
 10
0.0
 20
0.0
 30
0.0
  9
$EXTMIN
 10
-270.8692917994564
 20
-193.8629140423877
 30
-0.0000000000000058
  9
$EXTMAX
 10
270.8239759619161
 20
193.8629159981651
 30
0.0000000000000104
  9
$LIMMIN
 10
-297.0
 20
-210.0
  9
$LIMMAX
 10
297.0
 20
210.0
  9
$ORTHOMODE
 70
     1
  9
$REGENMODE
 70
     1
  9
$FILLMODE
 70
     1
  9
$QTEXTMODE
 70
     0
  9
$MIRRTEXT
 70
     1
  9
$DRAGMODE
 70
     2
  9
$LTSCALE
 40
1.0
  9
$OSMODE
 70
  2471
  9
$ATTMODE
 70
     1
  9
$TEXTSIZE
 40
1.0
  9
$TRACEWID
 40
0.05
  9
$TEXTSTYLE
  7
BIGFONT
  9
$CLAYER
  8
0
  9
$CELTYPE
  6
CONTINUOUS
  9
$CECOLOR
 62
   256
  9
$CELTSCALE
 40
1.0
  9
$DELOBJ
 70
     1
  9
$DISPSILH
 70
     0
  9
$DIMSCALE
 40
1.0
  9
$DIMASZ
 40
0.18
  9
$DIMEXO
 40
0.0625
  9
$DIMDLI
 40
0.38
  9
$DIMRND
 40
0.0
  9
$DIMDLE
 40
0.0
  9
$DIMEXE
 40
0.18
  9
$DIMTP
 40
0.0
  9
$DIMTM
 40
0.0
  9
$DIMTXT
 40
0.18
  9
$DIMCEN
 40
0.09
  9
$DIMTSZ
 40
0.0
  9
$DIMTOL
 70
     0
  9
$DIMLIM
 70
     0
  9
$DIMTIH
 70
     1
  9
$DIMTOH
 70
     1
  9
$DIMSE1
 70
     0
  9
$DIMSE2
 70
     0
  9
$DIMTAD
 70
     0
  9
$DIMZIN
 70
     0
  9
$DIMBLK
  1

  9
$DIMASO
 70
     1
  9
$DIMSHO
 70
     1
  9
$DIMPOST
  1

  9
$DIMAPOST
  1

  9
$DIMALT
 70
     0
  9
$DIMALTD
 70
     2
  9
$DIMALTF
 40
25.4
  9
$DIMLFAC
 40
1.0
  9
$DIMTOFL
 70
     0
  9
$DIMTVP
 40
0.0
  9
$DIMTIX
 70
     0
  9
$DIMSOXD
 70
     0
  9
$DIMSAH
 70
     0
  9
$DIMBLK1
  1

  9
$DIMBLK2
  1

  9
$DIMSTYLE
  2
STANDARD
  9
$DIMCLRD
 70
     0
  9
$DIMCLRE
 70
     0
  9
$DIMCLRT
 70
     0
  9
$DIMTFAC
 40
1.0
  9
$DIMGAP
 40
0.09
  9
$DIMJUST
 70
     0
  9
$DIMSD1
 70
     0
  9
$DIMSD2
 70
     0
  9
$DIMTOLJ
 70
     1
  9
$DIMTZIN
 70
     0
  9
$DIMALTZ
 70
     0
  9
$DIMALTTZ
 70
     0
  9
$DIMFIT
 70
     3
  9
$DIMUPT
 70
     0
  9
$DIMUNIT
 70
     2
  9
$DIMDEC
 70
     4
  9
$DIMTDEC
 70
     4
  9
$DIMALTU
 70
     2
  9
$DIMALTTD
 70
     2
  9
$DIMTXSTY
  7
STANDARD
  9
$DIMAUNIT
 70
     0
  9
$LUNITS
 70
     2
  9
$LUPREC
 70
     4
  9
$SKETCHINC
 40
0.1
  9
$FILLETRAD
 40
0.0
  9
$AUNITS
 70
     0
  9
$AUPREC
 70
     0
  9
$MENU
  1
.
  9
$ELEVATION
 40
0.0
  9
$PELEVATION
 40
0.0
  9
$THICKNESS
 40
0.0
  9
$LIMCHECK
 70
     0
  9
$BLIPMODE
 70
     0
  9
$CHAMFERA
 40
0.0
  9
$CHAMFERB
 40
0.0
  9
$CHAMFERC
 40
0.0
  9
$CHAMFERD
 40
0.0
  9
$SKPOLY
 70
     0
  9
$TDCREATE
 40
2452140.603699189
  9
$TDUPDATE
 40
2453203.394038194
  9
$TDINDWG
 40
0.0504887731
  9
$TDUSRTIMER
 40
0.0504856481
  9
$USRTIMER
 70
     1
  9
$ANGBASE
 50
0.0
  9
$ANGDIR
 70
     0
  9
$PDMODE
 70
     0
  9
$PDSIZE
 40
0.0
  9
$PLINEWID
 40
0.0
  9
$COORDS
 70
     1
  9
$SPLFRAME
 70
     0
  9
$SPLINETYPE
 70
     6
  9
$SPLINESEGS
 70
     8
  9
$ATTDIA
 70
     0
  9
$ATTREQ
 70
     1
  9
$HANDLING
 70
-16383
  9
$HANDSEED
  5
7F1
  9
$SURFTAB1
 70
     6
  9
$SURFTAB2
 70
     6
  9
$SURFTYPE
 70
     6
  9
$SURFU
 70
     6
  9
$SURFV
 70
     6
  9
$UCSNAME
  2

  9
$UCSORG
 10
0.0
 20
0.0
 30
0.0
  9
$UCSXDIR
 10
1.0
 20
0.0
 30
0.0
  9
$UCSYDIR
 10
0.0
 20
1.0
 30
0.0
  9
$PUCSNAME
  2

  9
$PUCSORG
 10
0.0
 20
0.0
 30
0.0
  9
$PUCSXDIR
 10
1.0
 20
0.0
 30
0.0
  9
$PUCSYDIR
 10
0.0
 20
1.0
 30
0.0
  9
$USERI1
 70
     0
  9
$USERI2
 70
     0
  9
$USERI3
 70
     0
  9
$USERI4
 70
     0
  9
$USERI5
 70
     0
  9
$USERR1
 40
0.0
  9
$USERR2
 40
0.0
  9
$USERR3
 40
0.0
  9
$USERR4
 40
0.0
  9
$USERR5
 40
0.0
  9
$WORLDVIEW
 70
     1
  9
$SHADEDGE
 70
     3
  9
$SHADEDIF
 70
    70
  9
$TILEMODE
 70
     1
  9
$MAXACTVP
 70
    64
  9
$PINSBASE
 10
0.0
 20
0.0
 30
0.0
  9
$PLIMCHECK
 70
     0
  9
$PEXTMIN
 10
1.000000000000000E+20
 20
1.000000000000000E+20
 30
1.000000000000000E+20
  9
$PEXTMAX
 10
-1.000000000000000E+20
 20
-1.000000000000000E+20
 30
-1.000000000000000E+20
  9
$PLIMMIN
 10
0.0
 20
0.0
  9
$PLIMMAX
 10
12.0
 20
9.0
  9
$UNITMODE
 70
     0
  9
$VISRETAIN
 70
     1
  9
$PLINEGEN
 70
     0
  9
$PSLTSCALE
 70
     1
  9
$TREEDEPTH
 70
  3020
  9
$PICKSTYLE
 70
     3
  9
$CMLSTYLE
  2
STANDARD
  9
$CMLJUST
 70
     0
  9
$CMLSCALE
 40
1.0
  9
$SAVEIMAGES
 70
     1
  0
ENDSEC
  0
SECTION
  2
CLASSES
  0
CLASS
  1
ACDBDICTIONARYWDFLT
  2
AcDbDictionaryWithDefault
  3
AutoCAD 2000
 90
    32768
280
     0
281
     0
  0
CLASS
  1
ACDBPLACEHOLDER
  2
AcDbPlaceHolder
  3
AutoCAD 2000
 90
    32768
280
     0
281
     0
  0
CLASS
  1
LAYOUT
  2
AcDbLayout
  3
AutoCAD 2000
 90
    32768
280
     0
281
     0
  0
CLASS
  1
LONG_TRANSACTION
  2
AcDbLongTransaction
  3
AutoCAD 2000
 90
    32768
280
     0
281
     0
  0
CLASS
  1
LWPOLYLINE
  2
AcDbPolyline
  3
AutoCAD 2000
 90
    32768
280
     0
281
     1
  0
CLASS
  1
HATCH
  2
AcDbHatch
  3
AutoCAD 2000
 90
    32768
280
     0
281
     1
  0
CLASS
  1
XRECORD
  2
AcDbXrecord
  3
AutoCAD 2000
 90
    32768
280
     0
281
     0
  0
CLASS
  1
LONG_TRANSACTION
  2
AcDbLongTransaction
  3
AutoCAD 2000
 90
    32768
280
     0
281
     0
  0
CLASS
  1
LWPOLYLINE
  2
AcDbPolyline
  3
AutoCAD 2000
 90
    32768
280
     0
281
     1
  0
CLASS
  1
HATCH
  2
AcDbHatch
  3
AutoCAD 2000
 90
    32768
280
     0
281
     1
  0
CLASS
  1
XRECORD
  2
AcDbXrecord
  3
AutoCAD 2000
 90
    32768
280
     0
281
     0
  0
CLASS
  1
LONG_TRANSACTION
  2
AcDbLongTransaction
  3
AutoCAD 2000
 90
    32768
280
     0
281
     0
  0
CLASS
  1
LWPOLYLINE
  2
AcDbPolyline
  3
AutoCAD 2000
 90
    32768
280
     0
281
     1
  0
CLASS
  1
HATCH
  2
AcDbHatch
  3
AutoCAD 2000
 90
    32768
280
     0
281
     1
  0
CLASS
  1
XRECORD
  2
AcDbXrecord
  3
AutoCAD 2000
 90
    32768
280
     0
281
     0
  0
CLASS
  1
LONG_TRANSACTION
  2
AcDbLongTransaction
  3
AutoCAD 2000
 90
    32768
280
     0
281
     0
  0
CLASS
  1
LWPOLYLINE
  2
AcDbPolyline
  3
AutoCAD 2000
 90
    32768
280
     0
281
     1
  0
CLASS
  1
HATCH
  2
AcDbHatch
  3
AutoCAD 2000
 90
    32768
280
     0
281
     1
  0
CLASS
  1
XRECORD
  2
AcDbXrecord
  3
AutoCAD 2000
 90
    32768
280
     0
281
     0
  0
ENDSEC
  0
SECTION
  2
TABLES
  0
TABLE
  2
VPORT
  5
8
330
0
100
AcDbSymbolTable
 70
     2
  0
VPORT
  5
7EE
330
8
100
AcDbSymbolTableRecord
100
AcDbViewportTableRecord
  2
*ACTIVE
 70
     0
 10
0.0
 20
0.0
 11
1.0
 21
1.0
 12
-0.0226579187701681
 22
0.0000009778887033
 13
0.0
 23
0.0
 14
1.0
 24
1.0
 15
0.0
 25
0.0
 16
0.0
 26
0.0
 36
1.0
 17
0.0
 27
0.0
 37
0.0
 40
392.2518124923881
 41
1.432748538011695
 42
50.0
 43
0.0
 44
0.0
 50
0.0
 51
0.0
 71
     0
 72
   100
 73
     1
 74
     1
 75
     0
 76
     0
 77
     0
 78
     0
  0
ENDTAB
  0
TABLE
  2
LTYPE
  5
5
330
0
100
AcDbSymbolTable
 70
     5
  0
LTYPE
  5
13
330
5
100
AcDbSymbolTableRecord
100
AcDbLinetypeTableRecord
  2
BYBLOCK
 70
     0
  3

 72
    65
 73
     0
 40
0.0
  0
LTYPE
  5
14
330
5
100
AcDbSymbolTableRecord
100
AcDbLinetypeTableRecord
  2
BYLAYER
 70
     0
  3

 72
    65
 73
     0
 40
0.0
  0
LTYPE
  5
15
330
5
100
AcDbSymbolTableRecord
100
AcDbLinetypeTableRecord
  2
CONTINUOUS
 70
     0
  3
実線
 72
    65
 73
     0
 40
0.0
  0
LTYPE
  5
23
330
5
100
AcDbSymbolTableRecord
100
AcDbLinetypeTableRecord
  2
HIDDEN
 70
     0
  3
_ _ _ _ _ _ _ _ _ _ _ _ _ _ _ _ _ _ _ _ _ _ _
 72
    65
 73
     2
 40
0.375
 49
0.25
 74
     0
 49
-0.125
 74
     0
  0
LTYPE
  5
24
330
5
100
AcDbSymbolTableRecord
100
AcDbLinetypeTableRecord
  2
DASHED
 70
     0
  3
__ __ __ __ __ __ __ __ __ __ __ __ __ __ __
 72
    65
 73
     2
 40
0.75
 49
0.5
 74
     0
 49
-0.25
 74
     0
  0
LTYPE
  5
25
330
5
100
AcDbSymbolTableRecord
100
AcDbLinetypeTableRecord
  2
CENTER
 70
     0
  3
____ _ ____ _ ____ _ ____ _ ____ _ ____ _ ____
 72
    65
 73
     4
 40
2.0
 49
1.25
 74
     0
 49
-0.25
 74
     0
 49
0.25
 74
     0
 49
-0.25
 74
     0
  0
LTYPE
  5
26
330
5
100
AcDbSymbolTableRecord
100
AcDbLinetypeTableRecord
  2
PHANTOM
 70
     0
  3
_____ _ _ _____ _ _ _____ _ _ _____ _ _ ____
 72
    65
 73
     6
 40
2.5
 49
1.25
 74
     0
 49
-0.25
 74
     0
 49
0.25
 74
     0
 49
-0.25
 74
     0
 49
0.25
 74
     0
 49
-0.25
 74
     0
  0
ENDTAB
  0
TABLE
  2
LAYER
  5
2
330
0
100
AcDbSymbolTable
 70
     4
  0
LAYER
  5
10
330
2
100
AcDbSymbolTableRecord
100
AcDbLayerTableRecord
  2
0
 70
     0
 62
     7
  6
CONTINUOUS
  0
LAYER
  5
27
330
2
100
AcDbSymbolTableRecord
100
AcDbLayerTableRecord
  2
1
 70
     0
 62
     7
  6
CONTINUOUS
  0
LAYER
  5
28
330
2
100
AcDbSymbolTableRecord
100
AcDbLayerTableRecord
  2
2
 70
     0
 62
     7
  6
CONTINUOUS
  0
LAYER
  5
29
330
2
100
AcDbSymbolTableRecord
100
AcDbLayerTableRecord
  2
3
 70
     0
 62
     7
  6
CONTINUOUS
  0
ENDTAB
  0
TABLE
  2
STYLE
  5
3
330
0
100
AcDbSymbolTable
 70
     2
  0
STYLE
  5
11
330
3
100
AcDbSymbolTableRecord
100
AcDbTextStyleTableRecord
  2
STANDARD
 70
     0
 40
0.0
 41
1.0
 50
0.0
 71
     0
 42
0.2
  3
txt
  4

  0
STYLE
  5
22
330
3
100
AcDbSymbolTableRecord
100
AcDbTextStyleTableRecord
  2
BIGFONT
 70
     0
 40
0.0
 41
1.0
 50
0.0
 71
     0
 42
1.0
  3

  4
bigfont
  0
ENDTAB
  0
TABLE
  2
VIEW
  5
6
330
0
100
AcDbSymbolTable
 70
     0
  0
ENDTAB
  0
TABLE
  2
UCS
  5
7
330
0
100
AcDbSymbolTable
 70
     0
  0
ENDTAB
  0
TABLE
  2
APPID
  5
9
330
0
100
AcDbSymbolTable
 70
     1
  0
APPID
  5
12
330
9
100
AcDbSymbolTableRecord
100
AcDbRegAppTableRecord
  2
ACAD
 70
     0
  0
ENDTAB
  0
TABLE
  2
DIMSTYLE
  5
A
330
0
100
AcDbSymbolTable
 70
     1
  0
DIMSTYLE
105
682
330
A
100
AcDbSymbolTableRecord
100
AcDbDimStyleTableRecord
  2
STANDARD
 70
     0
  3

  4

  5

  6

  7

 40
1.0
 41
0.18
 42
0.0625
 43
0.38
 44
0.18
 45
0.0
 46
0.0
 47
0.0
 48
0.0
140
0.18
141
0.09
142
0.0
143
25.4
144
1.0
145
0.0
146
1.0
147
0.09
 71
     0
 72
     0
 73
     1
 74
     1
 75
     0
 76
     0
 77
     0
 78
     0
170
     0
171
     2
172
     0
173
     0
174
     0
175
     0
176
     0
177
     0
178
     0
270
     2
271
     4
272
     4
273
     2
274
     2
340
11
275
     0
280
     0
281
     0
282
     0
283
     1
284
     0
285
     0
286
     0
287
     3
288
     0
  0
ENDTAB
  0
TABLE
  2
BLOCK_RECORD
  5
1
330
0
100
AcDbSymbolTable
 70
     0
  0
BLOCK_RECORD
  5
1E
102
{ACAD_XDICTIONARY
360
7C9
102
}
330
1
100
AcDbSymbolTableRecord
100
AcDbBlockTableRecord
  2
*MODEL_SPACE
  0
BLOCK_RECORD
  5
1A
102
{ACAD_XDICTIONARY
360
7C7
102
}
330
1
100
AcDbSymbolTableRecord
100
AcDbBlockTableRecord
  2
*PAPER_SPACE
  0
ENDTAB
  0
ENDSEC
  0
SECTION
  2
BLOCKS
  0
BLOCK
  5
1F
330
1E
100
AcDbEntity
  8
0
100
AcDbBlockBegin
  2
*MODEL_SPACE
 70
     0
 10
0.0
 20
0.0
 30
0.0
  3
*MODEL_SPACE
  1

  0
ENDBLK
  5
20
330
1E
100
AcDbEntity
  8
0
100
AcDbBlockEnd
  0
BLOCK
  5
1B
330
1A
100
AcDbEntity
 67
     1
  8
0
100
AcDbBlockBegin
  2
*PAPER_SPACE
 70
     0
 10
0.0
 20
0.0
 30
0.0
  3
*PAPER_SPACE
  1

  0
ENDBLK
  5
1C
330
1A
100
AcDbEntity
 67
     1
  8
0
100
AcDbBlockEnd
  0
ENDSEC
  0
SECTION
  2
ENTITIES
  0
LINE
  5
2D
330
1E
100
AcDbEntity
  8
0
  6
CONTINUOUS
 62
     7
100
AcDbLine
 10
169.3180999999999
 20
123.50796
 30
0.0
 11
174.05143
 21
123.50796
 31
0.0
  0
LINE
  5
2E
330
1E
100
AcDbEntity
  8
0
  6
CONTINUOUS
 62
     7
100
AcDbLine
 10
169.0181
 20
123.20796
 30
0.0
 11
169.3180999999999
 21
123.50796
 31
0.0
  0
LINE
  5
2F
330
1E
100
AcDbEntity
  8
0
  6
CONTINUOUS
 62
     7
100
AcDbLine
 10
174.05143
 20
123.50796
 30
0.0
 11
174.35143
 21
123.20796
 31
0.0
  0
LINE
  5
30
330
1E
100
AcDbEntity
  8
0
  6
CONTINUOUS
 62
     7
100
AcDbLine
 10
136.5180999999999
 20
48.50795999999998
 30
0.0
 11
136.5180999999999
 21
123.50796
 31
0.0
  0
LINE
  5
31
330
1E
100
AcDbEntity
  8
0
  6
CONTINUOUS
 62
     7
100
AcDbLine
 10
168.0181
 20
123.50796
 30
0.0
 11
135.7180999999999
 21
123.50796
 31
0.0
  0
LINE
  5
32
330
1E
100
AcDbEntity
  8
0
  6
CONTINUOUS
 62
     7
100
AcDbLine
 10
168.0181
 20
48.50795999999998
 30
0.0
 11
135.7180999999999
 21
48.50795999999998
 31
0.0
  0
LINE
  5
33
330
1E
100
AcDbEntity
  8
0
  6
CONTINUOUS
 62
     7
100
AcDbLine
 10
136.8395299999999
 20
122.307
 30
0.0
 11
136.518
 21
123.507
 31
0.0
  0
LINE
  5
34
330
1E
100
AcDbEntity
  8
0
  6
CONTINUOUS
 62
     7
100
AcDbLine
 10
136.518
 20
123.507
 30
0.0
 11
136.19646
 21
122.307
 31
0.0
  0
LINE
  5
35
330
1E
100
AcDbEntity
  8
0
  6
CONTINUOUS
 62
     7
100
AcDbLine
 10
136.19646
 20
49.707
 30
0.0
 11
136.518
 21
48.50699999999999
 31
0.0
  0
LINE
  5
36
330
1E
100
AcDbEntity
  8
0
  6
CONTINUOUS
 62
     7
100
AcDbLine
 10
136.518
 20
48.50699999999999
 30
0.0
 11
136.8395299999999
 21
49.707
 31
0.0
  0
TEXT
  5
37
330
1E
100
AcDbEntity
  8
0
  6
CONTINUOUS
 62
     7
100
AcDbText
 10
136.1180999999999
 20
80.80795999999997
 30
0.0
 40
3.2
  1
2250
 50
90.0
 41
0.8125
  7
BIGFONT
100
AcDbText
  0
LINE
  5
38
330
1E
100
AcDbEntity
  8
0
  6
CONTINUOUS
 62
     7
100
AcDbLine
 10
169.0181
 20
140.17463
 30
0.0
 11
174.35143
 21
140.17463
 31
0.0
  0
LINE
  5
39
330
1E
100
AcDbEntity
  8
0
  6
CONTINUOUS
 62
     7
100
AcDbLine
 10
174.35143
 20
124.50796
 30
0.0
 11
174.35143
 21
140.9746299999999
 31
0.0
  0
LINE
  5
3A
330
1E
100
AcDbEntity
  8
0
  6
CONTINUOUS
 62
     7
100
AcDbLine
 10
169.0181
 20
124.50796
 30
0.0
 11
169.0181
 21
140.9746299999999
 31
0.0
  0
LINE
  5
3B
330
1E
100
AcDbEntity
  8
0
  6
CONTINUOUS
 62
     7
100
AcDbLine
 10
173.1509999999999
 20
139.85246
 30
0.0
 11
174.351
 21
140.174
 31
0.0
  0
LINE
  5
3C
330
1E
100
AcDbEntity
  8
0
  6
CONTINUOUS
 62
     7
100
AcDbLine
 10
174.351
 20
140.174
 30
0.0
 11
173.1509999999999
 21
140.49553
 31
0.0
  0
LINE
  5
3D
330
1E
100
AcDbEntity
  8
0
  6
CONTINUOUS
 62
     7
100
AcDbLine
 10
170.218
 20
140.49553
 30
0.0
 11
169.0179999999999
 21
140.174
 31
0.0
  0
LINE
  5
3E
330
1E
100
AcDbEntity
  8
0
  6
CONTINUOUS
 62
     7
100
AcDbLine
 10
169.0179999999999
 20
140.174
 30
0.0
 11
170.218
 21
139.85246
 31
0.0
  0
TEXT
  5
3F
330
1E
100
AcDbEntity
  8
0
  6
CONTINUOUS
 62
     7
100
AcDbText
 10
169.1111071175505
 20
140.57463
 30
0.0
 40
3.2
  1
160
 41
0.8125
  7
BIGFONT
100
AcDbText
  0
LINE
  5
40
330
1E
100
AcDbEntity
  8
0
  6
CONTINUOUS
 62
     7
100
AcDbLine
 10
232.3514299999999
 20
110.17463
 30
0.0
 11
232.3514299999999
 21
123.50796
 31
0.0
  0
LINE
  5
41
330
1E
100
AcDbEntity
  8
0
  6
CONTINUOUS
 62
     7
100
AcDbLine
 10
232.2514299999999
 20
110.0746299999999
 30
0.0
 11
232.3514299999999
 21
110.17463
 31
0.0
  0
LINE
  5
42
330
1E
100
AcDbEntity
  8
0
  6
CONTINUOUS
 62
     7
100
AcDbLine
 10
232.2514299999999
 20
59.27463
 30
0.0
 11
232.3514299999999
 21
59.17463000000001
 31
0.0
  0
LINE
  5
43
330
1E
100
AcDbEntity
  8
0
  6
CONTINUOUS
 62
     7
100
AcDbLine
 10
232.2514299999999
 20
59.27463
 30
0.0
 11
232.2514299999999
 21
110.0746299999999
 31
0.0
  0
LINE
  5
44
330
1E
100
AcDbEntity
  8
0
  6
CONTINUOUS
 62
     7
100
AcDbLine
 10
169.0181
 20
48.50795999999998
 30
0.0
 11
232.35133
 21
48.50795999999998
 31
0.0
  0
LINE
  5
45
330
1E
100
AcDbEntity
  8
0
  6
CONTINUOUS
 62
     7
100
AcDbLine
 10
167.0972599999998
 20
89.34099999999999
 30
0.0
 11
171.13983
 21
89.34099999999999
 31
0.0
  0
LINE
  5
46
330
1E
100
AcDbEntity
  8
0
  6
CONTINUOUS
 62
     7
100
AcDbLine
 10
171.5934
 20
89.34099999999999
 30
0.0
 11
171.7906
 21
89.34099999999999
 31
0.0
  0
LINE
  5
47
330
1E
100
AcDbEntity
  8
0
  6
CONTINUOUS
 62
     7
100
AcDbLine
 10
212.3526
 20
89.34099999999999
 30
0.0
 11
218.99926
 21
89.34099999999999
 31
0.0
  0
LINE
  5
48
330
1E
100
AcDbEntity
  8
0
  6
CONTINUOUS
 62
     7
100
AcDbLine
 10
151.56666
 20
48.50795999999998
 30
0.0
 11
151.56666
 21
59.17463000000001
 31
0.0
  0
LINE
  5
49
330
1E
100
AcDbEntity
  8
0
  6
CONTINUOUS
 62
     7
100
AcDbLine
 10
168.0181
 20
59.17463000000001
 30
0.0
 11
150.76666
 21
59.17463000000001
 31
0.0
  0
LINE
  5
4A
330
1E
100
AcDbEntity
  8
0
  6
CONTINUOUS
 62
     7
100
AcDbLine
 10
151.56666
 20
48.50795999999998
 30
0.0
 11
151.56666
 21
48.50795999999998
 31
0.0
  0
LINE
  5
4B
330
1E
100
AcDbEntity
  8
0
  6
CONTINUOUS
 62
     7
100
AcDbLine
 10
151.8875299999999
 20
57.97399999999999
 30
0.0
 11
151.566
 21
59.174
 31
0.0
  0
LINE
  5
4C
330
1E
100
AcDbEntity
  8
0
  6
CONTINUOUS
 62
     7
100
AcDbLine
 10
151.566
 20
59.174
 30
0.0
 11
151.24446
 21
57.97399999999999
 31
0.0
  0
LINE
  5
4D
330
1E
100
AcDbEntity
  8
0
  6
CONTINUOUS
 62
     7
100
AcDbLine
 10
151.24446
 20
49.707
 30
0.0
 11
151.566
 21
48.50699999999999
 31
0.0
  0
LINE
  5
4E
330
1E
100
AcDbEntity
  8
0
  6
CONTINUOUS
 62
     7
100
AcDbLine
 10
151.566
 20
48.50699999999999
 30
0.0
 11
151.8875299999999
 21
49.707
 31
0.0
  0
TEXT
  5
4F
330
1E
100
AcDbEntity
  8
0
  6
CONTINUOUS
 62
     7
100
AcDbText
 10
151.16666
 20
49.9413
 30
0.0
 40
3.2
  1
320
 50
90.0
 41
0.8125
  7
BIGFONT
100
AcDbText
  0
LINE
  5
50
330
1E
100
AcDbEntity
  8
0
  6
CONTINUOUS
 62
     7
100
AcDbLine
 10
151.56666
 20
59.17463000000001
 30
0.0
 11
151.56666
 21
110.17433
 31
0.0
  0
LINE
  5
51
330
1E
100
AcDbEntity
  8
0
  6
CONTINUOUS
 62
     7
100
AcDbLine
 10
168.0181
 20
110.17433
 30
0.0
 11
150.76666
 21
110.17433
 31
0.0
  0
LINE
  5
52
330
1E
100
AcDbEntity
  8
0
  6
CONTINUOUS
 62
     7
100
AcDbLine
 10
151.8875299999999
 20
108.9739999999999
 30
0.0
 11
151.566
 21
110.1739999999999
 31
0.0
  0
LINE
  5
53
330
1E
100
AcDbEntity
  8
0
  6
CONTINUOUS
 62
     7
100
AcDbLine
 10
151.566
 20
110.1739999999999
 30
0.0
 11
151.24446
 21
108.9739999999999
 31
0.0
  0
LINE
  5
54
330
1E
100
AcDbEntity
  8
0
  6
CONTINUOUS
 62
     7
100
AcDbLine
 10
151.24446
 20
60.37399999999998
 30
0.0
 11
151.566
 21
59.174
 31
0.0
  0
LINE
  5
55
330
1E
100
AcDbEntity
  8
0
  6
CONTINUOUS
 62
     7
100
AcDbLine
 10
151.566
 20
59.174
 30
0.0
 11
151.8875299999999
 21
60.37399999999998
 31
0.0
  0
TEXT
  5
56
330
1E
100
AcDbEntity
  8
0
  6
CONTINUOUS
 62
     7
100
AcDbText
 10
151.16666
 20
79.47448
 30
0.0
 40
3.2
  1
1530
 50
90.0
 41
0.8125
  7
BIGFONT
100
AcDbText
  0
LINE
  5
57
330
1E
100
AcDbEntity
  8
0
  6
CONTINUOUS
 62
     7
100
AcDbLine
 10
151.56666
 20
110.17433
 30
0.0
 11
151.56666
 21
123.50796
 31
0.0
  0
LINE
  5
58
330
1E
100
AcDbEntity
  8
0
  6
CONTINUOUS
 62
     7
100
AcDbLine
 10
151.56666
 20
123.50796
 30
0.0
 11
151.56666
 21
123.50796
 31
0.0
  0
LINE
  5
59
330
1E
100
AcDbEntity
  8
0
  6
CONTINUOUS
 62
     7
100
AcDbLine
 10
151.8875299999999
 20
122.307
 30
0.0
 11
151.566
 21
123.507
 31
0.0
  0
LINE
  5
5A
330
1E
100
AcDbEntity
  8
0
  6
CONTINUOUS
 62
     7
100
AcDbLine
 10
151.566
 20
123.507
 30
0.0
 11
151.24446
 21
122.307
 31
0.0
  0
LINE
  5
5B
330
1E
100
AcDbEntity
  8
0
  6
CONTINUOUS
 62
     7
100
AcDbLine
 10
151.24446
 20
111.3739999999999
 30
0.0
 11
151.566
 21
110.1739999999999
 31
0.0
  0
LINE
  5
5C
330
1E
100
AcDbEntity
  8
0
  6
CONTINUOUS
 62
     7
100
AcDbLine
 10
151.566
 20
110.1739999999999
 30
0.0
 11
151.8875299999999
 21
111.3739999999999
 31
0.0
  0
TEXT
  5
5D
330
1E
100
AcDbEntity
  8
0
  6
CONTINUOUS
 62
     7
100
AcDbText
 10
151.16666
 20
112.94115
 30
0.0
 40
3.2
  1
400
 50
90.0
 41
0.8125
  7
BIGFONT
100
AcDbText
  0
LINE
  5
5E
330
1E
100
AcDbEntity
  8
0
  6
CONTINUOUS
 62
     7
100
AcDbLine
 10
232.3514299999999
 20
48.90795999999999
 30
0.0
 11
232.3514299999999
 21
59.17463000000001
 31
0.0
  0
LINE
  5
5F
330
1E
100
AcDbEntity
  8
0
  6
CONTINUOUS
 62
     7
100
AcDbLine
 10
159.06666
 20
112.48596
 30
0.0
 11
159.06666
 21
123.50796
 31
0.0
  0
LINE
  5
60
330
1E
100
AcDbEntity
  8
0
  6
CONTINUOUS
 62
     7
100
AcDbLine
 10
159.2128299999999
 20
123.50796
 30
0.0
 11
158.26666
 21
123.50796
 31
0.0
  0
LINE
  5
61
330
1E
100
AcDbEntity
  8
0
  6
CONTINUOUS
 62
     7
100
AcDbLine
 10
168.0181
 20
112.48596
 30
0.0
 11
158.26666
 21
112.48596
 31
0.0
  0
LINE
  5
62
330
1E
100
AcDbEntity
  8
0
  6
CONTINUOUS
 62
     7
100
AcDbLine
 10
159.38753
 20
122.307
 30
0.0
 11
159.0659999999999
 21
123.507
 31
0.0
  0
LINE
  5
63
330
1E
100
AcDbEntity
  8
0
  6
CONTINUOUS
 62
     7
100
AcDbLine
 10
159.0659999999999
 20
123.507
 30
0.0
 11
158.7444599999999
 21
122.307
 31
0.0
  0
LINE
  5
64
330
1E
100
AcDbEntity
  8
0
  6
CONTINUOUS
 62
     7
100
AcDbLine
 10
158.7444599999999
 20
113.685
 30
0.0
 11
159.0659999999999
 21
112.485
 31
0.0
  0
LINE
  5
65
330
1E
100
AcDbEntity
  8
0
  6
CONTINUOUS
 62
     7
100
AcDbLine
 10
159.0659999999999
 20
112.485
 30
0.0
 11
159.38753
 21
113.685
 31
0.0
  0
TEXT
  5
66
330
1E
100
AcDbEntity
  8
0
  6
CONTINUOUS
 62
     7
100
AcDbText
 10
158.66666
 20
114.09696
 30
0.0
 40
3.2
  1
330
 50
90.0
 41
0.8125
  7
BIGFONT
100
AcDbText
  0
LINE
  5
67
330
1E
100
AcDbEntity
  8
0
  6
CONTINUOUS
 62
     7
100
AcDbLine
 10
152.93596
 20
53.841
 30
0.0
 11
168.03136
 21
53.841
 31
0.0
  0
CIRCLE
  5
68
330
1E
100
AcDbEntity
  8
0
  6
CONTINUOUS
 62
     7
100
AcDbCircle
 10
215.68466
 20
89.34600000000001
 30
0.0
 40
1.25
  0
LINE
  5
69
330
1E
100
AcDbEntity
  8
0
  6
CONTINUOUS
 62
     7
100
AcDbLine
 10
215.68466
 20
86.09099999999996
 30
0.0
 11
215.68466
 21
92.73766
 31
0.0
  0
LINE
  5
6A
330
1E
100
AcDbEntity
  8
3
  6
CONTINUOUS
 62
     7
100
AcDbLine
 10
169.4169999999999
 20
-192.44
 30
0.0
 11
169.4169999999999
 21
-142.44
 31
0.0
  0
LINE
  5
6B
330
1E
100
AcDbEntity
  8
3
  6
CONTINUOUS
 62
     7
100
AcDbLine
 10
169.4169999999999
 20
-192.44
 30
0.0
 11
169.4169999999999
 21
-142.44
 31
0.0
  0
LINE
  5
6C
330
1E
100
AcDbEntity
  8
3
  6
CONTINUOUS
 62
     7
100
AcDbLine
 10
169.4169999999999
 20
-192.44
 30
0.0
 11
169.4169999999999
 21
-142.44
 31
0.0
  0
LINE
  5
6D
330
1E
100
AcDbEntity
  8
3
  6
CONTINUOUS
 62
     7
100
AcDbLine
 10
169.4169999999999
 20
-192.44
 30
0.0
 11
169.4169999999999
 21
-142.44
 31
0.0
  0
LINE
  5
6E
330
1E
100
AcDbEntity
  8
3
  6
CONTINUOUS
 62
     7
100
AcDbLine
 10
169.4169999999999
 20
-192.44
 30
0.0
 11
169.4169999999999
 21
-142.44
 31
0.0
  0
LINE
  5
6F
330
1E
100
AcDbEntity
  8
3
  6
CONTINUOUS
 62
     7
100
AcDbLine
 10
169.4169999999999
 20
-192.44
 30
0.0
 11
169.4169999999999
 21
-142.44
 31
0.0
  0
LINE
  5
70
330
1E
100
AcDbEntity
  8
3
  6
CONTINUOUS
 62
     7
100
AcDbLine
 10
169.4169999999999
 20
-142.44
 30
0.0
 11
269.4169999999999
 21
-142.44
 31
0.0
  0
LINE
  5
71
330
1E
100
AcDbEntity
  8
3
  6
CONTINUOUS
 62
     7
100
AcDbLine
 10
269.4169999999999
 20
-192.44
 30
0.0
 11
269.4169999999999
 21
-142.44
 31
0.0
  0
LINE
  5
72
330
1E
100
AcDbEntity
  8
3
  6
CONTINUOUS
 62
     7
100
AcDbLine
 10
169.4169999999999
 20
-192.44
 30
0.0
 11
269.4169999999999
 21
-192.44
 31
0.0
  0
LINE
  5
73
330
1E
100
AcDbEntity
  8
3
  6
CONTINUOUS
 62
     7
100
AcDbLine
 10
169.4169999999999
 20
-192.44
 30
0.0
 11
169.4169999999999
 21
-142.44
 31
0.0
  0
LINE
  5
74
330
1E
100
AcDbEntity
  8
3
  6
CONTINUOUS
 62
     7
100
AcDbLine
 10
169.4169999999999
 20
-192.44
 30
0.0
 11
269.4169999999999
 21
-192.44
 31
0.0
  0
LINE
  5
75
330
1E
100
AcDbEntity
  8
3
  6
CONTINUOUS
 62
     7
100
AcDbLine
 10
169.4169999999999
 20
-192.44
 30
0.0
 11
169.4169999999999
 21
-142.44
 31
0.0
  0
LINE
  5
76
330
1E
100
AcDbEntity
  8
3
  6
CONTINUOUS
 62
     7
100
AcDbLine
 10
169.4169999999999
 20
-152.4399999999999
 30
0.0
 11
269.4169999999999
 21
-152.4399999999999
 31
0.0
  0
LINE
  5
77
330
1E
100
AcDbEntity
  8
3
  6
CONTINUOUS
 62
     7
100
AcDbLine
 10
169.4169999999999
 20
-160.44
 30
0.0
 11
269.4169999999999
 21
-160.44
 31
0.0
  0
LINE
  5
78
330
1E
100
AcDbEntity
  8
3
  6
CONTINUOUS
 62
     7
100
AcDbLine
 10
169.4169999999999
 20
-168.44
 30
0.0
 11
269.4169999999999
 21
-168.44
 31
0.0
  0
LINE
  5
79
330
1E
100
AcDbEntity
  8
3
  6
CONTINUOUS
 62
     7
100
AcDbLine
 10
169.4169999999999
 20
-181.44
 30
0.0
 11
269.4169999999999
 21
-181.44
 31
0.0
  0
LINE
  5
7A
330
1E
100
AcDbEntity
  8
3
  6
CONTINUOUS
 62
     7
100
AcDbLine
 10
196.417
 20
-181.44
 30
0.0
 11
196.417
 21
-142.44
 31
0.0
  0
LINE
  5
7B
330
1E
100
AcDbEntity
  8
3
  6
CONTINUOUS
 62
     7
100
AcDbLine
 10
189.417
 20
-181.44
 30
0.0
 11
189.417
 21
-168.44
 31
0.0
  0
LINE
  5
7C
330
1E
100
AcDbEntity
  8
3
  6
CONTINUOUS
 62
     7
100
AcDbLine
 10
176.417
 20
-181.44
 30
0.0
 11
176.417
 21
-168.44
 31
0.0
  0
LINE
  5
7D
330
1E
100
AcDbEntity
  8
3
  6
CONTINUOUS
 62
     7
100
AcDbLine
 10
209.417
 20
-181.44
 30
0.0
 11
209.417
 21
-168.44
 31
0.0
  0
LINE
  5
7E
330
1E
100
AcDbEntity
  8
3
  6
CONTINUOUS
 62
     7
100
AcDbLine
 10
216.4169999999999
 20
-181.44
 30
0.0
 11
216.4169999999999
 21
-168.44
 31
0.0
  0
LINE
  5
7F
330
1E
100
AcDbEntity
  8
3
  6
CONTINUOUS
 62
     7
100
AcDbLine
 10
229.417
 20
-181.44
 30
0.0
 11
229.417
 21
-168.44
 31
0.0
  0
LINE
  5
80
330
1E
100
AcDbEntity
  8
3
  6
CONTINUOUS
 62
     7
100
AcDbLine
 10
236.417
 20
-181.44
 30
0.0
 11
236.417
 21
-168.44
 31
0.0
  0
LINE
  5
81
330
1E
100
AcDbEntity
  8
3
  6
CONTINUOUS
 62
     7
100
AcDbLine
 10
249.4169999999999
 20
-181.44
 30
0.0
 11
249.4169999999999
 21
-168.44
 31
0.0
  0
LINE
  5
82
330
1E
100
AcDbEntity
  8
3
  6
CONTINUOUS
 62
     7
100
AcDbLine
 10
256.4169999999999
 20
-181.44
 30
0.0
 11
256.4169999999999
 21
-168.44
 31
0.0
  0
LINE
  5
83
330
1E
100
AcDbEntity
  8
3
  6
CONTINUOUS
 62
     7
100
AcDbLine
 10
221.417
 20
-160.44
 30
0.0
 11
221.417
 21
-152.4399999999999
 31
0.0
  0
LINE
  5
84
330
1E
100
AcDbEntity
  8
3
  6
CONTINUOUS
 62
     7
100
AcDbLine
 10
244.417
 20
-160.44
 30
0.0
 11
244.417
 21
-152.4399999999999
 31
0.0
  0
TEXT
  5
85
330
1E
100
AcDbEntity
  8
3
  6
CONTINUOUS
 62
     7
100
AcDbText
 10
172.7319999999999
 20
-150.304
 30
0.0
 40
5.0
  1
図面名
  7
BIGFONT
100
AcDbText
  0
TEXT
  5
86
330
1E
100
AcDbEntity
  8
3
  6
CONTINUOUS
 62
     7
100
AcDbText
 10
173.2119999999999
 20
-158.666
 30
0.0
 40
4.0
  1
縮尺
  7
BIGFONT
100
AcDbText
  0
TEXT
  5
87
330
1E
100
AcDbEntity
  8
3
  6
CONTINUOUS
 62
     7
100
AcDbText
 10
223.6479999999999
 20
-158.5699999999999
 30
0.0
 40
4.0
  1
図面番号
  7
BIGFONT
100
AcDbText
  0
TEXT
  5
88
330
1E
100
AcDbEntity
  8
3
  6
CONTINUOUS
 62
     7
100
AcDbText
 10
173.02
 20
-166.644
 30
0.0
 40
4.0
  1
設計年月日
  7
BIGFONT
100
AcDbText
  0
TEXT
  5
89
330
1E
100
AcDbEntity
  8
3
  6
CONTINUOUS
 62
     7
100
AcDbText
 10
205.107
 20
-166.644
 30
0.0
 40
4.0
  1
平成　　年　　月　　日
  7
BIGFONT
100
AcDbText
  0
TEXT
  5
8A
330
1E
100
AcDbEntity
  8
3
  6
CONTINUOUS
 62
     7
100
AcDbText
 10
191.4461960087865
 20
-190.3739999999999
 30
0.0
 40
6.0
  1
千葉窯業株式会社
  7
BIGFONT
100
AcDbText
  0
TEXT
  5
8B
330
1E
100
AcDbEntity
  8
3
  6
CONTINUOUS
 62
     7
100
AcDbText
 10
171.0989999999999
 20
-170.201
 30
0.0
 40
4.0
  1
部長
 50
270.0
  7
BIGFONT
100
AcDbText
  0
TEXT
  5
8C
330
1E
100
AcDbEntity
  8
3
  6
CONTINUOUS
 62
     7
100
AcDbText
 10
191.0809999999999
 20
-170.201
 30
0.0
 40
4.0
  1
課長
 50
270.0
  7
BIGFONT
100
AcDbText
  0
TEXT
  5
8D
330
1E
100
AcDbEntity
  8
3
  6
CONTINUOUS
 62
     7
100
AcDbText
 10
211.063
 20
-170.201
 30
0.0
 40
4.0
  1
検図
 50
270.0
  7
BIGFONT
100
AcDbText
  0
TEXT
  5
8E
330
1E
100
AcDbEntity
  8
3
  6
CONTINUOUS
 62
     7
100
AcDbText
 10
231.238
 20
-170.201
 30
0.0
 40
4.0
  1
設計
 50
270.0
  7
BIGFONT
100
AcDbText
  0
TEXT
  5
8F
330
1E
100
AcDbEntity
  8
3
  6
CONTINUOUS
 62
     7
100
AcDbText
 10
251.1239999999999
 20
-170.1049999999999
 30
0.0
 40
4.0
  1
製図
 50
270.0
  7
BIGFONT
100
AcDbText
  0
LINE
  5
90
330
1E
100
AcDbEntity
  8
3
  6
CONTINUOUS
 62
     7
100
AcDbLine
 10
169.4169999999999
 20
-192.44
 30
0.0
 11
269.4169999999999
 21
-192.44
 31
0.0
  0
LINE
  5
91
330
1E
100
AcDbEntity
  8
3
  6
CONTINUOUS
 62
     7
100
AcDbLine
 10
169.4169999999999
 20
-192.44
 30
0.0
 11
169.4169999999999
 21
-142.44
 31
0.0
  0
TEXT
  5
A1
330
1E
100
AcDbEntity
  8
3
  6
CONTINUOUS
 62
     7
100
AcDbText
 10
219.552
 20
-166.6709999999999
 30
0.0
 40
3.799999999999998
  1
３
  7
BIGFONT
100
AcDbText
  0
TEXT
  5
A2
330
1E
100
AcDbEntity
  8
3
  6
CONTINUOUS
 62
     7
100
AcDbText
 10
234.85
 20
-166.6719999999999
 30
0.0
 40
3.799999999999998
  1
６
  7
BIGFONT
100
AcDbText
  0
TEXT
  5
A3
330
1E
100
AcDbEntity
  8
3
  6
CONTINUOUS
 62
     7
100
AcDbText
 10
250.1819999999999
 20
-166.687
 30
0.0
 40
3.799999999999998
  1
１
  7
BIGFONT
100
AcDbText
  0
TEXT
  5
A4
330
1E
100
AcDbEntity
  8
3
  6
CONTINUOUS
 62
     7
100
AcDbText
 10
202.226
 20
-158.8079999999999
 30
0.0
 40
4.0
  1
１：３０
  7
BIGFONT
100
AcDbText
  0
LINE
  5
A5
330
1E
100
AcDbEntity
  8
0
  6
CONTINUOUS
 62
     7
100
AcDbLine
 10
-270.86256
 20
193.84846
 30
0.0
 11
270.8119299999999
 21
193.84846
 31
0.0
  0
LINE
  5
A6
330
1E
100
AcDbEntity
  8
0
  6
CONTINUOUS
 62
     7
100
AcDbLine
 10
270.8119299999999
 20
-193.86206
 30
0.0
 11
270.8119299999999
 21
193.84846
 31
0.0
  0
LINE
  5
A7
330
1E
100
AcDbEntity
  8
0
  6
CONTINUOUS
 62
     7
100
AcDbLine
 10
-270.86256
 20
-193.86206
 30
0.0
 11
270.8119299999999
 21
-193.86206
 31
0.0
  0
LINE
  5
A8
330
1E
100
AcDbEntity
  8
0
  6
CONTINUOUS
 62
     7
100
AcDbLine
 10
-270.86256
 20
-193.86206
 30
0.0
 11
-270.86256
 21
193.84846
 31
0.0
  0
TEXT
  5
A9
330
1E
100
AcDbEntity
  8
0
  6
CONTINUOUS
 62
     7
100
AcDbText
 10
121.73893
 20
171.8556
 30
0.0
 40
5.5
  1
Ｓ＝１：３０
  7
BIGFONT
100
AcDbText
  0
TEXT
  5
AA
330
1E
100
AcDbEntity
  8
0
  6
CONTINUOUS
 62
     7
100
AcDbText
 10
-154.44833
 20
171.06856
 30
0.0
 40
10.0
  1
ＫＬウォール３型．コーナー部構造図
  7
BIGFONT
100
AcDbText
  0
LINE
  5
AB
330
1E
100
AcDbEntity
  8
0
  6
CONTINUOUS
 62
     7
100
AcDbLine
 10
-158.82816
 20
168.82866
 30
0.0
 11
158.72773
 21
168.82866
 31
0.0
  0
TEXT
  5
AC
330
1E
100
AcDbEntity
  8
0
  6
CONTINUOUS
 62
     7
100
AcDbText
 10
50.01009199164008
 20
171.86833
 30
0.0
 40
6.5
  1
(H=2250-90°)
  7
BIGFONT
100
AcDbText
  0
LINE
  5
AD
330
1E
100
AcDbEntity
  8
0
  6
HIDDEN
 62
     7
100
AcDbLine
 10
169.0181
 20
90.59099999999999
 30
0.0
 11
174.35143
 21
90.59099999999999
 31
0.0
  0
LINE
  5
AE
330
1E
100
AcDbEntity
  8
0
  6
HIDDEN
 62
     7
100
AcDbLine
 10
169.0181
 20
88.09099999999999
 30
0.0
 11
174.35143
 21
88.09099999999999
 31
0.0
  0
LINE
  5
AF
330
1E
100
AcDbEntity
  8
0
  6
CONTINUOUS
 62
     7
100
AcDbLine
 10
169.0181
 20
59.17463000000001
 30
0.0
 11
174.35143
 21
59.17445999999999
 31
0.0
  0
LINE
  5
B0
330
1E
100
AcDbEntity
  8
0
  6
CONTINUOUS
 62
     7
100
AcDbLine
 10
232.35133
 20
48.50795999999998
 30
0.0
 11
232.35133
 21
53.84129999999998
 31
0.0
  0
LINE
  5
B1
330
1E
100
AcDbEntity
  8
0
  6
CONTINUOUS
 62
     7
100
AcDbLine
 10
219.018
 20
48.50795999999998
 30
0.0
 11
219.018
 21
53.84129999999998
 31
0.0
  0
LINE
  5
B2
330
1E
100
AcDbEntity
  8
0
  6
CONTINUOUS
 62
     7
100
AcDbLine
 10
169.0181
 20
-98.15640000000001
 30
0.0
 11
169.0181
 21
-34.82305999999999
 31
0.0
  0
LINE
  5
B3
330
1E
100
AcDbEntity
  8
0
  6
CONTINUOUS
 62
     7
100
AcDbLine
 10
169.0181
 20
-34.82305999999999
 30
0.0
 11
232.3514299999999
 21
-34.82305999999999
 31
0.0
  0
LINE
  5
B4
330
1E
100
AcDbEntity
  8
0
  6
CONTINUOUS
 62
     7
100
AcDbLine
 10
169.0181
 20
-98.15640000000001
 30
0.0
 11
219.0180999999999
 21
-98.15640000000001
 31
0.0
  0
LINE
  5
B5
330
1E
100
AcDbEntity
  8
0
  6
CONTINUOUS
 62
     7
100
AcDbLine
 10
185.68476
 20
-43.48972999999999
 30
0.0
 11
232.3514299999999
 21
-43.48972999999999
 31
0.0
  0
LINE
  5
B6
330
1E
100
AcDbEntity
  8
0
  6
CONTINUOUS
 62
     7
100
AcDbLine
 10
185.68476
 20
-43.48972999999999
 30
0.0
 11
185.68476
 21
-40.1564
 31
0.0
  0
LINE
  5
B7
330
1E
100
AcDbEntity
  8
0
  6
CONTINUOUS
 62
     7
100
AcDbLine
 10
177.68476
 20
-98.15640000000001
 30
0.0
 11
177.68476
 21
-51.48973
 31
0.0
  0
LINE
  5
B8
330
1E
100
AcDbEntity
  8
0
  6
CONTINUOUS
 62
     7
100
AcDbLine
 10
174.35143
 20
-51.48973
 30
0.0
 11
177.68476
 21
-51.48973
 31
0.0
  0
LINE
  5
B9
330
1E
100
AcDbEntity
  8
0
  6
CONTINUOUS
 62
     7
100
AcDbLine
 10
169.0181
 20
-115.6564
 30
0.0
 11
219.0180999999999
 21
-115.6564
 31
0.0
  0
LINE
  5
BA
330
1E
100
AcDbEntity
  8
0
  6
CONTINUOUS
 62
     7
100
AcDbLine
 10
219.0180999999999
 20
-99.15640000000001
 30
0.0
 11
219.0180999999999
 21
-116.4564
 31
0.0
  0
LINE
  5
BB
330
1E
100
AcDbEntity
  8
0
  6
CONTINUOUS
 62
     7
100
AcDbLine
 10
169.0181
 20
-99.15640000000001
 30
0.0
 11
169.0181
 21
-116.4564
 31
0.0
  0
LINE
  5
BC
330
1E
100
AcDbEntity
  8
0
  6
CONTINUOUS
 62
     7
100
AcDbLine
 10
217.8179999999999
 20
-115.9775299999999
 30
0.0
 11
219.018
 21
-115.656
 31
0.0
  0
LINE
  5
BD
330
1E
100
AcDbEntity
  8
0
  6
CONTINUOUS
 62
     7
100
AcDbLine
 10
219.018
 20
-115.656
 30
0.0
 11
217.8179999999999
 21
-115.33446
 31
0.0
  0
LINE
  5
BE
330
1E
100
AcDbEntity
  8
0
  6
CONTINUOUS
 62
     7
100
AcDbLine
 10
170.218
 20
-115.33446
 30
0.0
 11
169.0179999999999
 21
-115.656
 31
0.0
  0
LINE
  5
BF
330
1E
100
AcDbEntity
  8
0
  6
CONTINUOUS
 62
     7
100
AcDbLine
 10
169.0179999999999
 20
-115.656
 30
0.0
 11
170.218
 21
-115.9775299999999
 31
0.0
  0
TEXT
  5
C0
330
1E
100
AcDbEntity
  8
0
  6
CONTINUOUS
 62
     7
100
AcDbText
 10
188.8180999999999
 20
-115.2563999999999
 30
0.0
 40
3.2
  1
1500
 41
0.8125
  7
BIGFONT
100
AcDbText
  0
LINE
  5
C1
330
1E
100
AcDbEntity
  8
0
  6
CONTINUOUS
 62
     7
100
AcDbLine
 10
169.0181
 20
-108.1563999999999
 30
0.0
 11
174.35143
 21
-108.1563999999999
 31
0.0
  0
LINE
  5
C2
330
1E
100
AcDbEntity
  8
0
  6
CONTINUOUS
 62
     7
100
AcDbLine
 10
174.35143
 20
-99.15640000000001
 30
0.0
 11
174.35143
 21
-108.9563999999999
 31
0.0
  0
LINE
  5
C3
330
1E
100
AcDbEntity
  8
0
  6
CONTINUOUS
 62
     7
100
AcDbLine
 10
169.0181
 20
-105.5968
 30
0.0
 11
169.0181
 21
-108.9563999999999
 31
0.0
  0
LINE
  5
C4
330
1E
100
AcDbEntity
  8
0
  6
CONTINUOUS
 62
     7
100
AcDbLine
 10
173.1509999999999
 20
-108.4775299999999
 30
0.0
 11
174.351
 21
-108.156
 31
0.0
  0
LINE
  5
C5
330
1E
100
AcDbEntity
  8
0
  6
CONTINUOUS
 62
     7
100
AcDbLine
 10
174.351
 20
-108.156
 30
0.0
 11
173.1509999999999
 21
-107.83446
 31
0.0
  0
LINE
  5
C6
330
1E
100
AcDbEntity
  8
0
  6
CONTINUOUS
 62
     7
100
AcDbLine
 10
170.218
 20
-107.83446
 30
0.0
 11
169.0179999999999
 21
-108.156
 31
0.0
  0
LINE
  5
C7
330
1E
100
AcDbEntity
  8
0
  6
CONTINUOUS
 62
     7
100
AcDbLine
 10
169.0179999999999
 20
-108.156
 30
0.0
 11
170.218
 21
-108.4775299999999
 31
0.0
  0
LINE
  5
C8
330
1E
100
AcDbEntity
  8
0
  6
CONTINUOUS
 62
     7
100
AcDbLine
 10
174.35143
 20
-108.1563999999999
 30
0.0
 11
177.68476
 21
-108.1563999999999
 31
0.0
  0
LINE
  5
C9
330
1E
100
AcDbEntity
  8
0
  6
CONTINUOUS
 62
     7
100
AcDbLine
 10
177.68476
 20
-99.15640000000001
 30
0.0
 11
177.68476
 21
-108.9563999999999
 31
0.0
  0
LINE
  5
CA
330
1E
100
AcDbEntity
  8
0
  6
CONTINUOUS
 62
     7
100
AcDbLine
 10
180.08476
 20
-108.1563999999999
 30
0.0
 11
177.68476
 21
-108.1563999999999
 31
0.0
  0
LINE
  5
CB
330
1E
100
AcDbEntity
  8
0
  6
CONTINUOUS
 62
     7
100
AcDbLine
 10
178.8839999999999
 20
-107.83446
 30
0.0
 11
177.6839999999999
 21
-108.156
 31
0.0
  0
LINE
  5
CC
330
1E
100
AcDbEntity
  8
0
  6
CONTINUOUS
 62
     7
100
AcDbLine
 10
177.6839999999999
 20
-108.156
 30
0.0
 11
178.8839999999999
 21
-108.4775299999999
 31
0.0
  0
LINE
  5
CD
330
1E
100
AcDbEntity
  8
0
  6
CONTINUOUS
 62
     7
100
AcDbLine
 10
174.35143
 20
-108.1563999999999
 30
0.0
 11
171.95143
 21
-108.1563999999999
 31
0.0
  0
LINE
  5
CE
330
1E
100
AcDbEntity
  8
0
  6
CONTINUOUS
 62
     7
100
AcDbLine
 10
173.1509999999999
 20
-108.4775299999999
 30
0.0
 11
174.351
 21
-108.156
 31
0.0
  0
LINE
  5
CF
330
1E
100
AcDbEntity
  8
0
  6
CONTINUOUS
 62
     7
100
AcDbLine
 10
174.351
 20
-108.156
 30
0.0
 11
173.1509999999999
 21
-107.83446
 31
0.0
  0
LINE
  5
D0
330
1E
100
AcDbEntity
  8
0
  6
CONTINUOUS
 62
     7
100
AcDbLine
 10
180.08476
 20
-108.1563999999999
 30
0.0
 11
186.00476
 21
-108.1563999999999
 31
0.0
  0
TEXT
  5
D1
330
1E
100
AcDbEntity
  8
0
  6
CONTINUOUS
 62
     7
100
AcDbText
 10
178.20476
 20
-107.7563999999999
 30
0.0
 40
3.2
  1
100
 41
0.8125
  7
BIGFONT
100
AcDbText
  0
TEXT
  5
D2
330
1E
100
AcDbEntity
  8
0
  6
CONTINUOUS
 62
     7
100
AcDbText
 10
168.1778299999999
 20
-107.5703
 30
0.0
 40
3.2
  1
160
  7
BIGFONT
100
AcDbText
  0
LINE
  5
D3
330
1E
100
AcDbEntity
  8
0
  6
CONTINUOUS
 62
     7
100
AcDbLine
 10
151.56666
 20
-98.15640000000001
 30
0.0
 11
151.56666
 21
-34.82305999999999
 31
0.0
  0
LINE
  5
D4
330
1E
100
AcDbEntity
  8
0
  6
CONTINUOUS
 62
     7
100
AcDbLine
 10
168.0181
 20
-34.82305999999999
 30
0.0
 11
150.76666
 21
-34.82305999999999
 31
0.0
  0
LINE
  5
D5
330
1E
100
AcDbEntity
  8
0
  6
CONTINUOUS
 62
     7
100
AcDbLine
 10
168.0181
 20
-98.15640000000001
 30
0.0
 11
150.76666
 21
-98.15640000000001
 31
0.0
  0
LINE
  5
D6
330
1E
100
AcDbEntity
  8
0
  6
CONTINUOUS
 62
     7
100
AcDbLine
 10
151.8875299999999
 20
-36.023
 30
0.0
 11
151.566
 21
-34.823
 31
0.0
  0
LINE
  5
D7
330
1E
100
AcDbEntity
  8
0
  6
CONTINUOUS
 62
     7
100
AcDbLine
 10
151.566
 20
-34.823
 30
0.0
 11
151.24446
 21
-36.023
 31
0.0
  0
LINE
  5
D8
330
1E
100
AcDbEntity
  8
0
  6
CONTINUOUS
 62
     7
100
AcDbLine
 10
151.24446
 20
-96.956
 30
0.0
 11
151.566
 21
-98.15600000000001
 31
0.0
  0
LINE
  5
D9
330
1E
100
AcDbEntity
  8
0
  6
CONTINUOUS
 62
     7
100
AcDbLine
 10
151.566
 20
-98.15600000000001
 30
0.0
 11
151.8875299999999
 21
-96.956
 31
0.0
  0
TEXT
  5
DA
330
1E
100
AcDbEntity
  8
0
  6
CONTINUOUS
 62
     7
100
AcDbText
 10
151.16666
 20
-71.68973000000002
 30
0.0
 40
3.2
  1
1900
 50
90.0
 41
0.8125
  7
BIGFONT
100
AcDbText
  0
LINE
  5
DB
330
1E
100
AcDbEntity
  8
0
  6
CONTINUOUS
 62
     7
100
AcDbLine
 10
159.06666
 20
-98.15640000000001
 30
0.0
 11
159.06666
 21
-51.3385
 31
0.0
  0
LINE
  5
DC
330
1E
100
AcDbEntity
  8
0
  6
CONTINUOUS
 62
     7
100
AcDbLine
 10
168.0181
 20
-51.3385
 30
0.0
 11
158.26666
 21
-51.3385
 31
0.0
  0
LINE
  5
DD
330
1E
100
AcDbEntity
  8
0
  6
CONTINUOUS
 62
     7
100
AcDbLine
 10
162.7631
 20
-98.15640000000001
 30
0.0
 11
158.26666
 21
-98.15640000000001
 31
0.0
  0
LINE
  5
DE
330
1E
100
AcDbEntity
  8
0
  6
CONTINUOUS
 62
     7
100
AcDbLine
 10
159.38753
 20
-52.538
 30
0.0
 11
159.0659999999999
 21
-51.338
 31
0.0
  0
LINE
  5
DF
330
1E
100
AcDbEntity
  8
0
  6
CONTINUOUS
 62
     7
100
AcDbLine
 10
159.0659999999999
 20
-51.338
 30
0.0
 11
158.7444599999999
 21
-52.538
 31
0.0
  0
LINE
  5
E0
330
1E
100
AcDbEntity
  8
0
  6
CONTINUOUS
 62
     7
100
AcDbLine
 10
158.7444599999999
 20
-96.956
 30
0.0
 11
159.0659999999999
 21
-98.15600000000001
 31
0.0
  0
LINE
  5
E1
330
1E
100
AcDbEntity
  8
0
  6
CONTINUOUS
 62
     7
100
AcDbLine
 10
159.0659999999999
 20
-98.15600000000001
 30
0.0
 11
159.38753
 21
-96.956
 31
0.0
  0
TEXT
  5
E2
330
1E
100
AcDbEntity
  8
0
  6
CONTINUOUS
 62
     7
100
AcDbText
 10
158.66666
 20
-79.94745
 30
0.0
 40
3.2
  1
1400
 50
90.0
 41
0.8125
  7
BIGFONT
100
AcDbText
  0
TEXT
  5
E3
330
1E
100
AcDbEntity
  8
0
  6
CONTINUOUS
 62
     7
100
AcDbText
 10
172.8688
 20
-43.10283
 30
0.0
 40
3.2
  1
90゜
 50
45.0
  7
BIGFONT
100
AcDbText
  0
ARC
  5
E4
330
1E
100
AcDbEntity
  8
0
  6
CONTINUOUS
 62
     7
100
AcDbCircle
 10
169.0181
 20
-34.82305999999999
 30
0.0
 40
5.13803
100
AcDbArc
 50
270.0
 51
0.0
  0
ARC
  5
E5
330
1E
100
AcDbEntity
  8
0
  6
CONTINUOUS
 62
     7
100
AcDbCircle
 10
167.68818
 20
-34.99807
 30
0.0
 40
5.137999999999999
100
AcDbArc
 50
285.0
 51
298.3816499999998
  0
ARC
  5
E6
330
1E
100
AcDbEntity
  8
0
  6
CONTINUOUS
 62
     7
100
AcDbCircle
 10
170.34781
 20
-34.99807
 30
0.0
 40
5.137999999999999
100
AcDbArc
 50
255.0
 51
268.38165
  0
ARC
  5
E7
330
1E
100
AcDbEntity
  8
0
  6
CONTINUOUS
 62
     7
100
AcDbCircle
 10
169.19307
 20
-36.15280999999999
 30
0.0
 40
5.137999999999999
100
AcDbArc
 50
1.618346499999999
 51
15.0
  0
ARC
  5
E8
330
1E
100
AcDbEntity
  8
0
  6
CONTINUOUS
 62
     7
100
AcDbCircle
 10
169.19307
 20
-33.49317999999998
 30
0.0
 40
5.137999999999999
100
AcDbArc
 50
331.6183399999999
 51
345.0
  0
LINE
  5
E9
330
1E
100
AcDbEntity
  8
0
  6
CONTINUOUS
 62
     7
100
AcDbLine
 10
174.35143
 20
57.17463000000001
 30
0.0
 11
177.68476
 21
53.84129999999998
 31
0.0
  0
LINE
  5
EA
330
1E
100
AcDbEntity
  8
0
  6
CONTINUOUS
 62
     7
100
AcDbLine
 10
174.35143
 20
57.17463000000001
 30
0.0
 11
174.35143
 21
123.20796
 31
0.0
  0
LINE
  5
EB
330
1E
100
AcDbEntity
  8
0
  6
CONTINUOUS
 62
     7
100
AcDbLine
 10
177.68476
 20
53.84129999999998
 30
0.0
 11
232.35133
 21
53.84129999999998
 31
0.0
  0
LINE
  5
EC
330
1E
100
AcDbEntity
  8
0
  6
CONTINUOUS
 62
     7
100
AcDbLine
 10
185.68476
 20
53.84129999999998
 30
0.0
 11
185.68476
 21
57.17463000000001
 31
0.0
  0
LINE
  5
ED
330
1E
100
AcDbEntity
  8
0
  6
CONTINUOUS
 62
     7
100
AcDbLine
 10
232.35133
 20
52.62955999999999
 30
0.0
 11
232.35133
 21
57.17463000000001
 31
0.0
  0
LINE
  5
EE
330
1E
100
AcDbEntity
  8
0
  6
CONTINUOUS
 62
     7
100
AcDbLine
 10
185.68476
 20
57.17463000000001
 30
0.0
 11
232.35133
 21
57.17463000000001
 31
0.0
  0
LINE
  5
EF
330
1E
100
AcDbEntity
  8
0
  6
CONTINUOUS
 62
     7
100
AcDbLine
 10
245.6563999999999
 20
48.50795999999998
 30
0.0
 11
245.6563999999999
 21
53.84129999999998
 31
0.0
  0
LINE
  5
F0
330
1E
100
AcDbEntity
  8
0
  6
CONTINUOUS
 62
     7
100
AcDbLine
 10
233.3513299999999
 20
53.84129999999998
 30
0.0
 11
246.4564
 21
53.84129999999998
 31
0.0
  0
LINE
  5
F1
330
1E
100
AcDbEntity
  8
0
  6
CONTINUOUS
 62
     7
100
AcDbLine
 10
233.3513299999999
 20
48.50795999999998
 30
0.0
 11
246.4564
 21
48.50795999999998
 31
0.0
  0
LINE
  5
F2
330
1E
100
AcDbEntity
  8
0
  6
CONTINUOUS
 62
     7
100
AcDbLine
 10
245.9775299999999
 20
52.641
 30
0.0
 11
245.6559999999999
 21
53.841
 31
0.0
  0
LINE
  5
F3
330
1E
100
AcDbEntity
  8
0
  6
CONTINUOUS
 62
     7
100
AcDbLine
 10
245.6559999999999
 20
53.841
 30
0.0
 11
245.33446
 21
52.641
 31
0.0
  0
LINE
  5
F4
330
1E
100
AcDbEntity
  8
0
  6
CONTINUOUS
 62
     7
100
AcDbLine
 10
245.33446
 20
49.707
 30
0.0
 11
245.6559999999999
 21
48.50699999999999
 31
0.0
  0
LINE
  5
F5
330
1E
100
AcDbEntity
  8
0
  6
CONTINUOUS
 62
     7
100
AcDbLine
 10
245.6559999999999
 20
48.50699999999999
 30
0.0
 11
245.9775299999999
 21
49.707
 31
0.0
  0
LINE
  5
F6
330
1E
100
AcDbEntity
  8
0
  6
CONTINUOUS
 62
     7
100
AcDbLine
 10
245.6563999999999
 20
53.84129999999998
 30
0.0
 11
245.6563999999999
 21
57.17463000000001
 31
0.0
  0
LINE
  5
F7
330
1E
100
AcDbEntity
  8
0
  6
CONTINUOUS
 62
     7
100
AcDbLine
 10
233.3513299999999
 20
57.17463000000001
 30
0.0
 11
246.4564
 21
57.17463000000001
 31
0.0
  0
LINE
  5
F8
330
1E
100
AcDbEntity
  8
0
  6
CONTINUOUS
 62
     7
100
AcDbLine
 10
245.6563999999999
 20
59.57463
 30
0.0
 11
245.6563999999999
 21
57.17463000000001
 31
0.0
  0
LINE
  5
F9
330
1E
100
AcDbEntity
  8
0
  6
CONTINUOUS
 62
     7
100
AcDbLine
 10
245.33446
 20
58.37399999999998
 30
0.0
 11
245.6559999999999
 21
57.174
 31
0.0
  0
LINE
  5
FA
330
1E
100
AcDbEntity
  8
0
  6
CONTINUOUS
 62
     7
100
AcDbLine
 10
245.6559999999999
 20
57.174
 30
0.0
 11
245.9775299999999
 21
58.37399999999998
 31
0.0
  0
LINE
  5
FB
330
1E
100
AcDbEntity
  8
0
  6
CONTINUOUS
 62
     7
100
AcDbLine
 10
245.6563999999999
 20
53.84129999999998
 30
0.0
 11
245.6563999999999
 21
51.4413
 31
0.0
  0
LINE
  5
FC
330
1E
100
AcDbEntity
  8
0
  6
CONTINUOUS
 62
     7
100
AcDbLine
 10
245.9775299999999
 20
52.641
 30
0.0
 11
245.6559999999999
 21
53.841
 31
0.0
  0
LINE
  5
FD
330
1E
100
AcDbEntity
  8
0
  6
CONTINUOUS
 62
     7
100
AcDbLine
 10
245.6559999999999
 20
53.841
 30
0.0
 11
245.33446
 21
52.641
 31
0.0
  0
LINE
  5
FE
330
1E
100
AcDbEntity
  8
0
  6
CONTINUOUS
 62
     7
100
AcDbLine
 10
245.6563999999999
 20
59.57463
 30
0.0
 11
245.6563999999999
 21
66.53463000000001
 31
0.0
  0
TEXT
  5
FF
330
1E
100
AcDbEntity
  8
0
  6
CONTINUOUS
 62
     7
100
AcDbText
 10
245.2564
 20
60.24905689962164
 30
0.0
 40
3.2
  1
100
 50
90.0
 41
0.8125
  7
BIGFONT
100
AcDbText
  0
TEXT
  5
100
330
1E
100
AcDbEntity
  8
0
  6
CONTINUOUS
 62
     7
100
AcDbText
 10
245.0161299999999
 20
47.37495999999999
 30
0.0
 40
3.2
  1
160
 50
90.0
  7
BIGFONT
100
AcDbText
  0
LINE
  5
101
330
1E
100
AcDbEntity
  8
0
  6
CONTINUOUS
 62
     7
100
AcDbLine
 10
174.35143
 20
140.17463
 30
0.0
 11
177.68476
 21
140.17463
 31
0.0
  0
LINE
  5
102
330
1E
100
AcDbEntity
  8
0
  6
CONTINUOUS
 62
     7
100
AcDbLine
 10
177.68476
 20
124.50796
 30
0.0
 11
177.68476
 21
140.9746299999999
 31
0.0
  0
LINE
  5
103
330
1E
100
AcDbEntity
  8
0
  6
CONTINUOUS
 62
     7
100
AcDbLine
 10
174.35143
 20
134.2292999999999
 30
0.0
 11
174.35143
 21
140.9746299999999
 31
0.0
  0
LINE
  5
104
330
1E
100
AcDbEntity
  8
0
  6
CONTINUOUS
 62
     7
100
AcDbLine
 10
180.08476
 20
140.17463
 30
0.0
 11
177.68476
 21
140.17463
 31
0.0
  0
LINE
  5
105
330
1E
100
AcDbEntity
  8
0
  6
CONTINUOUS
 62
     7
100
AcDbLine
 10
178.8839999999999
 20
140.49553
 30
0.0
 11
177.6839999999999
 21
140.174
 31
0.0
  0
LINE
  5
106
330
1E
100
AcDbEntity
  8
0
  6
CONTINUOUS
 62
     7
100
AcDbLine
 10
177.6839999999999
 20
140.174
 30
0.0
 11
178.8839999999999
 21
139.85246
 31
0.0
  0
LINE
  5
107
330
1E
100
AcDbEntity
  8
0
  6
CONTINUOUS
 62
     7
100
AcDbLine
 10
174.35143
 20
140.17463
 30
0.0
 11
171.95143
 21
140.17463
 31
0.0
  0
LINE
  5
108
330
1E
100
AcDbEntity
  8
0
  6
CONTINUOUS
 62
     7
100
AcDbLine
 10
173.1509999999999
 20
139.85246
 30
0.0
 11
174.351
 21
140.174
 31
0.0
  0
LINE
  5
109
330
1E
100
AcDbEntity
  8
0
  6
CONTINUOUS
 62
     7
100
AcDbLine
 10
174.351
 20
140.174
 30
0.0
 11
173.1509999999999
 21
140.49553
 31
0.0
  0
LINE
  5
10A
330
1E
100
AcDbEntity
  8
0
  6
CONTINUOUS
 62
     7
100
AcDbLine
 10
180.08476
 20
140.17463
 30
0.0
 11
188.08476
 21
140.17463
 31
0.0
  0
TEXT
  5
10B
330
1E
100
AcDbEntity
  8
0
  6
CONTINUOUS
 62
     7
100
AcDbText
 10
180.2847599999999
 20
140.57463
 30
0.0
 40
3.2
  1
100
 41
0.8125
  7
BIGFONT
100
AcDbText
  0
LINE
  5
10C
330
1E
100
AcDbEntity
  8
0
  6
CONTINUOUS
 62
     7
100
AcDbLine
 10
169.0181
 20
51.54593
 30
0.0
 11
169.0181
 21
52.73663
 31
0.0
  0
LINE
  5
10D
330
1E
100
AcDbEntity
  8
0
  6
CONTINUOUS
 62
     7
100
AcDbLine
 10
169.0181
 20
52.73663
 30
0.0
 11
169.0181
 21
123.20796
 31
0.0
  0
LINE
  5
10E
330
1E
100
AcDbEntity
  8
0
  6
CONTINUOUS
 62
     7
100
AcDbLine
 10
169.0181
 20
48.50795999999998
 30
0.0
 11
169.0181
 21
48.80726
 31
0.0
  0
LINE
  5
10F
330
1E
100
AcDbEntity
  8
0
  6
CONTINUOUS
 62
     7
100
AcDbLine
 10
169.0181
 20
48.80726
 30
0.0
 11
169.0181
 21
51.54593
 31
0.0
  0
LINE
  5
110
330
1E
100
AcDbEntity
  8
0
  6
CONTINUOUS
 62
     7
100
AcDbLine
 10
171.2889
 20
123.50796
 30
0.0
 11
232.3514299999999
 21
123.50796
 31
0.0
  0
TEXT
  5
111
330
1E
100
AcDbEntity
  8
0
  6
CONTINUOUS
 62
     7
100
AcDbText
 10
186.4695429254057
 20
147.93886
 30
0.0
 40
6.2
  1
側面図
  7
BIGFONT
100
AcDbText
  0
LINE
  5
112
330
1E
100
AcDbEntity
  8
0
  6
CONTINUOUS
 62
     7
100
AcDbLine
 10
183.5181
 20
146.8412999999999
 30
0.0
 11
210.02486
 21
146.8412999999999
 31
0.0
  0
LINE
  5
113
330
1E
100
AcDbEntity
  8
0
  6
CONTINUOUS
 62
     7
100
AcDbLine
 10
183.5181
 20
-8.156399999999999
 30
0.0
 11
210.02486
 21
-8.156399999999999
 31
0.0
  0
TEXT
  5
114
330
1E
100
AcDbEntity
  8
0
  6
CONTINUOUS
 62
     7
100
AcDbText
 10
185.697394352759
 20
-7.15096
 30
0.0
 40
6.2
  1
平面図
  7
BIGFONT
100
AcDbText
  0
LINE
  5
115
330
1E
100
AcDbEntity
  8
0
  6
CONTINUOUS
 62
     7
100
AcDbLine
 10
-103.67743
 20
-98.15640000000001
 30
0.0
 11
-103.67743
 21
-34.82305999999999
 31
0.0
  0
LINE
  5
116
330
1E
100
AcDbEntity
  8
0
  6
CONTINUOUS
 62
     7
100
AcDbLine
 10
-103.67743
 20
-34.82305999999999
 30
0.0
 11
-40.3441
 21
-34.82305999999999
 31
0.0
  0
TEXT
  5
117
330
1E
100
AcDbEntity
  8
3
  6
CONTINUOUS
 62
     7
100
AcDbText
 10
199.3619999999999
 20
-151.607
 30
0.0
 40
3.7
  1
コーナー部構造図
  7
BIGFONT
100
AcDbText
  0
TEXT
  5
118
330
1E
100
AcDbEntity
  8
3
  6
CONTINUOUS
 62
     7
100
AcDbText
 10
199.382
 20
-146.9269999999999
 30
0.0
 40
3.7
  1
ＫＬウォール３型
  7
BIGFONT
100
AcDbText
  0
TEXT
  5
11A
330
1E
100
AcDbEntity
  8
3
  6
CONTINUOUS
 62
     7
100
AcDbText
 10
235.7025060752802
 20
-151.709
 30
0.0
 40
3.7
  1
(H=2250-90°)
 41
0.8
  7
BIGFONT
100
AcDbText
  0
TEXT
  5
11C
330
1E
100
AcDbEntity
  8
0
  6
CONTINUOUS
 62
     7
100
AcDbText
 10
-195.805
 20
147.7556599999996
 30
0.0
 40
6.0
  1
断面図
  7
BIGFONT
100
AcDbText
  0
LINE
  5
11D
330
1E
100
AcDbEntity
  8
0
  6
CONTINUOUS
 62
     7
100
AcDbLine
 10
-222.4098999999999
 20
146.81656
 30
0.0
 11
-169.9786
 21
146.81656
 31
0.0
  0
TEXT
  5
11E
330
1E
100
AcDbEntity
  8
0
  6
CONTINUOUS
 62
     7
100
AcDbText
 10
-71.59902999999999
 20
147.7556599999996
 30
0.0
 40
6.0
  1
断面図
  7
BIGFONT
100
AcDbText
  0
LINE
  5
11F
330
1E
100
AcDbEntity
  8
0
  6
CONTINUOUS
 62
     7
100
AcDbLine
 10
-98.20393000000001
 20
146.81656
 30
0.0
 11
-45.77263
 21
146.81656
 31
0.0
  0
TEXT
  5
120
330
1E
100
AcDbEntity
  8
0
  6
CONTINUOUS
 62
     7
100
AcDbText
 10
-71.59902999999999
 20
-7.39863
 30
0.0
 40
6.0
  1
断面図
  7
BIGFONT
100
AcDbText
  0
LINE
  5
121
330
1E
100
AcDbEntity
  8
0
  6
CONTINUOUS
 62
     7
100
AcDbLine
 10
-98.20393000000001
 20
-8.33773
 30
0.0
 11
-45.77263
 21
-8.33773
 31
0.0
  0
TEXT
  5
122
330
1E
100
AcDbEntity
  8
0
  6
CONTINUOUS
 62
     7
100
AcDbText
 10
-195.805
 20
-7.39863
 30
0.0
 40
6.0
  1
断面図
  7
BIGFONT
100
AcDbText
  0
LINE
  5
123
330
1E
100
AcDbEntity
  8
0
  6
CONTINUOUS
 62
     7
100
AcDbLine
 10
-222.4098999999999
 20
-8.33773
 30
0.0
 11
-169.9786
 21
-8.33773
 31
0.0
  0
TEXT
  5
124
330
1E
100
AcDbEntity
  8
0
  6
CONTINUOUS
 62
     7
100
AcDbText
 10
-219.3439299999999
 20
147.67293
 30
0.0
 40
6.0
  1
Ａ－Ａ
 41
0.8666665999999999
  7
BIGFONT
100
AcDbText
  0
TEXT
  5
125
330
1E
100
AcDbEntity
  8
0
  6
CONTINUOUS
 62
     7
100
AcDbText
 10
-95.08286
 20
147.4639999999999
 30
0.0
 40
6.0
  1
Ｂ－Ｂ
 41
0.8666665999999999
  7
BIGFONT
100
AcDbText
  0
TEXT
  5
126
330
1E
100
AcDbEntity
  8
0
  6
CONTINUOUS
 62
     7
100
AcDbText
 10
-219.47326
 20
-7.52563
 30
0.0
 40
6.0
  1
Ｃ－Ｃ
 41
0.8666665999999999
  7
BIGFONT
100
AcDbText
  0
TEXT
  5
127
330
1E
100
AcDbEntity
  8
0
  6
CONTINUOUS
 62
     7
100
AcDbText
 10
-95.37200000000002
 20
-7.49786
 30
0.0
 40
6.0
  1
Ｄ－Ｄ
 41
0.8666665999999999
  7
BIGFONT
100
AcDbText
  0
LINE
  5
128
330
1E
100
AcDbEntity
  8
0
  6
CONTINUOUS
 62
     7
100
AcDbLine
 10
-228.3390299999999
 20
48.90795999999999
 30
0.0
 11
-228.3390299999999
 21
59.17463000000001
 31
0.0
  0
LINE
  5
129
330
1E
100
AcDbEntity
  8
0
  6
CONTINUOUS
 62
     7
100
AcDbLine
 10
-228.3390299999999
 20
59.17463000000001
 30
0.0
 11
-228.2390299999999
 21
59.27463
 31
0.0
  0
LINE
  5
12A
330
1E
100
AcDbEntity
  8
0
  6
CONTINUOUS
 62
     7
100
AcDbLine
 10
-228.2390299999999
 20
59.27463
 30
0.0
 11
-228.2390299999999
 21
109.9774
 31
0.0
  0
LINE
  5
12B
330
1E
100
AcDbEntity
  8
0
  6
CONTINUOUS
 62
     7
100
AcDbLine
 10
-228.3390299999999
 20
110.0773999999999
 30
0.0
 11
-228.2390299999999
 21
109.9774
 31
0.0
  0
LINE
  5
12C
330
1E
100
AcDbEntity
  8
0
  6
CONTINUOUS
 62
     7
100
AcDbLine
 10
-228.3390299999999
 20
110.0773999999999
 30
0.0
 11
-228.3390299999999
 21
123.50796
 31
0.0
  0
LINE
  5
12D
330
1E
100
AcDbEntity
  8
0
  6
CONTINUOUS
 62
     7
100
AcDbLine
 10
-165.0107
 20
56.74406
 30
0.0
 11
-165.0107
 21
123.50796
 31
0.0
  0
LINE
  5
12E
330
1E
100
AcDbEntity
  8
0
  6
CONTINUOUS
 62
     7
100
AcDbLine
 10
-165.0107
 20
48.90795999999999
 30
0.0
 11
-165.0107
 21
59.17463000000001
 31
0.0
  0
LINE
  5
12F
330
1E
100
AcDbEntity
  8
0
  6
CONTINUOUS
 62
     7
100
AcDbLine
 10
-227.9390299999999
 20
48.50795999999998
 30
0.0
 11
-165.4106999999999
 21
48.50795999999998
 31
0.0
  0
LINE
  5
130
330
1E
100
AcDbEntity
  8
0
  6
CONTINUOUS
 62
     7
100
AcDbLine
 10
-228.3390299999999
 20
48.90795999999999
 30
0.0
 11
-227.9390299999999
 21
48.50795999999998
 31
0.0
  0
LINE
  5
131
330
1E
100
AcDbEntity
  8
0
  6
CONTINUOUS
 62
     7
100
AcDbLine
 10
-165.4106999999999
 20
48.50795999999998
 30
0.0
 11
-165.0107
 21
48.90795999999999
 31
0.0
  0
LINE
  5
132
330
1E
100
AcDbEntity
  8
0
  6
CONTINUOUS
 62
     7
100
AcDbLine
 10
-228.2390299999999
 20
71.00795999999998
 30
0.0
 11
-228.2390299999999
 21
74.00795999999998
 31
0.0
  0
LINE
  5
133
330
1E
100
AcDbEntity
  8
0
  6
CONTINUOUS
 62
     1
100
AcDbLine
 10
-226.67236
 20
50.01063
 30
0.0
 11
-226.67236
 21
93.51063000000001
 31
0.0
  0
LINE
  5
134
330
1E
100
AcDbEntity
  8
0
  6
DASHED
 62
     1
100
AcDbLine
 10
-226.0056999999999
 20
50.01063
 30
0.0
 11
-226.0056999999999
 21
62.18913
 31
0.0
  0
LINE
  5
135
330
1E
100
AcDbEntity
  8
0
  6
CONTINUOUS
 62
     7
100
AcDbLine
 10
-228.3390299999999
 20
123.50796
 30
0.0
 11
-165.0107
 21
123.50796
 31
0.0
  0
LINE
  5
136
330
1E
100
AcDbEntity
  8
0
  6
CONTINUOUS
 62
     7
100
AcDbLine
 10
-103.6637599999999
 20
48.90795999999999
 30
0.0
 11
-103.6637599999999
 21
59.17463000000001
 31
0.0
  0
LINE
  5
137
330
1E
100
AcDbEntity
  8
0
  6
CONTINUOUS
 62
     7
100
AcDbLine
 10
-103.6637599999999
 20
59.17463000000001
 30
0.0
 11
-103.56376
 21
59.27463
 31
0.0
  0
LINE
  5
138
330
1E
100
AcDbEntity
  8
0
  6
CONTINUOUS
 62
     7
100
AcDbLine
 10
-103.56376
 20
59.27463
 30
0.0
 11
-103.56376
 21
109.9774
 31
0.0
  0
LINE
  5
139
330
1E
100
AcDbEntity
  8
0
  6
CONTINUOUS
 62
     7
100
AcDbLine
 10
-103.6637599999999
 20
110.0773999999999
 30
0.0
 11
-103.56376
 21
109.9774
 31
0.0
  0
LINE
  5
13A
330
1E
100
AcDbEntity
  8
0
  6
CONTINUOUS
 62
     7
100
AcDbLine
 10
-103.6637599999999
 20
110.0773999999999
 30
0.0
 11
-103.6637599999999
 21
123.50796
 31
0.0
  0
LINE
  5
13B
330
1E
100
AcDbEntity
  8
0
  6
CONTINUOUS
 62
     7
100
AcDbLine
 10
-40.34142999999999
 20
56.74406
 30
0.0
 11
-40.34142999999999
 21
123.50796
 31
0.0
  0
LINE
  5
13C
330
1E
100
AcDbEntity
  8
0
  6
CONTINUOUS
 62
     7
100
AcDbLine
 10
-40.34142999999999
 20
48.90795999999999
 30
0.0
 11
-40.34142999999999
 21
59.17463000000001
 31
0.0
  0
LINE
  5
13D
330
1E
100
AcDbEntity
  8
0
  6
CONTINUOUS
 62
     7
100
AcDbLine
 10
-103.2637599999999
 20
48.50795999999998
 30
0.0
 11
-40.74143
 21
48.50795999999998
 31
0.0
  0
LINE
  5
13E
330
1E
100
AcDbEntity
  8
0
  6
CONTINUOUS
 62
     7
100
AcDbLine
 10
-103.6637599999999
 20
48.90795999999999
 30
0.0
 11
-103.2637599999999
 21
48.50795999999998
 31
0.0
  0
LINE
  5
13F
330
1E
100
AcDbEntity
  8
0
  6
CONTINUOUS
 62
     7
100
AcDbLine
 10
-40.74143
 20
48.50795999999998
 30
0.0
 11
-40.34142999999999
 21
48.90795999999999
 31
0.0
  0
LINE
  5
140
330
1E
100
AcDbEntity
  8
0
  6
CONTINUOUS
 62
     7
100
AcDbLine
 10
-103.56376
 20
71.00795999999998
 30
0.0
 11
-103.56376
 21
74.00795999999998
 31
0.0
  0
LINE
  5
141
330
1E
100
AcDbEntity
  8
0
  6
CONTINUOUS
 62
     7
100
AcDbLine
 10
-103.6637599999999
 20
123.50796
 30
0.0
 11
-40.34142999999999
 21
123.50796
 31
0.0
  0
LINE
  5
142
330
1E
100
AcDbEntity
  8
0
  6
CONTINUOUS
 62
     1
100
AcDbLine
 10
-101.9970999999999
 20
50.01063
 30
0.0
 11
-101.9970999999999
 21
121.8412999999999
 31
0.0
  0
LINE
  5
143
330
1E
100
AcDbEntity
  8
0
  6
CONTINUOUS
 62
     7
100
AcDbLine
 10
-228.34586
 20
23.50796
 30
0.0
 11
-165.0126999999999
 21
23.50796
 31
0.0
  0
LINE
  5
144
330
1E
100
AcDbEntity
  8
0
  6
CONTINUOUS
 62
     7
100
AcDbLine
 10
-165.0126999999999
 20
47.50796
 30
0.0
 11
-165.0126999999999
 21
22.70796
 31
0.0
  0
LINE
  5
145
330
1E
100
AcDbEntity
  8
0
  6
CONTINUOUS
 62
     7
100
AcDbLine
 10
-228.34586
 20
47.50796
 30
0.0
 11
-228.34586
 21
22.70796
 31
0.0
  0
LINE
  5
146
330
1E
100
AcDbEntity
  8
0
  6
CONTINUOUS
 62
     7
100
AcDbLine
 10
-166.2119999999999
 20
23.18545999999999
 30
0.0
 11
-165.012
 21
23.50699999999999
 31
0.0
  0
LINE
  5
147
330
1E
100
AcDbEntity
  8
0
  6
CONTINUOUS
 62
     7
100
AcDbLine
 10
-165.012
 20
23.50699999999999
 30
0.0
 11
-166.2119999999999
 21
23.82852999999998
 31
0.0
  0
LINE
  5
148
330
1E
100
AcDbEntity
  8
0
  6
CONTINUOUS
 62
     7
100
AcDbLine
 10
-227.145
 20
23.82852999999998
 30
0.0
 11
-228.345
 21
23.50699999999999
 31
0.0
  0
LINE
  5
149
330
1E
100
AcDbEntity
  8
0
  6
CONTINUOUS
 62
     7
100
AcDbLine
 10
-228.345
 20
23.50699999999999
 30
0.0
 11
-227.145
 21
23.18545999999999
 31
0.0
  0
TEXT
  5
14A
330
1E
100
AcDbEntity
  8
0
  6
CONTINUOUS
 62
     7
100
AcDbText
 10
-201.8792799999999
 20
23.90795999999999
 30
0.0
 40
3.2
  1
1900
 41
0.8125
  7
BIGFONT
100
AcDbText
  0
LINE
  5
14B
330
1E
100
AcDbEntity
  8
0
  6
CONTINUOUS
 62
     7
100
AcDbLine
 10
-103.6705999999999
 20
23.50796
 30
0.0
 11
-40.3373
 21
23.50796
 31
0.0
  0
LINE
  5
14C
330
1E
100
AcDbEntity
  8
0
  6
CONTINUOUS
 62
     7
100
AcDbLine
 10
-40.3373
 20
47.50796
 30
0.0
 11
-40.3373
 21
22.70796
 31
0.0
  0
LINE
  5
14D
330
1E
100
AcDbEntity
  8
0
  6
CONTINUOUS
 62
     7
100
AcDbLine
 10
-103.6705999999999
 20
47.50796
 30
0.0
 11
-103.6705999999999
 21
22.70796
 31
0.0
  0
LINE
  5
14E
330
1E
100
AcDbEntity
  8
0
  6
CONTINUOUS
 62
     7
100
AcDbLine
 10
-41.53699999999999
 20
23.18545999999999
 30
0.0
 11
-40.33699999999997
 21
23.50699999999999
 31
0.0
  0
LINE
  5
14F
330
1E
100
AcDbEntity
  8
0
  6
CONTINUOUS
 62
     7
100
AcDbLine
 10
-40.33699999999997
 20
23.50699999999999
 30
0.0
 11
-41.53699999999999
 21
23.82852999999998
 31
0.0
  0
LINE
  5
150
330
1E
100
AcDbEntity
  8
0
  6
CONTINUOUS
 62
     7
100
AcDbLine
 10
-102.4699999999999
 20
23.82852999999998
 30
0.0
 11
-103.6699999999999
 21
23.50699999999999
 31
0.0
  0
LINE
  5
151
330
1E
100
AcDbEntity
  8
0
  6
CONTINUOUS
 62
     7
100
AcDbLine
 10
-103.6699999999999
 20
23.50699999999999
 30
0.0
 11
-102.4699999999999
 21
23.18545999999999
 31
0.0
  0
TEXT
  5
152
330
1E
100
AcDbEntity
  8
0
  6
CONTINUOUS
 62
     7
100
AcDbText
 10
-80.32394999999999
 20
23.90795999999999
 30
0.0
 40
3.2
  1
1900
 41
0.8125
  7
BIGFONT
100
AcDbText
  0
LINE
  5
153
330
1E
100
AcDbEntity
  8
0
  6
CONTINUOUS
 62
     7
100
AcDbLine
 10
169.0181
 20
23.50796
 30
0.0
 11
219.018
 21
23.50796
 31
0.0
  0
LINE
  5
154
330
1E
100
AcDbEntity
  8
0
  6
CONTINUOUS
 62
     7
100
AcDbLine
 10
219.018
 20
47.50796
 30
0.0
 11
219.018
 21
22.70796
 31
0.0
  0
LINE
  5
155
330
1E
100
AcDbEntity
  8
0
  6
CONTINUOUS
 62
     7
100
AcDbLine
 10
169.0181
 20
47.50796
 30
0.0
 11
169.0181
 21
22.70796
 31
0.0
  0
LINE
  5
156
330
1E
100
AcDbEntity
  8
0
  6
CONTINUOUS
 62
     7
100
AcDbLine
 10
217.8179999999999
 20
23.18545999999999
 30
0.0
 11
219.018
 21
23.50699999999999
 31
0.0
  0
LINE
  5
157
330
1E
100
AcDbEntity
  8
0
  6
CONTINUOUS
 62
     7
100
AcDbLine
 10
219.018
 20
23.50699999999999
 30
0.0
 11
217.8179999999999
 21
23.82852999999998
 31
0.0
  0
LINE
  5
158
330
1E
100
AcDbEntity
  8
0
  6
CONTINUOUS
 62
     7
100
AcDbLine
 10
170.218
 20
23.82852999999998
 30
0.0
 11
169.0179999999999
 21
23.50699999999999
 31
0.0
  0
LINE
  5
159
330
1E
100
AcDbEntity
  8
0
  6
CONTINUOUS
 62
     7
100
AcDbLine
 10
169.0179999999999
 20
23.50699999999999
 30
0.0
 11
170.218
 21
23.18545999999999
 31
0.0
  0
TEXT
  5
15A
330
1E
100
AcDbEntity
  8
0
  6
CONTINUOUS
 62
     7
100
AcDbText
 10
188.8180499999999
 20
23.90795999999999
 30
0.0
 40
3.2
  1
1500
 41
0.8125
  7
BIGFONT
100
AcDbText
  0
LINE
  5
15B
330
1E
100
AcDbEntity
  8
0
  6
CONTINUOUS
 62
     7
100
AcDbLine
 10
169.0181
 20
31.00795999999998
 30
0.0
 11
174.35143
 21
31.00795999999998
 31
0.0
  0
LINE
  5
15C
330
1E
100
AcDbEntity
  8
0
  6
CONTINUOUS
 62
     7
100
AcDbLine
 10
174.35143
 20
37.50795999999999
 30
0.0
 11
174.35143
 21
30.20795999999998
 31
0.0
  0
LINE
  5
15D
330
1E
100
AcDbEntity
  8
0
  6
CONTINUOUS
 62
     7
100
AcDbLine
 10
169.0181
 20
33.04232999999999
 30
0.0
 11
169.0181
 21
30.20795999999998
 31
0.0
  0
LINE
  5
15E
330
1E
100
AcDbEntity
  8
0
  6
CONTINUOUS
 62
     7
100
AcDbLine
 10
173.1509999999999
 20
30.68545999999999
 30
0.0
 11
174.351
 21
31.00699999999999
 31
0.0
  0
LINE
  5
15F
330
1E
100
AcDbEntity
  8
0
  6
CONTINUOUS
 62
     7
100
AcDbLine
 10
174.351
 20
31.00699999999999
 30
0.0
 11
173.1509999999999
 21
31.32852999999998
 31
0.0
  0
LINE
  5
160
330
1E
100
AcDbEntity
  8
0
  6
CONTINUOUS
 62
     7
100
AcDbLine
 10
170.218
 20
31.32852999999998
 30
0.0
 11
169.0179999999999
 21
31.00699999999999
 31
0.0
  0
LINE
  5
161
330
1E
100
AcDbEntity
  8
0
  6
CONTINUOUS
 62
     7
100
AcDbLine
 10
169.0179999999999
 20
31.00699999999999
 30
0.0
 11
170.218
 21
30.68545999999999
 31
0.0
  0
LINE
  5
162
330
1E
100
AcDbEntity
  8
0
  6
CONTINUOUS
 62
     7
100
AcDbLine
 10
174.35143
 20
31.00795999999998
 30
0.0
 11
219.018
 21
31.00795999999998
 31
0.0
  0
LINE
  5
163
330
1E
100
AcDbEntity
  8
0
  6
CONTINUOUS
 62
     7
100
AcDbLine
 10
219.018
 20
33.0461
 30
0.0
 11
219.018
 21
30.20795999999998
 31
0.0
  0
LINE
  5
164
330
1E
100
AcDbEntity
  8
0
  6
CONTINUOUS
 62
     7
100
AcDbLine
 10
217.8179999999999
 20
30.68545999999999
 30
0.0
 11
219.018
 21
31.00699999999999
 31
0.0
  0
LINE
  5
165
330
1E
100
AcDbEntity
  8
0
  6
CONTINUOUS
 62
     7
100
AcDbLine
 10
219.018
 20
31.00699999999999
 30
0.0
 11
217.8179999999999
 21
31.32852999999998
 31
0.0
  0
LINE
  5
166
330
1E
100
AcDbEntity
  8
0
  6
CONTINUOUS
 62
     7
100
AcDbLine
 10
175.5509999999999
 20
31.32852999999998
 30
0.0
 11
174.351
 21
31.00699999999999
 31
0.0
  0
LINE
  5
167
330
1E
100
AcDbEntity
  8
0
  6
CONTINUOUS
 62
     7
100
AcDbLine
 10
174.351
 20
31.00699999999999
 30
0.0
 11
175.5509999999999
 21
30.68545999999999
 31
0.0
  0
TEXT
  5
168
330
1E
100
AcDbEntity
  8
0
  6
CONTINUOUS
 62
     7
100
AcDbText
 10
191.48471
 20
31.40795999999999
 30
0.0
 40
3.2
  1
1340
 41
0.8125
  7
BIGFONT
100
AcDbText
  0
LINE
  5
169
330
1E
100
AcDbEntity
  8
0
  6
CONTINUOUS
 62
     7
100
AcDbLine
 10
169.0181
 20
38.50795999999997
 30
0.0
 11
197.3514299999999
 21
38.50795999999997
 31
0.0
  0
LINE
  5
16A
330
1E
100
AcDbEntity
  8
0
  6
CONTINUOUS
 62
     7
100
AcDbLine
 10
197.3514299999999
 20
47.80726
 30
0.0
 11
197.3514299999999
 21
37.70796
 31
0.0
  0
LINE
  5
16B
330
1E
100
AcDbEntity
  8
0
  6
CONTINUOUS
 62
     7
100
AcDbLine
 10
169.0181
 20
40.09305999999996
 30
0.0
 11
169.0181
 21
37.70796
 31
0.0
  0
LINE
  5
16C
330
1E
100
AcDbEntity
  8
0
  6
CONTINUOUS
 62
     7
100
AcDbLine
 10
196.1509999999999
 20
38.18545999999999
 30
0.0
 11
197.351
 21
38.50699999999999
 31
0.0
  0
LINE
  5
16D
330
1E
100
AcDbEntity
  8
0
  6
CONTINUOUS
 62
     7
100
AcDbLine
 10
197.351
 20
38.50699999999999
 30
0.0
 11
196.1509999999999
 21
38.82853
 31
0.0
  0
LINE
  5
16E
330
1E
100
AcDbEntity
  8
0
  6
CONTINUOUS
 62
     7
100
AcDbLine
 10
170.218
 20
38.82853
 30
0.0
 11
169.0179999999999
 21
38.50699999999999
 31
0.0
  0
LINE
  5
16F
330
1E
100
AcDbEntity
  8
0
  6
CONTINUOUS
 62
     7
100
AcDbLine
 10
169.0179999999999
 20
38.50699999999999
 30
0.0
 11
170.218
 21
38.18545999999999
 31
0.0
  0
TEXT
  5
170
330
1E
100
AcDbEntity
  8
0
  6
CONTINUOUS
 62
     7
100
AcDbText
 10
179.2847599999999
 20
38.90795999999999
 30
0.0
 40
3.2
  1
850
 41
0.8125
  7
BIGFONT
100
AcDbText
  0
LINE
  5
171
330
1E
100
AcDbEntity
  8
0
  6
CONTINUOUS
 62
     7
100
AcDbLine
 10
197.3514299999999
 20
38.50795999999997
 30
0.0
 11
219.018
 21
38.50795999999997
 31
0.0
  0
LINE
  5
172
330
1E
100
AcDbEntity
  8
0
  6
CONTINUOUS
 62
     7
100
AcDbLine
 10
219.018
 20
40.76793
 30
0.0
 11
219.018
 21
37.70796
 31
0.0
  0
LINE
  5
173
330
1E
100
AcDbEntity
  8
0
  6
CONTINUOUS
 62
     7
100
AcDbLine
 10
217.8179999999999
 20
38.18545999999999
 30
0.0
 11
219.018
 21
38.50699999999999
 31
0.0
  0
LINE
  5
174
330
1E
100
AcDbEntity
  8
0
  6
CONTINUOUS
 62
     7
100
AcDbLine
 10
219.018
 20
38.50699999999999
 30
0.0
 11
217.8179999999999
 21
38.82853
 31
0.0
  0
LINE
  5
175
330
1E
100
AcDbEntity
  8
0
  6
CONTINUOUS
 62
     7
100
AcDbLine
 10
198.5509999999999
 20
38.82853
 30
0.0
 11
197.351
 21
38.50699999999999
 31
0.0
  0
LINE
  5
176
330
1E
100
AcDbEntity
  8
0
  6
CONTINUOUS
 62
     7
100
AcDbLine
 10
197.351
 20
38.50699999999999
 30
0.0
 11
198.5509999999999
 21
38.18545999999999
 31
0.0
  0
TEXT
  5
177
330
1E
100
AcDbEntity
  8
0
  6
CONTINUOUS
 62
     7
100
AcDbText
 10
204.28471
 20
38.90795999999999
 30
0.0
 40
3.2
  1
650
 41
0.8125
  7
BIGFONT
100
AcDbText
  0
LINE
  5
178
330
1E
100
AcDbEntity
  8
0
  6
CONTINUOUS
 62
     7
100
AcDbLine
 10
174.35143
 20
40.04233
 30
0.0
 11
174.35143
 21
47.56706
 31
0.0
  0
TEXT
  5
179
330
1E
100
AcDbEntity
  8
0
  6
CONTINUOUS
 62
     7
100
AcDbText
 10
167.79483
 20
31.5953
 30
0.0
 40
3.2
  1
160
  7
BIGFONT
100
AcDbText
  0
LINE
  5
17A
330
1E
100
AcDbEntity
  8
0
  6
CONTINUOUS
 62
     7
100
AcDbLine
 10
172.27193
 20
89.34099999999999
 30
0.0
 11
176.3145
 21
89.34099999999999
 31
0.0
  0
LINE
  5
17B
330
1E
100
AcDbEntity
  8
0
  6
CONTINUOUS
 62
     1
100
AcDbLine
 10
-226.6738299999999
 20
52.67463000000001
 30
0.0
 11
-166.3440299999999
 21
52.67463000000001
 31
0.0
  0
LINE
  5
17C
330
1E
100
AcDbEntity
  8
0
  6
CONTINUOUS
 62
     1
100
AcDbLine
 10
-95.33043000000001
 20
50.01063
 30
0.0
 11
-95.33043000000001
 21
121.8412999999999
 31
0.0
  0
LINE
  5
17D
330
1E
100
AcDbEntity
  8
0
  6
CONTINUOUS
 62
     1
100
AcDbLine
 10
-88.66376
 20
50.01063
 30
0.0
 11
-88.66376
 21
121.8412999999999
 31
0.0
  0
LINE
  5
17E
330
1E
100
AcDbEntity
  8
0
  6
CONTINUOUS
 62
     1
100
AcDbLine
 10
-81.99710000000001
 20
50.01063
 30
0.0
 11
-81.99710000000001
 21
121.8412999999999
 31
0.0
  0
LINE
  5
17F
330
1E
100
AcDbEntity
  8
0
  6
CONTINUOUS
 62
     1
100
AcDbLine
 10
-75.33043000000002
 20
50.01063
 30
0.0
 11
-75.33043000000002
 21
121.8412999999999
 31
0.0
  0
LINE
  5
180
330
1E
100
AcDbEntity
  8
0
  6
CONTINUOUS
 62
     1
100
AcDbLine
 10
-68.66375999999999
 20
50.01063
 30
0.0
 11
-68.66375999999999
 21
121.8412999999999
 31
0.0
  0
LINE
  5
181
330
1E
100
AcDbEntity
  8
0
  6
CONTINUOUS
 62
     1
100
AcDbLine
 10
-61.9971
 20
50.01063
 30
0.0
 11
-61.9971
 21
121.8412999999999
 31
0.0
  0
LINE
  5
182
330
1E
100
AcDbEntity
  8
0
  6
CONTINUOUS
 62
     1
100
AcDbLine
 10
-55.33043000000001
 20
50.01063
 30
0.0
 11
-55.33043000000001
 21
121.8412999999999
 31
0.0
  0
LINE
  5
183
330
1E
100
AcDbEntity
  8
0
  6
CONTINUOUS
 62
     7
100
AcDbLine
 10
-228.3440999999999
 20
-18.98972999999998
 30
0.0
 11
-165.01076
 21
-18.98972999999998
 31
0.0
  0
LINE
  5
184
330
1E
100
AcDbEntity
  8
0
  6
CONTINUOUS
 62
     7
100
AcDbLine
 10
-165.01076
 20
-33.82305999999999
 30
0.0
 11
-165.01076
 21
-18.18972999999997
 31
0.0
  0
LINE
  5
185
330
1E
100
AcDbEntity
  8
0
  6
CONTINUOUS
 62
     7
100
AcDbLine
 10
-228.3440999999999
 20
-33.82305999999999
 30
0.0
 11
-228.3440999999999
 21
-18.18972999999997
 31
0.0
  0
LINE
  5
186
330
1E
100
AcDbEntity
  8
0
  6
CONTINUOUS
 62
     7
100
AcDbLine
 10
-166.21
 20
-19.31053
 30
0.0
 11
-165.0099999999999
 21
-18.989
 31
0.0
  0
LINE
  5
187
330
1E
100
AcDbEntity
  8
0
  6
CONTINUOUS
 62
     7
100
AcDbLine
 10
-165.0099999999999
 20
-18.989
 30
0.0
 11
-166.21
 21
-18.66746
 31
0.0
  0
LINE
  5
188
330
1E
100
AcDbEntity
  8
0
  6
CONTINUOUS
 62
     7
100
AcDbLine
 10
-227.144
 20
-18.66746
 30
0.0
 11
-228.344
 21
-18.989
 31
0.0
  0
LINE
  5
189
330
1E
100
AcDbEntity
  8
0
  6
CONTINUOUS
 62
     7
100
AcDbLine
 10
-228.344
 20
-18.989
 30
0.0
 11
-227.144
 21
-19.31053
 31
0.0
  0
TEXT
  5
18A
330
1E
100
AcDbEntity
  8
0
  6
CONTINUOUS
 62
     7
100
AcDbText
 10
-201.87743
 20
-18.58972999999998
 30
0.0
 40
3.2
  1
1900
 41
0.8125
  7
BIGFONT
100
AcDbText
  0
LINE
  5
18B
330
1E
100
AcDbEntity
  8
0
  6
CONTINUOUS
 62
     7
100
AcDbLine
 10
-103.67743
 20
-18.98972999999998
 30
0.0
 11
-40.3441
 21
-18.98972999999998
 31
0.0
  0
LINE
  5
18C
330
1E
100
AcDbEntity
  8
0
  6
CONTINUOUS
 62
     7
100
AcDbLine
 10
-40.3441
 20
-33.82305999999999
 30
0.0
 11
-40.3441
 21
-18.18972999999997
 31
0.0
  0
LINE
  5
18D
330
1E
100
AcDbEntity
  8
0
  6
CONTINUOUS
 62
     7
100
AcDbLine
 10
-103.67743
 20
-33.82305999999999
 30
0.0
 11
-103.67743
 21
-18.18972999999997
 31
0.0
  0
LINE
  5
18E
330
1E
100
AcDbEntity
  8
0
  6
CONTINUOUS
 62
     7
100
AcDbLine
 10
-41.54399999999998
 20
-19.31053
 30
0.0
 11
-40.344
 21
-18.989
 31
0.0
  0
LINE
  5
18F
330
1E
100
AcDbEntity
  8
0
  6
CONTINUOUS
 62
     7
100
AcDbLine
 10
-40.344
 20
-18.989
 30
0.0
 11
-41.54399999999998
 21
-18.66746
 31
0.0
  0
LINE
  5
190
330
1E
100
AcDbEntity
  8
0
  6
CONTINUOUS
 62
     7
100
AcDbLine
 10
-102.4769999999999
 20
-18.66746
 30
0.0
 11
-103.677
 21
-18.989
 31
0.0
  0
LINE
  5
191
330
1E
100
AcDbEntity
  8
0
  6
CONTINUOUS
 62
     7
100
AcDbLine
 10
-103.677
 20
-18.989
 30
0.0
 11
-102.4769999999999
 21
-19.31053
 31
0.0
  0
TEXT
  5
192
330
1E
100
AcDbEntity
  8
0
  6
CONTINUOUS
 62
     7
100
AcDbText
 10
-77.21076
 20
-18.58972999999998
 30
0.0
 40
3.2
  1
1900
 41
0.8125
  7
BIGFONT
100
AcDbText
  0
ARC
  5
193
330
1E
100
AcDbEntity
  8
0
  6
CONTINUOUS
 62
     1
100
AcDbCircle
 10
-100.8440999999999
 20
-37.65639999999999
 30
0.0
 40
1.0
100
AcDbArc
 50
90.0
 51
180.0
  0
LINE
  5
194
330
1E
100
AcDbEntity
  8
0
  6
CONTINUOUS
 62
     1
100
AcDbLine
 10
-100.8440999999999
 20
-36.65639999999999
 30
0.0
 11
-42.01075999999999
 21
-36.65639999999999
 31
0.0
  0
LINE
  5
195
330
1E
100
AcDbEntity
  8
0
  6
CONTINUOUS
 62
     1
100
AcDbLine
 10
-101.8440999999999
 20
-96.48972999999999
 30
0.0
 11
-54.36776
 21
-96.48972999999999
 31
0.0
  0
LINE
  5
196
330
1E
100
AcDbEntity
  8
0
  6
CONTINUOUS
 62
     1
100
AcDbLine
 10
-101.8440999999999
 20
-96.48972999999999
 30
0.0
 11
-101.8440999999999
 21
-37.65639999999999
 31
0.0
  0
LINE
  5
197
330
1E
100
AcDbEntity
  8
0
  6
CONTINUOUS
 62
     1
100
AcDbLine
 10
-227.01076
 20
-38.42306
 30
0.0
 11
-166.67743
 21
-38.42306
 31
0.0
  0
LINE
  5
198
330
1E
100
AcDbEntity
  8
0
  6
CONTINUOUS
 62
     1
100
AcDbLine
 10
-200.01076
 20
-96.48972999999999
 30
0.0
 11
-200.01076
 21
-36.15639999999999
 31
0.0
  0
LINE
  5
199
330
1E
100
AcDbEntity
  8
0
  6
CONTINUOUS
 62
     1
100
AcDbLine
 10
-206.67743
 20
-96.48972999999999
 30
0.0
 11
-206.67743
 21
-36.15639999999999
 31
0.0
  0
LINE
  5
19A
330
1E
100
AcDbEntity
  8
0
  6
CONTINUOUS
 62
     1
100
AcDbLine
 10
-213.3440999999999
 20
-96.48972999999999
 30
0.0
 11
-213.3440999999999
 21
-36.15639999999999
 31
0.0
  0
LINE
  5
19B
330
1E
100
AcDbEntity
  8
0
  6
CONTINUOUS
 62
     1
100
AcDbLine
 10
-220.0107599999999
 20
-96.48972999999999
 30
0.0
 11
-220.0107599999999
 21
-36.15639999999999
 31
0.0
  0
LINE
  5
19C
330
1E
100
AcDbEntity
  8
0
  6
CONTINUOUS
 62
     1
100
AcDbLine
 10
-227.01076
 20
-43.1564
 30
0.0
 11
-166.67743
 21
-43.1564
 31
0.0
  0
LINE
  5
19D
330
1E
100
AcDbEntity
  8
0
  6
CONTINUOUS
 62
     1
100
AcDbLine
 10
-227.01076
 20
-49.82306
 30
0.0
 11
-166.67743
 21
-49.82306
 31
0.0
  0
LINE
  5
19E
330
1E
100
AcDbEntity
  8
0
  6
CONTINUOUS
 62
     1
100
AcDbLine
 10
-227.01076
 20
-56.48973
 30
0.0
 11
-166.67743
 21
-56.48973
 31
0.0
  0
LINE
  5
19F
330
1E
100
AcDbEntity
  8
0
  6
CONTINUOUS
 62
     1
100
AcDbLine
 10
-227.01076
 20
-63.1564
 30
0.0
 11
-166.67743
 21
-63.1564
 31
0.0
  0
LINE
  5
1A0
330
1E
100
AcDbEntity
  8
0
  6
DASHED
 62
     1
100
AcDbLine
 10
-227.01076
 20
-55.78783000000001
 30
0.0
 11
-214.85996
 21
-55.78783000000001
 31
0.0
  0
LINE
  5
1A1
330
1E
100
AcDbEntity
  8
0
  6
DASHED
 62
     1
100
AcDbLine
 10
-167.3440999999999
 20
-48.3072
 30
0.0
 11
-167.3440999999999
 21
-36.15639999999999
 31
0.0
  0
LINE
  5
1A2
330
1E
100
AcDbEntity
  8
0
  6
DASHED
 62
     1
100
AcDbLine
 10
-200.67743
 20
-48.3072
 30
0.0
 11
-200.67743
 21
-36.15639999999999
 31
0.0
  0
LINE
  5
1A3
330
1E
100
AcDbEntity
  8
0
  6
DASHED
 62
     1
100
AcDbLine
 10
-207.3440999999998
 20
-48.3072
 30
0.0
 11
-207.3440999999998
 21
-36.15639999999999
 31
0.0
  0
CIRCLE
  5
1A4
330
1E
100
AcDbEntity
  8
0
  6
CONTINUOUS
 62
     7
100
AcDbCircle
 10
171.85143
 20
112.48596
 30
0.0
 40
0.5
  0
LINE
  5
1A5
330
1E
100
AcDbEntity
  8
0
  6
CONTINUOUS
 62
     7
100
AcDbLine
 10
171.85143
 20
111.1526299999999
 30
0.0
 11
171.85143
 21
113.8193
 31
0.0
  0
LINE
  5
1A6
330
1E
100
AcDbEntity
  8
0
  6
CONTINUOUS
 62
     7
100
AcDbLine
 10
170.5181
 20
112.48596
 30
0.0
 11
173.18476
 21
112.48596
 31
0.0
  0
LINE
  5
1A7
330
1E
100
AcDbEntity
  8
0
  6
CONTINUOUS
 62
     7
100
AcDbLine
 10
169.0181
 20
110.16476
 30
0.0
 11
174.35143
 21
110.16476
 31
0.0
  0
LINE
  5
1A8
330
1E
100
AcDbEntity
  8
0
  6
CONTINUOUS
 62
     7
100
AcDbLine
 10
169.0181
 20
100.5669
 30
0.0
 11
171.85143
 21
100.5669
 31
0.0
  0
LINE
  5
1A9
330
1E
100
AcDbEntity
  8
0
  6
CONTINUOUS
 62
     7
100
AcDbLine
 10
171.85143
 20
110.55126
 30
0.0
 11
171.85143
 21
99.76690000000001
 31
0.0
  0
LINE
  5
1AA
330
1E
100
AcDbEntity
  8
0
  6
CONTINUOUS
 62
     7
100
AcDbLine
 10
169.0181
 20
105.8263299999999
 30
0.0
 11
169.0181
 21
99.76690000000001
 31
0.0
  0
LINE
  5
1AB
330
1E
100
AcDbEntity
  8
0
  6
CONTINUOUS
 62
     7
100
AcDbLine
 10
174.25143
 20
100.5669
 30
0.0
 11
171.85143
 21
100.5669
 31
0.0
  0
LINE
  5
1AC
330
1E
100
AcDbEntity
  8
0
  6
CONTINUOUS
 62
     7
100
AcDbLine
 10
173.0509999999999
 20
100.8875299999999
 30
0.0
 11
171.851
 21
100.5659999999999
 31
0.0
  0
LINE
  5
1AD
330
1E
100
AcDbEntity
  8
0
  6
CONTINUOUS
 62
     7
100
AcDbLine
 10
171.851
 20
100.5659999999999
 30
0.0
 11
173.0509999999999
 21
100.24446
 31
0.0
  0
LINE
  5
1AE
330
1E
100
AcDbEntity
  8
0
  6
CONTINUOUS
 62
     7
100
AcDbLine
 10
169.0181
 20
100.5669
 30
0.0
 11
166.6180999999999
 21
100.5669
 31
0.0
  0
LINE
  5
1AF
330
1E
100
AcDbEntity
  8
0
  6
CONTINUOUS
 62
     7
100
AcDbLine
 10
167.8179999999999
 20
100.24446
 30
0.0
 11
169.0179999999999
 21
100.5659999999999
 31
0.0
  0
LINE
  5
1B0
330
1E
100
AcDbEntity
  8
0
  6
CONTINUOUS
 62
     7
100
AcDbLine
 10
169.0179999999999
 20
100.5659999999999
 30
0.0
 11
167.8179999999999
 21
100.8875299999999
 31
0.0
  0
LINE
  5
1B1
330
1E
100
AcDbEntity
  8
0
  6
CONTINUOUS
 62
     7
100
AcDbLine
 10
166.6180999999999
 20
100.5669
 30
0.0
 11
162.5180999999999
 21
100.5669
 31
0.0
  0
TEXT
  5
1B2
330
1E
100
AcDbEntity
  8
0
  6
CONTINUOUS
 62
     7
100
AcDbText
 10
162.5180999999999
 20
100.9668999999999
 30
0.0
 40
3.2
  1
85
 41
0.8125
  7
BIGFONT
100
AcDbText
  0
LINE
  5
1B3
330
1E
100
AcDbEntity
  8
0
  6
CONTINUOUS
 62
     7
100
AcDbLine
 10
-95.33043000000001
 20
89.40796
 30
0.0
 11
-101.9970999999999
 21
89.40796
 31
0.0
  0
LINE
  5
1B4
330
1E
100
AcDbEntity
  8
0
  6
CONTINUOUS
 62
     7
100
AcDbLine
 10
-100.797
 20
89.72853
 30
0.0
 11
-101.997
 21
89.40699999999997
 31
0.0
  0
LINE
  5
1B5
330
1E
100
AcDbEntity
  8
0
  6
CONTINUOUS
 62
     7
100
AcDbLine
 10
-101.997
 20
89.40699999999997
 30
0.0
 11
-100.797
 21
89.08545999999999
 31
0.0
  0
LINE
  5
1B6
330
1E
100
AcDbEntity
  8
0
  6
CONTINUOUS
 62
     7
100
AcDbLine
 10
-88.66376
 20
89.40796
 30
0.0
 11
-95.33043000000001
 21
89.40796
 31
0.0
  0
LINE
  5
1B7
330
1E
100
AcDbEntity
  8
0
  6
CONTINUOUS
 62
     7
100
AcDbLine
 10
-94.13
 20
89.72853
 30
0.0
 11
-95.32999999999999
 21
89.40699999999997
 31
0.0
  0
LINE
  5
1B8
330
1E
100
AcDbEntity
  8
0
  6
CONTINUOUS
 62
     7
100
AcDbLine
 10
-95.32999999999999
 20
89.40699999999997
 30
0.0
 11
-94.13
 21
89.08545999999999
 31
0.0
  0
LINE
  5
1B9
330
1E
100
AcDbEntity
  8
0
  6
CONTINUOUS
 62
     7
100
AcDbLine
 10
-81.99710000000001
 20
89.40796
 30
0.0
 11
-88.66376
 21
89.40796
 31
0.0
  0
LINE
  5
1BA
330
1E
100
AcDbEntity
  8
0
  6
CONTINUOUS
 62
     7
100
AcDbLine
 10
-87.46299999999996
 20
89.72853
 30
0.0
 11
-88.663
 21
89.40699999999997
 31
0.0
  0
LINE
  5
1BB
330
1E
100
AcDbEntity
  8
0
  6
CONTINUOUS
 62
     7
100
AcDbLine
 10
-88.663
 20
89.40699999999997
 30
0.0
 11
-87.46299999999996
 21
89.08545999999999
 31
0.0
  0
LINE
  5
1BC
330
1E
100
AcDbEntity
  8
0
  6
CONTINUOUS
 62
     7
100
AcDbLine
 10
-75.33043000000002
 20
89.40796
 30
0.0
 11
-81.99710000000001
 21
89.40796
 31
0.0
  0
LINE
  5
1BD
330
1E
100
AcDbEntity
  8
0
  6
CONTINUOUS
 62
     7
100
AcDbLine
 10
-80.797
 20
89.72853
 30
0.0
 11
-81.99699999999998
 21
89.40699999999997
 31
0.0
  0
LINE
  5
1BE
330
1E
100
AcDbEntity
  8
0
  6
CONTINUOUS
 62
     7
100
AcDbLine
 10
-81.99699999999998
 20
89.40699999999997
 30
0.0
 11
-80.797
 21
89.08545999999999
 31
0.0
  0
LINE
  5
1BF
330
1E
100
AcDbEntity
  8
0
  6
CONTINUOUS
 62
     7
100
AcDbLine
 10
-68.66375999999999
 20
89.40796
 30
0.0
 11
-75.33043000000002
 21
89.40796
 31
0.0
  0
LINE
  5
1C0
330
1E
100
AcDbEntity
  8
0
  6
CONTINUOUS
 62
     7
100
AcDbLine
 10
-74.13
 20
89.72853
 30
0.0
 11
-75.33
 21
89.40699999999997
 31
0.0
  0
LINE
  5
1C1
330
1E
100
AcDbEntity
  8
0
  6
CONTINUOUS
 62
     7
100
AcDbLine
 10
-75.33
 20
89.40699999999997
 30
0.0
 11
-74.13
 21
89.08545999999999
 31
0.0
  0
LINE
  5
1C2
330
1E
100
AcDbEntity
  8
0
  6
CONTINUOUS
 62
     7
100
AcDbLine
 10
-61.9971
 20
89.40796
 30
0.0
 11
-68.66375999999999
 21
89.40796
 31
0.0
  0
LINE
  5
1C3
330
1E
100
AcDbEntity
  8
0
  6
CONTINUOUS
 62
     7
100
AcDbLine
 10
-67.46299999999999
 20
89.72853
 30
0.0
 11
-68.66299999999999
 21
89.40699999999997
 31
0.0
  0
LINE
  5
1C4
330
1E
100
AcDbEntity
  8
0
  6
CONTINUOUS
 62
     7
100
AcDbLine
 10
-68.66299999999999
 20
89.40699999999997
 30
0.0
 11
-67.46299999999999
 21
89.08545999999999
 31
0.0
  0
LINE
  5
1C5
330
1E
100
AcDbEntity
  8
0
  6
CONTINUOUS
 62
     7
100
AcDbLine
 10
-55.33043000000001
 20
89.40796
 30
0.0
 11
-61.9971
 21
89.40796
 31
0.0
  0
LINE
  5
1C6
330
1E
100
AcDbEntity
  8
0
  6
CONTINUOUS
 62
     7
100
AcDbLine
 10
-60.79699999999998
 20
89.72853
 30
0.0
 11
-61.99699999999999
 21
89.40699999999997
 31
0.0
  0
LINE
  5
1C7
330
1E
100
AcDbEntity
  8
0
  6
CONTINUOUS
 62
     7
100
AcDbLine
 10
-61.99699999999999
 20
89.40699999999997
 30
0.0
 11
-60.79699999999998
 21
89.08545999999999
 31
0.0
  0
LINE
  5
1C8
330
1E
100
AcDbEntity
  8
0
  6
CONTINUOUS
 62
     7
100
AcDbLine
 10
-30.5503
 20
89.40796
 30
0.0
 11
-44.1544
 21
89.40796
 31
0.0
  0
LINE
  5
1C9
330
1E
100
AcDbEntity
  8
0
  6
CONTINUOUS
 62
     7
100
AcDbLine
 10
-42.95399999999999
 20
89.72853
 30
0.0
 11
-44.15399999999999
 21
89.40699999999997
 31
0.0
  0
LINE
  5
1CA
330
1E
100
AcDbEntity
  8
0
  6
CONTINUOUS
 62
     7
100
AcDbLine
 10
-44.15399999999999
 20
89.40699999999997
 30
0.0
 11
-42.95399999999999
 21
89.08545999999999
 31
0.0
  0
LINE
  5
1CB
330
1E
100
AcDbEntity
  8
0
  6
CONTINUOUS
 62
     7
100
AcDbLine
 10
-78.52053000000002
 20
131.8412999999999
 30
0.0
 11
-78.52053000000002
 21
121.8412999999999
 31
0.0
  0
LINE
  5
1CC
330
1E
100
AcDbEntity
  8
0
  6
CONTINUOUS
 62
     7
100
AcDbLine
 10
-78.84153000000002
 20
123.041
 30
0.0
 11
-78.52
 21
121.8409999999999
 31
0.0
  0
LINE
  5
1CD
330
1E
100
AcDbEntity
  8
0
  6
CONTINUOUS
 62
     7
100
AcDbLine
 10
-78.52
 20
121.8409999999999
 30
0.0
 11
-78.19846
 21
123.041
 31
0.0
  0
LINE
  5
1CE
330
1E
100
AcDbEntity
  8
0
  6
CONTINUOUS
 62
     7
100
AcDbLine
 10
-219.3390299999999
 20
60.01953
 30
0.0
 11
-226.0056999999999
 21
60.01953
 31
0.0
  0
LINE
  5
1CF
330
1E
100
AcDbEntity
  8
0
  6
CONTINUOUS
 62
     7
100
AcDbLine
 10
-224.805
 20
60.34053
 30
0.0
 11
-226.005
 21
60.019
 31
0.0
  0
LINE
  5
1D0
330
1E
100
AcDbEntity
  8
0
  6
CONTINUOUS
 62
     7
100
AcDbLine
 10
-226.005
 20
60.019
 30
0.0
 11
-224.805
 21
59.69746
 31
0.0
  0
LINE
  5
1D1
330
1E
100
AcDbEntity
  8
0
  6
CONTINUOUS
 62
     7
100
AcDbLine
 10
-212.67236
 20
60.01953
 30
0.0
 11
-219.3390299999999
 21
60.01953
 31
0.0
  0
LINE
  5
1D2
330
1E
100
AcDbEntity
  8
0
  6
CONTINUOUS
 62
     7
100
AcDbLine
 10
-218.1389999999999
 20
60.34053
 30
0.0
 11
-219.3389999999999
 21
60.019
 31
0.0
  0
LINE
  5
1D3
330
1E
100
AcDbEntity
  8
0
  6
CONTINUOUS
 62
     7
100
AcDbLine
 10
-219.3389999999999
 20
60.019
 30
0.0
 11
-218.1389999999999
 21
59.69746
 31
0.0
  0
LINE
  5
1D4
330
1E
100
AcDbEntity
  8
0
  6
CONTINUOUS
 62
     7
100
AcDbLine
 10
-206.0057
 20
60.01953
 30
0.0
 11
-212.67236
 21
60.01953
 31
0.0
  0
LINE
  5
1D5
330
1E
100
AcDbEntity
  8
0
  6
CONTINUOUS
 62
     7
100
AcDbLine
 10
-211.472
 20
60.34053
 30
0.0
 11
-212.672
 21
60.019
 31
0.0
  0
LINE
  5
1D6
330
1E
100
AcDbEntity
  8
0
  6
CONTINUOUS
 62
     7
100
AcDbLine
 10
-212.672
 20
60.019
 30
0.0
 11
-211.472
 21
59.69746
 31
0.0
  0
LINE
  5
1D7
330
1E
100
AcDbEntity
  8
0
  6
CONTINUOUS
 62
     7
100
AcDbLine
 10
-199.33903
 20
60.01953
 30
0.0
 11
-206.0057
 21
60.01953
 31
0.0
  0
LINE
  5
1D8
330
1E
100
AcDbEntity
  8
0
  6
CONTINUOUS
 62
     7
100
AcDbLine
 10
-204.8049999999999
 20
60.34053
 30
0.0
 11
-206.0049999999999
 21
60.019
 31
0.0
  0
LINE
  5
1D9
330
1E
100
AcDbEntity
  8
0
  6
CONTINUOUS
 62
     7
100
AcDbLine
 10
-206.0049999999999
 20
60.019
 30
0.0
 11
-204.8049999999999
 21
59.69746
 31
0.0
  0
LINE
  5
1DA
330
1E
100
AcDbEntity
  8
0
  6
CONTINUOUS
 62
     7
100
AcDbLine
 10
-192.67236
 20
60.01953
 30
0.0
 11
-199.33903
 21
60.01953
 31
0.0
  0
LINE
  5
1DB
330
1E
100
AcDbEntity
  8
0
  6
CONTINUOUS
 62
     7
100
AcDbLine
 10
-198.139
 20
60.34053
 30
0.0
 11
-199.3389999999999
 21
60.019
 31
0.0
  0
LINE
  5
1DC
330
1E
100
AcDbEntity
  8
0
  6
CONTINUOUS
 62
     7
100
AcDbLine
 10
-199.3389999999999
 20
60.019
 30
0.0
 11
-198.139
 21
59.69746
 31
0.0
  0
LINE
  5
1DD
330
1E
100
AcDbEntity
  8
0
  6
CONTINUOUS
 62
     7
100
AcDbLine
 10
-155.0126999999999
 20
60.01953
 30
0.0
 11
-186.0056999999999
 21
60.01953
 31
0.0
  0
LINE
  5
1DE
330
1E
100
AcDbEntity
  8
0
  6
CONTINUOUS
 62
     7
100
AcDbLine
 10
-184.805
 20
60.34053
 30
0.0
 11
-186.005
 21
60.019
 31
0.0
  0
LINE
  5
1DF
330
1E
100
AcDbEntity
  8
0
  6
CONTINUOUS
 62
     7
100
AcDbLine
 10
-186.005
 20
60.019
 30
0.0
 11
-184.805
 21
59.69746
 31
0.0
  0
LINE
  5
1E0
330
1E
100
AcDbEntity
  8
0
  6
CONTINUOUS
 62
     7
100
AcDbLine
 10
-193.33903
 20
77.67463000000002
 30
0.0
 11
-200.0056999999999
 21
77.67463000000002
 31
0.0
  0
LINE
  5
1E1
330
1E
100
AcDbEntity
  8
0
  6
CONTINUOUS
 62
     7
100
AcDbLine
 10
-198.805
 20
77.99553
 30
0.0
 11
-200.0049999999998
 21
77.67400000000002
 31
0.0
  0
LINE
  5
1E2
330
1E
100
AcDbEntity
  8
0
  6
CONTINUOUS
 62
     7
100
AcDbLine
 10
-200.0049999999998
 20
77.67400000000002
 30
0.0
 11
-198.805
 21
77.35246
 31
0.0
  0
LINE
  5
1E3
330
1E
100
AcDbEntity
  8
0
  6
CONTINUOUS
 62
     7
100
AcDbLine
 10
-186.67236
 20
77.67463000000002
 30
0.0
 11
-193.33903
 21
77.67463000000002
 31
0.0
  0
LINE
  5
1E4
330
1E
100
AcDbEntity
  8
0
  6
CONTINUOUS
 62
     7
100
AcDbLine
 10
-192.139
 20
77.99553
 30
0.0
 11
-193.3389999999999
 21
77.67400000000002
 31
0.0
  0
LINE
  5
1E5
330
1E
100
AcDbEntity
  8
0
  6
CONTINUOUS
 62
     7
100
AcDbLine
 10
-193.3389999999999
 20
77.67400000000002
 30
0.0
 11
-192.139
 21
77.35246
 31
0.0
  0
LINE
  5
1E6
330
1E
100
AcDbEntity
  8
0
  6
CONTINUOUS
 62
     7
100
AcDbLine
 10
-180.0056999999999
 20
77.67463000000002
 30
0.0
 11
-186.67236
 21
77.67463000000002
 31
0.0
  0
LINE
  5
1E7
330
1E
100
AcDbEntity
  8
0
  6
CONTINUOUS
 62
     7
100
AcDbLine
 10
-185.472
 20
77.99553
 30
0.0
 11
-186.6719999999999
 21
77.67400000000002
 31
0.0
  0
LINE
  5
1E8
330
1E
100
AcDbEntity
  8
0
  6
CONTINUOUS
 62
     7
100
AcDbLine
 10
-186.6719999999999
 20
77.67400000000002
 30
0.0
 11
-185.472
 21
77.35246
 31
0.0
  0
LINE
  5
1E9
330
1E
100
AcDbEntity
  8
0
  6
CONTINUOUS
 62
     1
100
AcDbLine
 10
-166.67743
 20
-64.83346
 30
0.0
 11
-166.67743
 21
-36.15639999999999
 31
0.0
  0
LINE
  5
1EA
330
1E
100
AcDbEntity
  8
0
  6
CONTINUOUS
 62
     1
100
AcDbLine
 10
-227.01076
 20
-83.1564
 30
0.0
 11
-198.35193
 21
-83.1564
 31
0.0
  0
LINE
  5
1EB
330
1E
100
AcDbEntity
  8
0
  6
CONTINUOUS
 62
     1
100
AcDbLine
 10
-227.01076
 20
-89.82305999999999
 30
0.0
 11
-198.35193
 21
-89.82305999999999
 31
0.0
  0
LINE
  5
1EC
330
1E
100
AcDbEntity
  8
0
  6
CONTINUOUS
 62
     1
100
AcDbLine
 10
-227.01076
 20
-96.48972999999999
 30
0.0
 11
-198.3441
 21
-96.48972999999999
 31
0.0
  0
LINE
  5
1ED
330
1E
100
AcDbEntity
  8
0
  6
CONTINUOUS
 62
     7
100
AcDbLine
 10
-186.67743
 20
-60.2914
 30
0.0
 11
-193.3441
 21
-60.2914
 31
0.0
  0
LINE
  5
1EE
330
1E
100
AcDbEntity
  8
0
  6
CONTINUOUS
 62
     7
100
AcDbLine
 10
-192.144
 20
-59.96946
 30
0.0
 11
-193.344
 21
-60.29099999999999
 31
0.0
  0
LINE
  5
1EF
330
1E
100
AcDbEntity
  8
0
  6
CONTINUOUS
 62
     7
100
AcDbLine
 10
-193.344
 20
-60.29099999999999
 30
0.0
 11
-192.144
 21
-60.61253
 31
0.0
  0
LINE
  5
1F0
330
1E
100
AcDbEntity
  8
0
  6
CONTINUOUS
 62
     7
100
AcDbLine
 10
-180.01076
 20
-60.2914
 30
0.0
 11
-186.67743
 21
-60.2914
 31
0.0
  0
LINE
  5
1F1
330
1E
100
AcDbEntity
  8
0
  6
CONTINUOUS
 62
     7
100
AcDbLine
 10
-185.477
 20
-59.96946
 30
0.0
 11
-186.6769999999999
 21
-60.29099999999999
 31
0.0
  0
LINE
  5
1F2
330
1E
100
AcDbEntity
  8
0
  6
CONTINUOUS
 62
     7
100
AcDbLine
 10
-186.6769999999999
 20
-60.29099999999999
 30
0.0
 11
-185.477
 21
-60.61253
 31
0.0
  0
LINE
  5
1F3
330
1E
100
AcDbEntity
  8
0
  6
CONTINUOUS
 62
     7
100
AcDbLine
 10
-166.67743
 20
-60.2914
 30
0.0
 11
-173.3441
 21
-60.2914
 31
0.0
  0
LINE
  5
1F4
330
1E
100
AcDbEntity
  8
0
  6
CONTINUOUS
 62
     7
100
AcDbLine
 10
-172.144
 20
-59.96946
 30
0.0
 11
-173.3439999999999
 21
-60.29099999999999
 31
0.0
  0
LINE
  5
1F5
330
1E
100
AcDbEntity
  8
0
  6
CONTINUOUS
 62
     7
100
AcDbLine
 10
-173.3439999999999
 20
-60.29099999999999
 30
0.0
 11
-172.144
 21
-60.61253
 31
0.0
  0
LINE
  5
1F6
330
1E
100
AcDbEntity
  8
0
  6
CONTINUOUS
 62
     7
100
AcDbLine
 10
-155.0126999999999
 20
-60.2914
 30
0.0
 11
-166.6904
 21
-60.2914
 31
0.0
  0
LINE
  5
1F7
330
1E
100
AcDbEntity
  8
0
  6
CONTINUOUS
 62
     7
100
AcDbLine
 10
-165.49
 20
-59.96946
 30
0.0
 11
-166.69
 21
-60.29099999999999
 31
0.0
  0
LINE
  5
1F8
330
1E
100
AcDbEntity
  8
0
  6
CONTINUOUS
 62
     7
100
AcDbLine
 10
-166.69
 20
-60.29099999999999
 30
0.0
 11
-165.49
 21
-60.61253
 31
0.0
  0
LINE
  5
1F9
330
1E
100
AcDbEntity
  8
0
  6
CONTINUOUS
 62
     7
100
AcDbLine
 10
-200.67743
 20
-45.53085999999999
 30
0.0
 11
-207.3440999999998
 21
-45.53085999999999
 31
0.0
  0
LINE
  5
1FA
330
1E
100
AcDbEntity
  8
0
  6
CONTINUOUS
 62
     7
100
AcDbLine
 10
-206.144
 20
-45.20845999999997
 30
0.0
 11
-207.344
 21
-45.52999999999999
 31
0.0
  0
LINE
  5
1FB
330
1E
100
AcDbEntity
  8
0
  6
CONTINUOUS
 62
     7
100
AcDbLine
 10
-207.344
 20
-45.52999999999999
 30
0.0
 11
-206.144
 21
-45.85153
 31
0.0
  0
LINE
  5
1FC
330
1E
100
AcDbEntity
  8
0
  6
CONTINUOUS
 62
     7
100
AcDbLine
 10
-194.01076
 20
-45.53085999999999
 30
0.0
 11
-200.67743
 21
-45.53085999999999
 31
0.0
  0
LINE
  5
1FD
330
1E
100
AcDbEntity
  8
0
  6
CONTINUOUS
 62
     7
100
AcDbLine
 10
-199.477
 20
-45.20845999999997
 30
0.0
 11
-200.6769999999999
 21
-45.52999999999999
 31
0.0
  0
LINE
  5
1FE
330
1E
100
AcDbEntity
  8
0
  6
CONTINUOUS
 62
     7
100
AcDbLine
 10
-200.6769999999999
 20
-45.52999999999999
 30
0.0
 11
-199.477
 21
-45.85153
 31
0.0
  0
LINE
  5
1FF
330
1E
100
AcDbEntity
  8
0
  6
CONTINUOUS
 62
     7
100
AcDbLine
 10
-187.3440999999999
 20
-45.53085999999999
 30
0.0
 11
-194.01076
 21
-45.53085999999999
 31
0.0
  0
LINE
  5
200
330
1E
100
AcDbEntity
  8
0
  6
CONTINUOUS
 62
     7
100
AcDbLine
 10
-192.81
 20
-45.20845999999997
 30
0.0
 11
-194.0099999999999
 21
-45.52999999999999
 31
0.0
  0
LINE
  5
201
330
1E
100
AcDbEntity
  8
0
  6
CONTINUOUS
 62
     7
100
AcDbLine
 10
-194.0099999999999
 20
-45.52999999999999
 30
0.0
 11
-192.81
 21
-45.85153
 31
0.0
  0
LINE
  5
202
330
1E
100
AcDbEntity
  8
0
  6
CONTINUOUS
 62
     7
100
AcDbLine
 10
-180.67743
 20
-45.53085999999999
 30
0.0
 11
-187.3440999999999
 21
-45.53085999999999
 31
0.0
  0
LINE
  5
203
330
1E
100
AcDbEntity
  8
0
  6
CONTINUOUS
 62
     7
100
AcDbLine
 10
-186.1439999999999
 20
-45.20845999999997
 30
0.0
 11
-187.344
 21
-45.52999999999999
 31
0.0
  0
LINE
  5
204
330
1E
100
AcDbEntity
  8
0
  6
CONTINUOUS
 62
     7
100
AcDbLine
 10
-187.344
 20
-45.52999999999999
 30
0.0
 11
-186.1439999999999
 21
-45.85153
 31
0.0
  0
LINE
  5
205
330
1E
100
AcDbEntity
  8
0
  6
CONTINUOUS
 62
     7
100
AcDbLine
 10
-167.3440999999999
 20
-45.53085999999999
 30
0.0
 11
-174.0107599999999
 21
-45.53085999999999
 31
0.0
  0
LINE
  5
206
330
1E
100
AcDbEntity
  8
0
  6
CONTINUOUS
 62
     7
100
AcDbLine
 10
-172.8099999999999
 20
-45.20845999999997
 30
0.0
 11
-174.0099999999999
 21
-45.52999999999999
 31
0.0
  0
LINE
  5
207
330
1E
100
AcDbEntity
  8
0
  6
CONTINUOUS
 62
     7
100
AcDbLine
 10
-174.0099999999999
 20
-45.52999999999999
 30
0.0
 11
-172.8099999999999
 21
-45.85153
 31
0.0
  0
LINE
  5
208
330
1E
100
AcDbEntity
  8
0
  6
CONTINUOUS
 62
     7
100
AcDbLine
 10
-155.0126999999999
 20
-45.53085999999999
 30
0.0
 11
-167.35626
 21
-45.53085999999999
 31
0.0
  0
LINE
  5
209
330
1E
100
AcDbEntity
  8
0
  6
CONTINUOUS
 62
     7
100
AcDbLine
 10
-166.1559999999998
 20
-45.20845999999997
 30
0.0
 11
-167.3559999999999
 21
-45.52999999999999
 31
0.0
  0
LINE
  5
20A
330
1E
100
AcDbEntity
  8
0
  6
CONTINUOUS
 62
     7
100
AcDbLine
 10
-167.3559999999999
 20
-45.52999999999999
 30
0.0
 11
-166.1559999999998
 21
-45.85153
 31
0.0
  0
LINE
  5
20B
330
1E
100
AcDbEntity
  8
0
  6
CONTINUOUS
 62
     7
100
AcDbLine
 10
-217.2050599999999
 20
-89.14613000000001
 30
0.0
 11
-217.2050599999999
 21
-82.47946
 31
0.0
  0
LINE
  5
20C
330
1E
100
AcDbEntity
  8
0
  6
CONTINUOUS
 62
     7
100
AcDbLine
 10
-216.88346
 20
-83.679
 30
0.0
 11
-217.205
 21
-82.47899999999999
 31
0.0
  0
LINE
  5
20D
330
1E
100
AcDbEntity
  8
0
  6
CONTINUOUS
 62
     7
100
AcDbLine
 10
-217.205
 20
-82.47899999999999
 30
0.0
 11
-217.5265299999999
 21
-83.679
 31
0.0
  0
LINE
  5
20E
330
1E
100
AcDbEntity
  8
0
  6
CONTINUOUS
 62
     7
100
AcDbLine
 10
-217.2050599999999
 20
-95.81279999999999
 30
0.0
 11
-217.2050599999999
 21
-89.14613000000001
 31
0.0
  0
LINE
  5
20F
330
1E
100
AcDbEntity
  8
0
  6
CONTINUOUS
 62
     7
100
AcDbLine
 10
-216.88346
 20
-90.34600000000001
 30
0.0
 11
-217.205
 21
-89.146
 31
0.0
  0
LINE
  5
210
330
1E
100
AcDbEntity
  8
0
  6
CONTINUOUS
 62
     7
100
AcDbLine
 10
-217.205
 20
-89.146
 30
0.0
 11
-217.5265299999999
 21
-90.34600000000001
 31
0.0
  0
LINE
  5
211
330
1E
100
AcDbEntity
  8
0
  6
CONTINUOUS
 62
     7
100
AcDbLine
 10
-217.2050599999999
 20
-108.1442
 30
0.0
 11
-217.2050599999999
 21
-95.80063
 31
0.0
  0
LINE
  5
212
330
1E
100
AcDbEntity
  8
0
  6
CONTINUOUS
 62
     7
100
AcDbLine
 10
-217.2050599999999
 20
-95.80063
 30
0.0
 11
-217.2050599999999
 21
-93.40063
 31
0.0
  0
LINE
  5
213
330
1E
100
AcDbEntity
  8
0
  6
CONTINUOUS
 62
     7
100
AcDbLine
 10
-216.88346
 20
-97.0
 30
0.0
 11
-217.205
 21
-95.8
 31
0.0
  0
LINE
  5
214
330
1E
100
AcDbEntity
  8
0
  6
CONTINUOUS
 62
     7
100
AcDbLine
 10
-217.205
 20
-95.8
 30
0.0
 11
-217.5265299999999
 21
-97.0
 31
0.0
  0
LINE
  5
215
330
1E
100
AcDbEntity
  8
0
  6
CONTINUOUS
 62
     7
100
AcDbLine
 10
-203.3440999999998
 20
-89.82305999999999
 30
0.0
 11
-203.3440999999998
 21
-83.1564
 31
0.0
  0
LINE
  5
216
330
1E
100
AcDbEntity
  8
0
  6
CONTINUOUS
 62
     7
100
AcDbLine
 10
-203.0224599999999
 20
-84.35599999999999
 30
0.0
 11
-203.344
 21
-83.15600000000001
 31
0.0
  0
LINE
  5
217
330
1E
100
AcDbEntity
  8
0
  6
CONTINUOUS
 62
     7
100
AcDbLine
 10
-203.344
 20
-83.15600000000001
 30
0.0
 11
-203.66553
 21
-84.35599999999999
 31
0.0
  0
LINE
  5
218
330
1E
100
AcDbEntity
  8
0
  6
CONTINUOUS
 62
     7
100
AcDbLine
 10
-203.3440999999998
 20
-96.48972999999999
 30
0.0
 11
-203.3440999999998
 21
-89.82305999999999
 31
0.0
  0
LINE
  5
219
330
1E
100
AcDbEntity
  8
0
  6
CONTINUOUS
 62
     7
100
AcDbLine
 10
-203.0224599999999
 20
-91.02299999999999
 30
0.0
 11
-203.344
 21
-89.823
 31
0.0
  0
LINE
  5
21A
330
1E
100
AcDbEntity
  8
0
  6
CONTINUOUS
 62
     7
100
AcDbLine
 10
-203.344
 20
-89.823
 30
0.0
 11
-203.66553
 21
-91.02299999999999
 31
0.0
  0
LINE
  5
21B
330
1E
100
AcDbEntity
  8
0
  6
CONTINUOUS
 62
     7
100
AcDbLine
 10
-203.3440999999998
 20
-108.15446
 30
0.0
 11
-203.3440999999998
 21
-96.47676
 31
0.0
  0
LINE
  5
21C
330
1E
100
AcDbEntity
  8
0
  6
CONTINUOUS
 62
     7
100
AcDbLine
 10
-203.0224599999999
 20
-97.67600000000001
 30
0.0
 11
-203.344
 21
-96.476
 31
0.0
  0
LINE
  5
21D
330
1E
100
AcDbEntity
  8
0
  6
CONTINUOUS
 62
     7
100
AcDbLine
 10
-203.344
 20
-96.476
 30
0.0
 11
-203.66553
 21
-97.67600000000001
 31
0.0
  0
TEXT
  5
21E
330
1E
100
AcDbEntity
  8
0
  6
CONTINUOUS
 62
     7
100
AcDbText
 10
183.9891
 20
112.32633
 30
0.0
 40
3.2
  1
W1/2
  7
BIGFONT
100
AcDbText
  0
LINE
  5
21F
330
1E
100
AcDbEntity
  8
0
  6
CONTINUOUS
 62
     7
100
AcDbLine
 10
182.4679999999999
 20
116.17983
 30
0.0
 11
224.6545190852982
 21
116.17983
 31
0.0
  0
LINE
  5
220
330
1E
100
AcDbEntity
  8
0
  6
CONTINUOUS
 62
     7
100
AcDbLine
 10
182.4679999999999
 20
116.17983
 30
0.0
 11
172.13836
 21
112.88193
 31
0.0
  0
LINE
  5
221
330
1E
100
AcDbEntity
  8
0
  6
CONTINUOUS
 62
     7
100
AcDbLine
 10
173.18335
 20
113.5522699999996
 30
0.0
 11
172.138
 21
112.881
 31
0.0
  0
LINE
  5
222
330
1E
100
AcDbEntity
  8
0
  6
CONTINUOUS
 62
     7
100
AcDbLine
 10
172.138
 20
112.881
 30
0.0
 11
173.37894
 21
112.9396599999999
 31
0.0
  0
TEXT
  5
223
330
1E
100
AcDbEntity
  8
0
  6
CONTINUOUS
 62
     7
100
AcDbText
 10
183.6734599999999
 20
116.69753
 30
0.0
 40
3.2
  1
4-埋め込みインサート
  7
BIGFONT
100
AcDbText
  0
TEXT
  5
224
330
1E
100
AcDbEntity
  8
1
  6
CONTINUOUS
 62
     7
100
AcDbText
 10
-199.243515264929
 20
-139.85548
 30
0.0
 40
4.5
  1
鉄筋加工図
  7
BIGFONT
100
AcDbText
  0
LINE
  5
225
330
1E
100
AcDbEntity
  8
1
  6
CONTINUOUS
 62
     7
100
AcDbLine
 10
-204.6974999999999
 20
-140.66258
 30
0.0
 11
-168.41368
 21
-140.66258
 31
0.0
  0
LINE
  5
226
330
1E
100
AcDbEntity
  8
1
  6
CONTINUOUS
 62
     7
100
AcDbLine
 10
-176.4136799999999
 20
-140.66258
 30
0.0
 11
-175.70508
 21
-140.66258
 31
0.0
  0
CIRCLE
  5
227
330
1E
100
AcDbEntity
  8
0
  6
CONTINUOUS
 62
     7
100
AcDbCircle
 10
197.3419599999999
 20
52.07463
 30
0.0
 40
0.5
  0
LINE
  5
228
330
1E
100
AcDbEntity
  8
0
  6
CONTINUOUS
 62
     7
100
AcDbLine
 10
197.3419599999999
 20
50.7413
 30
0.0
 11
197.3419599999999
 21
53.40796
 31
0.0
  0
LINE
  5
229
330
1E
100
AcDbEntity
  8
0
  6
CONTINUOUS
 62
     7
100
AcDbLine
 10
196.00863
 20
52.07463
 30
0.0
 11
198.6753
 21
52.07463
 31
0.0
  0
LINE
  5
22A
330
1E
100
AcDbEntity
  8
0
  6
CONTINUOUS
 62
     7
100
AcDbLine
 10
208.976
 20
48.50795999999998
 30
0.0
 11
208.976
 21
52.07463
 31
0.0
  0
LINE
  5
22B
330
1E
100
AcDbEntity
  8
0
  6
CONTINUOUS
 62
     7
100
AcDbLine
 10
199.2784999999999
 20
52.07463
 30
0.0
 11
209.776
 21
52.07463
 31
0.0
  0
LINE
  5
22C
330
1E
100
AcDbEntity
  8
0
  6
CONTINUOUS
 62
     7
100
AcDbLine
 10
205.52916
 20
48.50795999999998
 30
0.0
 11
209.776
 21
48.50795999999998
 31
0.0
  0
LINE
  5
22D
330
1E
100
AcDbEntity
  8
0
  6
CONTINUOUS
 62
     7
100
AcDbLine
 10
208.976
 20
54.47463
 30
0.0
 11
208.976
 21
52.07463
 31
0.0
  0
LINE
  5
22E
330
1E
100
AcDbEntity
  8
0
  6
CONTINUOUS
 62
     7
100
AcDbLine
 10
208.6544599999998
 20
53.27399999999999
 30
0.0
 11
208.976
 21
52.07399999999999
 31
0.0
  0
LINE
  5
22F
330
1E
100
AcDbEntity
  8
0
  6
CONTINUOUS
 62
     7
100
AcDbLine
 10
208.976
 20
52.07399999999999
 30
0.0
 11
209.2975299999999
 21
53.27399999999999
 31
0.0
  0
LINE
  5
230
330
1E
100
AcDbEntity
  8
0
  6
CONTINUOUS
 62
     7
100
AcDbLine
 10
208.976
 20
48.50795999999998
 30
0.0
 11
208.976
 21
46.10795999999999
 31
0.0
  0
LINE
  5
231
330
1E
100
AcDbEntity
  8
0
  6
CONTINUOUS
 62
     7
100
AcDbLine
 10
209.2975299999999
 20
47.30699999999997
 30
0.0
 11
208.976
 21
48.50699999999999
 31
0.0
  0
LINE
  5
232
330
1E
100
AcDbEntity
  8
0
  6
CONTINUOUS
 62
     7
100
AcDbLine
 10
208.976
 20
48.50699999999999
 30
0.0
 11
208.6544599999998
 21
47.30699999999997
 31
0.0
  0
LINE
  5
233
330
1E
100
AcDbEntity
  8
0
  6
CONTINUOUS
 62
     7
100
AcDbLine
 10
208.976
 20
54.47463
 30
0.0
 11
208.976
 21
62.47463
 31
0.0
  0
TEXT
  5
234
330
1E
100
AcDbEntity
  8
0
  6
CONTINUOUS
 62
     7
100
AcDbText
 10
208.576
 20
57.89278642827937
 30
0.0
 40
3.2
  1
107
 50
90.0
 41
0.8125
  7
BIGFONT
100
AcDbText
  0
TEXT
  5
235
330
1E
100
AcDbEntity
  8
3
  6
CONTINUOUS
 62
     7
100
AcDbText
 10
246.1329999999999
 20
-158.793
 30
0.0
 40
3.799999999999998
  1
ＫＬ－３１０７
 41
0.7
  7
BIGFONT
100
AcDbText
  0
LINE
  5
236
330
1E
100
AcDbEntity
  8
0
  6
CONTINUOUS
 62
     7
100
AcDbLine
 10
232.3514299999999
 20
-84.82305999999999
 30
0.0
 11
232.3514299999999
 21
-34.82305999999999
 31
0.0
  0
LINE
  5
237
330
1E
100
AcDbEntity
  8
0
  6
CONTINUOUS
 62
     7
100
AcDbLine
 10
226.0892
 20
-105.2275
 30
0.0
 11
239.4299299999999
 21
-91.88675999999999
 31
0.0
  0
LINE
  5
238
330
1E
100
AcDbEntity
  8
0
  6
CONTINUOUS
 62
     7
100
AcDbLine
 10
233.06594
 20
-85.52277
 30
0.0
 11
239.99561
 21
-92.45245
 31
0.0
  0
LINE
  5
239
330
1E
100
AcDbEntity
  8
0
  6
CONTINUOUS
 62
     7
100
AcDbLine
 10
219.7252
 20
-98.8635
 30
0.0
 11
226.6548799999999
 21
-105.7931799999999
 31
0.0
  0
LINE
  5
23A
330
1E
100
AcDbEntity
  8
0
  6
CONTINUOUS
 62
     7
100
AcDbLine
 10
238.8078299999999
 20
-92.96189
 30
0.0
 11
239.429
 21
-91.88599999999999
 31
0.0
  0
LINE
  5
23B
330
1E
100
AcDbEntity
  8
0
  6
CONTINUOUS
 62
     7
100
AcDbLine
 10
239.429
 20
-91.88599999999999
 30
0.0
 11
238.3531
 21
-92.50716
 31
0.0
  0
LINE
  5
23C
330
1E
100
AcDbEntity
  8
0
  6
CONTINUOUS
 62
     7
100
AcDbLine
 10
226.71016
 20
-104.1511
 30
0.0
 11
226.0889999999999
 21
-105.227
 31
0.0
  0
LINE
  5
23D
330
1E
100
AcDbEntity
  8
0
  6
CONTINUOUS
 62
     7
100
AcDbLine
 10
226.0889999999999
 20
-105.227
 30
0.0
 11
227.1648899999999
 21
-104.60583
 31
0.0
  0
TEXT
  5
23E
330
1E
100
AcDbEntity
  8
0
  6
CONTINUOUS
 62
     7
100
AcDbText
 10
229.719
 20
-101.0319999999999
 30
0.0
 40
3.2
  1
566
 50
45.0
 41
0.8125
  7
BIGFONT
100
AcDbText
  0
LINE
  5
23F
330
1E
100
AcDbEntity
  8
1
  6
CONTINUOUS
 62
     1
100
AcDbLine
 10
-237.5084399999999
 20
-174.16002
 30
0.0
 11
-228.18442
 21
-174.16002
 31
0.0
  0
LINE
  5
240
330
1E
100
AcDbEntity
  8
1
  6
CONTINUOUS
 62
     7
100
AcDbLine
 10
-237.5084399999999
 20
-182.12738
 30
0.0
 11
-228.18442
 21
-182.12738
 31
0.0
  0
LINE
  5
241
330
1E
100
AcDbEntity
  8
1
  6
CONTINUOUS
 62
     7
100
AcDbLine
 10
-228.18442
 20
-175.16002
 30
0.0
 11
-228.18442
 21
-182.9273799999999
 31
0.0
  0
LINE
  5
242
330
1E
100
AcDbEntity
  8
1
  6
CONTINUOUS
 62
     7
100
AcDbLine
 10
-237.5084399999999
 20
-174.4844399999999
 30
0.0
 11
-237.5084399999999
 21
-182.9273799999999
 31
0.0
  0
LINE
  5
243
330
1E
100
AcDbEntity
  8
1
  6
CONTINUOUS
 62
     7
100
AcDbLine
 10
-229.3839999999999
 20
-182.44853
 30
0.0
 11
-228.1839999999998
 21
-182.127
 31
0.0
  0
LINE
  5
244
330
1E
100
AcDbEntity
  8
1
  6
CONTINUOUS
 62
     7
100
AcDbLine
 10
-228.1839999999998
 20
-182.127
 30
0.0
 11
-229.3839999999999
 21
-181.80546
 31
0.0
  0
LINE
  5
245
330
1E
100
AcDbEntity
  8
1
  6
CONTINUOUS
 62
     7
100
AcDbLine
 10
-236.308
 20
-181.80546
 30
0.0
 11
-237.508
 21
-182.127
 31
0.0
  0
LINE
  5
246
330
1E
100
AcDbEntity
  8
1
  6
CONTINUOUS
 62
     7
100
AcDbLine
 10
-237.508
 20
-182.127
 30
0.0
 11
-236.308
 21
-182.44853
 31
0.0
  0
LINE
  5
247
330
1E
100
AcDbEntity
  8
1
  6
CONTINUOUS
 62
     1
100
AcDbLine
 10
-207.0084399999999
 20
-174.16002
 30
0.0
 11
-173.0084399999999
 21
-174.16002
 31
0.0
  0
LINE
  5
248
330
1E
100
AcDbEntity
  8
1
  6
CONTINUOUS
 62
     7
100
AcDbLine
 10
-207.0084399999999
 20
-182.1296
 30
0.0
 11
-173.0084399999999
 21
-182.1296
 31
0.0
  0
LINE
  5
249
330
1E
100
AcDbEntity
  8
1
  6
CONTINUOUS
 62
     7
100
AcDbLine
 10
-173.0084399999999
 20
-175.16002
 30
0.0
 11
-173.0084399999999
 21
-182.9296
 31
0.0
  0
LINE
  5
24A
330
1E
100
AcDbEntity
  8
1
  6
CONTINUOUS
 62
     7
100
AcDbLine
 10
-207.0084399999999
 20
-174.4844399999999
 30
0.0
 11
-207.0084399999999
 21
-182.9296
 31
0.0
  0
LINE
  5
24B
330
1E
100
AcDbEntity
  8
1
  6
CONTINUOUS
 62
     7
100
AcDbLine
 10
-174.208
 20
-182.45053
 30
0.0
 11
-173.0079999999999
 21
-182.1289999999999
 31
0.0
  0
LINE
  5
24C
330
1E
100
AcDbEntity
  8
1
  6
CONTINUOUS
 62
     7
100
AcDbLine
 10
-173.0079999999999
 20
-182.1289999999999
 30
0.0
 11
-174.208
 21
-181.80746
 31
0.0
  0
LINE
  5
24D
330
1E
100
AcDbEntity
  8
1
  6
CONTINUOUS
 62
     7
100
AcDbLine
 10
-205.8079999999999
 20
-181.80746
 30
0.0
 11
-207.0079999999999
 21
-182.1289999999999
 31
0.0
  0
LINE
  5
24E
330
1E
100
AcDbEntity
  8
1
  6
CONTINUOUS
 62
     7
100
AcDbLine
 10
-207.0079999999999
 20
-182.1289999999999
 30
0.0
 11
-205.8079999999999
 21
-182.45053
 31
0.0
  0
LINE
  5
24F
330
1E
100
AcDbEntity
  8
1
  6
CONTINUOUS
 62
     1
100
AcDbLine
 10
-151.9033999999996
 20
-174.16002
 30
0.0
 11
-124.5033999999999
 21
-174.16002
 31
0.0
  0
LINE
  5
250
330
1E
100
AcDbEntity
  8
1
  6
CONTINUOUS
 62
     1
100
AcDbLine
 10
-152.5033999999999
 20
-173.56002
 30
0.0
 11
-152.5033999999999
 21
-149.16002
 31
0.0
  0
ARC
  5
251
330
1E
100
AcDbEntity
  8
1
  6
CONTINUOUS
 62
     1
100
AcDbCircle
 10
-151.9033999999996
 20
-173.56002
 30
0.0
 40
0.6
100
AcDbArc
 50
180.0
 51
270.0
  0
LINE
  5
252
330
1E
100
AcDbEntity
  8
1
  6
CONTINUOUS
 62
     7
100
AcDbLine
 10
-152.00506
 20
-182.1296
 30
0.0
 11
-124.5033999999999
 21
-182.1296
 31
0.0
  0
LINE
  5
253
330
1E
100
AcDbEntity
  8
1
  6
CONTINUOUS
 62
     7
100
AcDbLine
 10
-124.5033999999999
 20
-175.16002
 30
0.0
 11
-124.5033999999999
 21
-182.9296
 31
0.0
  0
LINE
  5
254
330
1E
100
AcDbEntity
  8
1
  6
CONTINUOUS
 62
     7
100
AcDbLine
 10
-152.00506
 20
-174.5423199999999
 30
0.0
 11
-152.00506
 21
-182.9296
 31
0.0
  0
LINE
  5
255
330
1E
100
AcDbEntity
  8
1
  6
CONTINUOUS
 62
     7
100
AcDbLine
 10
-125.7029999999997
 20
-182.45053
 30
0.0
 11
-124.5029999999997
 21
-182.1289999999999
 31
0.0
  0
LINE
  5
256
330
1E
100
AcDbEntity
  8
1
  6
CONTINUOUS
 62
     7
100
AcDbLine
 10
-124.5029999999997
 20
-182.1289999999999
 30
0.0
 11
-125.7029999999997
 21
-181.80746
 31
0.0
  0
LINE
  5
257
330
1E
100
AcDbEntity
  8
1
  6
CONTINUOUS
 62
     7
100
AcDbLine
 10
-150.805
 20
-181.80746
 30
0.0
 11
-152.0049999999999
 21
-182.1289999999999
 31
0.0
  0
LINE
  5
258
330
1E
100
AcDbEntity
  8
1
  6
CONTINUOUS
 62
     7
100
AcDbLine
 10
-152.0049999999999
 20
-182.1289999999999
 30
0.0
 11
-150.805
 21
-182.45053
 31
0.0
  0
LINE
  5
259
330
1E
100
AcDbEntity
  8
1
  6
CONTINUOUS
 62
     7
100
AcDbLine
 10
-160.5803199999999
 20
-173.56002
 30
0.0
 11
-160.5803199999999
 21
-149.16002
 31
0.0
  0
LINE
  5
25A
330
1E
100
AcDbEntity
  8
1
  6
CONTINUOUS
 62
     7
100
AcDbLine
 10
-153.58032
 20
-149.16002
 30
0.0
 11
-161.3803199999999
 21
-149.16002
 31
0.0
  0
LINE
  5
25B
330
1E
100
AcDbEntity
  8
1
  6
CONTINUOUS
 62
     7
100
AcDbLine
 10
-153.58032
 20
-173.56002
 30
0.0
 11
-161.3803199999999
 21
-173.56002
 31
0.0
  0
LINE
  5
25C
330
1E
100
AcDbEntity
  8
1
  6
CONTINUOUS
 62
     7
100
AcDbLine
 10
-160.25846
 20
-150.36
 30
0.0
 11
-160.58
 21
-149.16
 31
0.0
  0
LINE
  5
25D
330
1E
100
AcDbEntity
  8
1
  6
CONTINUOUS
 62
     7
100
AcDbLine
 10
-160.58
 20
-149.16
 30
0.0
 11
-160.90153
 21
-150.36
 31
0.0
  0
LINE
  5
25E
330
1E
100
AcDbEntity
  8
1
  6
CONTINUOUS
 62
     7
100
AcDbLine
 10
-160.90153
 20
-172.36
 30
0.0
 11
-160.58
 21
-173.5599999999999
 31
0.0
  0
LINE
  5
25F
330
1E
100
AcDbEntity
  8
1
  6
CONTINUOUS
 62
     7
100
AcDbLine
 10
-160.58
 20
-173.5599999999999
 30
0.0
 11
-160.25846
 21
-172.36
 31
0.0
  0
ARC
  5
260
330
1E
100
AcDbEntity
  8
1
  6
CONTINUOUS
 62
     7
100
AcDbCircle
 10
-152.00506
 20
-173.56002
 30
0.0
 40
8.57526
100
AcDbArc
 50
191.5780499999999
 51
238.71324
  0
ARC
  5
261
330
1E
100
AcDbEntity
  8
1
  6
CONTINUOUS
 62
     7
100
AcDbCircle
 10
-152.00506
 20
-173.56002
 30
0.0
 40
8.57526
100
AcDbArc
 50
238.71324
 51
246.3633899999999
  0
LINE
  5
262
330
1E
100
AcDbEntity
  8
1
  6
CONTINUOUS
 62
     7
100
AcDbLine
 10
-152.00506
 20
-181.3127399999999
 30
0.0
 11
-152.00506
 21
-179.5295199999999
 31
0.0
  0
ARC
  5
263
330
1E
100
AcDbEntity
  8
1
  6
CONTINUOUS
 62
     7
100
AcDbCircle
 10
-152.00506
 20
-173.56002
 30
0.0
 40
8.57526
100
AcDbArc
 50
246.3633899999999
 51
247.8281799999999
  0
ARC
  5
264
330
1E
100
AcDbEntity
  8
1
  6
CONTINUOUS
 62
     7
100
AcDbCircle
 10
-152.00506
 20
-173.56002
 30
0.0
 40
8.57526
100
AcDbArc
 50
247.8281799999999
 51
258.01527
  0
LINE
  5
265
330
1E
100
AcDbEntity
  8
1
  6
CONTINUOUS
 62
     7
100
AcDbLine
 10
-160.4217199999999
 20
-175.2016199999999
 30
0.0
 11
-160.5803199999999
 21
-173.56002
 31
0.0
  0
LINE
  5
266
330
1E
100
AcDbEntity
  8
1
  6
CONTINUOUS
 62
     7
100
AcDbLine
 10
-160.14455
 20
-174.72351
 30
0.0
 11
-160.58
 21
-173.5599999999999
 31
0.0
  0
LINE
  5
267
330
1E
100
AcDbEntity
  8
1
  6
CONTINUOUS
 62
     7
100
AcDbLine
 10
-160.58
 20
-173.5599999999999
 30
0.0
 11
-160.7846499999999
 21
-174.7853499999999
 31
0.0
  0
LINE
  5
268
330
1E
100
AcDbEntity
  8
1
  6
CONTINUOUS
 62
     7
100
AcDbLine
 10
-153.71746
 20
-181.9625599999999
 30
0.0
 11
-152.00506
 21
-182.1352799999999
 31
0.0
  0
LINE
  5
269
330
1E
100
AcDbEntity
  8
1
  6
CONTINUOUS
 62
     7
100
AcDbLine
 10
-153.23121
 20
-182.33448
 30
0.0
 11
-152.0049999999999
 21
-182.1349999999999
 31
0.0
  0
LINE
  5
26A
330
1E
100
AcDbEntity
  8
1
  6
CONTINUOUS
 62
     7
100
AcDbLine
 10
-152.0049999999999
 20
-182.1349999999999
 30
0.0
 11
-153.1666699999999
 21
-181.69465
 31
0.0
  0
ARC
  5
26B
330
1E
100
AcDbEntity
  8
1
  6
CONTINUOUS
 62
     7
100
AcDbCircle
 10
-152.00506
 20
-173.56002
 30
0.0
 40
8.57526
100
AcDbArc
 50
258.01527
 51
258.41701
  0
LINE
  5
26C
330
1E
100
AcDbEntity
  8
1
  6
CONTINUOUS
 62
     7
100
AcDbLine
 10
-152.00506
 20
-181.95782
 30
0.0
 11
-152.00506
 21
-181.3127399999999
 31
0.0
  0
LINE
  5
26D
330
1E
100
AcDbEntity
  8
1
  6
CONTINUOUS
 62
     7
100
AcDbLine
 10
-160.5803199999999
 20
-173.56002
 30
0.0
 11
-160.5803199999999
 21
-169.20466
 31
0.0
  0
ARC
  5
26E
330
1E
100
AcDbEntity
  8
1
  6
CONTINUOUS
 62
     7
100
AcDbCircle
 10
-152.00506
 20
-173.56002
 30
0.0
 40
8.57526
100
AcDbArc
 50
191.0231699999999
 51
191.5780499999999
  0
LINE
  5
26F
330
1E
100
AcDbEntity
  8
1
  6
CONTINUOUS
 62
     7
100
AcDbLine
 10
-152.00506
 20
-175.87618
 30
0.0
 11
-152.00506
 21
-173.56002
 31
0.0
  0
LINE
  5
270
330
1E
100
AcDbEntity
  8
1
  6
CONTINUOUS
 62
     7
100
AcDbLine
 10
-154.5626399999999
 20
-173.56002
 30
0.0
 11
-152.00506
 21
-173.56002
 31
0.0
  0
LINE
  5
271
330
1E
100
AcDbEntity
  8
1
  6
CONTINUOUS
 62
     1
100
AcDbLine
 10
-92.65784
 20
-147.7529599999999
 30
0.0
 11
-89.82941999999999
 21
-144.9245399999998
 31
0.0
  0
LINE
  5
272
330
1E
100
AcDbEntity
  8
1
  6
CONTINUOUS
 62
     1
100
AcDbLine
 10
-102.65782
 20
-147.7529599999999
 30
0.0
 11
-92.65784
 21
-147.7529599999999
 31
0.0
  0
LINE
  5
273
330
1E
100
AcDbEntity
  8
1
  6
CONTINUOUS
 62
     1
100
AcDbLine
 10
-105.48626
 20
-144.9245399999998
 30
0.0
 11
-102.65782
 21
-147.7529599999999
 31
0.0
  0
LINE
  5
274
330
1E
100
AcDbEntity
  8
1
  6
CONTINUOUS
 62
     7
100
AcDbLine
 10
-111.1431199999999
 20
-150.5813999999999
 30
0.0
 11
-108.3146899999997
 21
-153.40983
 31
0.0
  0
LINE
  5
275
330
1E
100
AcDbEntity
  8
1
  6
CONTINUOUS
 62
     7
100
AcDbLine
 10
-103.3649199999999
 20
-148.46006
 30
0.0
 11
-108.8803699999999
 21
-153.97551
 31
0.0
  0
LINE
  5
276
330
1E
100
AcDbEntity
  8
1
  6
CONTINUOUS
 62
     7
100
AcDbLine
 10
-106.19336
 20
-145.63164
 30
0.0
 11
-111.7088
 21
-151.14708
 31
0.0
  0
LINE
  5
277
330
1E
100
AcDbEntity
  8
1
  6
CONTINUOUS
 62
     7
100
AcDbLine
 10
-109.3898899999999
 20
-152.78783
 30
0.0
 11
-108.314
 21
-153.4089999999999
 31
0.0
  0
LINE
  5
278
330
1E
100
AcDbEntity
  8
1
  6
CONTINUOUS
 62
     7
100
AcDbLine
 10
-108.314
 20
-153.4089999999999
 30
0.0
 11
-108.93516
 21
-152.3330999999999
 31
0.0
  0
LINE
  5
279
330
1E
100
AcDbEntity
  8
1
  6
CONTINUOUS
 62
     7
100
AcDbLine
 10
-110.0670999999999
 20
-151.20216
 30
0.0
 11
-111.1429999999999
 21
-150.5809999999998
 31
0.0
  0
LINE
  5
27A
330
1E
100
AcDbEntity
  8
1
  6
CONTINUOUS
 62
     7
100
AcDbLine
 10
-111.1429999999999
 20
-150.5809999999998
 30
0.0
 11
-110.52183
 21
-151.65689
 31
0.0
  0
LINE
  5
27B
330
1E
100
AcDbEntity
  8
1
  6
CONTINUOUS
 62
     7
100
AcDbLine
 10
-87.02249999999997
 20
-153.3882999999998
 30
0.0
 11
-84.19408
 21
-150.55988
 31
0.0
  0
LINE
  5
27C
330
1E
100
AcDbEntity
  8
1
  6
CONTINUOUS
 62
     7
100
AcDbLine
 10
-89.12231
 20
-145.63164
 30
0.0
 11
-83.62838999999999
 21
-151.12556
 31
0.0
  0
LINE
  5
27D
330
1E
100
AcDbEntity
  8
1
  6
CONTINUOUS
 62
     7
100
AcDbLine
 10
-91.95073
 20
-148.46006
 30
0.0
 11
-86.45681000000001
 21
-153.95398
 31
0.0
  0
LINE
  5
27E
330
1E
100
AcDbEntity
  8
1
  6
CONTINUOUS
 62
     7
100
AcDbLine
 10
-84.81515999999997
 20
-151.6348899999998
 30
0.0
 11
-84.19400000000001
 21
-150.5589999999999
 31
0.0
  0
LINE
  5
27F
330
1E
100
AcDbEntity
  8
1
  6
CONTINUOUS
 62
     7
100
AcDbLine
 10
-84.19400000000001
 20
-150.5589999999999
 30
0.0
 11
-85.26989
 21
-151.18016
 31
0.0
  0
LINE
  5
280
330
1E
100
AcDbEntity
  8
1
  6
CONTINUOUS
 62
     7
100
AcDbLine
 10
-86.40083
 20
-152.3120999999999
 30
0.0
 11
-87.02200000000003
 21
-153.388
 31
0.0
  0
LINE
  5
281
330
1E
100
AcDbEntity
  8
1
  6
CONTINUOUS
 62
     7
100
AcDbLine
 10
-87.02200000000003
 20
-153.388
 30
0.0
 11
-85.94610000000001
 21
-152.76683
 31
0.0
  0
LINE
  5
282
330
1E
100
AcDbEntity
  8
1
  6
CONTINUOUS
 62
     7
100
AcDbLine
 10
-102.65782
 20
-155.75298
 30
0.0
 11
-92.65784
 21
-155.75298
 31
0.0
  0
LINE
  5
283
330
1E
100
AcDbEntity
  8
1
  6
CONTINUOUS
 62
     7
100
AcDbLine
 10
-92.65784
 20
-148.75296
 30
0.0
 11
-92.65784
 21
-156.55298
 31
0.0
  0
LINE
  5
284
330
1E
100
AcDbEntity
  8
1
  6
CONTINUOUS
 62
     7
100
AcDbLine
 10
-102.65782
 20
-148.75296
 30
0.0
 11
-102.65782
 21
-156.55298
 31
0.0
  0
LINE
  5
285
330
1E
100
AcDbEntity
  8
1
  6
CONTINUOUS
 62
     7
100
AcDbLine
 10
-93.85699999999999
 20
-156.07353
 30
0.0
 11
-92.657
 21
-155.752
 31
0.0
  0
LINE
  5
286
330
1E
100
AcDbEntity
  8
1
  6
CONTINUOUS
 62
     7
100
AcDbLine
 10
-92.657
 20
-155.752
 30
0.0
 11
-93.85699999999999
 21
-155.43046
 31
0.0
  0
LINE
  5
287
330
1E
100
AcDbEntity
  8
1
  6
CONTINUOUS
 62
     7
100
AcDbLine
 10
-101.4569999999999
 20
-155.43046
 30
0.0
 11
-102.6569999999999
 21
-155.752
 31
0.0
  0
LINE
  5
288
330
1E
100
AcDbEntity
  8
1
  6
CONTINUOUS
 62
     7
100
AcDbLine
 10
-102.6569999999999
 20
-155.752
 30
0.0
 11
-101.4569999999999
 21
-156.07353
 31
0.0
  0
TEXT
  5
289
330
1E
100
AcDbEntity
  8
1
  6
CONTINUOUS
 62
     7
100
AcDbText
 10
-237.1829799999999
 20
-173.86258
 30
0.0
 40
3.2
  1
Ｒ
 50
2.0
  7
BIGFONT
100
AcDbText
  0
TEXT
  5
28A
330
1E
100
AcDbEntity
  8
1
  6
CONTINUOUS
 62
     7
100
AcDbText
 10
-151.6796
 20
-173.93816
 30
0.0
 40
3.2
  1
Ｒ
 50
2.0
  7
BIGFONT
100
AcDbText
  0
TEXT
  5
28B
330
1E
100
AcDbEntity
  8
1
  6
CONTINUOUS
 62
     7
100
AcDbText
 10
-192.485
 20
-181.49076
 30
0.0
 40
3.2
  1
Ｌ
  7
BIGFONT
100
AcDbText
  0
TEXT
  5
28C
330
1E
100
AcDbEntity
  8
1
  6
CONTINUOUS
 62
     7
100
AcDbText
 10
-189.4752399999999
 20
-181.31468
 30
0.0
 40
2.2
  1
１
 41
1.1363636
  7
BIGFONT
100
AcDbText
  0
TEXT
  5
28D
330
1E
100
AcDbEntity
  8
1
  6
CONTINUOUS
 62
     7
100
AcDbText
 10
-235.3251799999999
 20
-181.5270399999999
 30
0.0
 40
3.2
  1
Ｌ
  7
BIGFONT
100
AcDbText
  0
TEXT
  5
28E
330
1E
100
AcDbEntity
  8
1
  6
CONTINUOUS
 62
     7
100
AcDbText
 10
-232.39434
 20
-181.35832
 30
0.0
 40
2.2
  1
３
 41
1.1363636
  7
BIGFONT
100
AcDbText
  0
TEXT
  5
28F
330
1E
100
AcDbEntity
  8
1
  6
CONTINUOUS
 62
     7
100
AcDbText
 10
-159.48286
 20
-177.1657999999999
 30
0.0
 40
3.2
  1
Ｌ
 50
315.0
  7
BIGFONT
100
AcDbText
  0
TEXT
  5
290
330
1E
100
AcDbEntity
  8
1
  6
CONTINUOUS
 62
     7
100
AcDbText
 10
-157.28134
 20
-179.1304799999999
 30
0.0
 40
2.2
  1
２
 50
315.0
 41
1.1363636
  7
BIGFONT
100
AcDbText
  0
TEXT
  5
291
330
1E
100
AcDbEntity
  8
1
  6
CONTINUOUS
 62
     7
100
AcDbText
 10
-140.44146
 20
-181.51276
 30
0.0
 40
3.2
  1
Ｌ
  7
BIGFONT
100
AcDbText
  0
TEXT
  5
292
330
1E
100
AcDbEntity
  8
1
  6
CONTINUOUS
 62
     7
100
AcDbText
 10
-137.4317
 20
-181.33668
 30
0.0
 40
2.2
  1
１
 41
1.1363636
  7
BIGFONT
100
AcDbText
  0
TEXT
  5
293
330
1E
100
AcDbEntity
  8
1
  6
CONTINUOUS
 62
     7
100
AcDbText
 10
-161.0267
 20
-164.4626399999999
 30
0.0
 40
3.2
  1
Ｌ
 50
90.0
  7
BIGFONT
100
AcDbText
  0
TEXT
  5
294
330
1E
100
AcDbEntity
  8
1
  6
CONTINUOUS
 62
     7
100
AcDbText
 10
-161.1954199999999
 20
-161.5318
 30
0.0
 40
2.2
  1
３
 50
90.0
 41
1.1363636
  7
BIGFONT
100
AcDbText
  0
TEXT
  5
295
330
1E
100
AcDbEntity
  8
1
  6
CONTINUOUS
 62
     7
100
AcDbText
 10
-100.5710199999999
 20
-155.2904
 30
0.0
 40
3.2
  1
Ｌ
  7
BIGFONT
100
AcDbText
  0
TEXT
  5
296
330
1E
100
AcDbEntity
  8
1
  6
CONTINUOUS
 62
     7
100
AcDbText
 10
-97.62508000000003
 20
-155.1229199999999
 30
0.0
 40
2.2
  1
２
 41
1.1363636
  7
BIGFONT
100
AcDbText
  0
TEXT
  5
297
330
1E
100
AcDbEntity
  8
1
  6
CONTINUOUS
 62
     7
100
AcDbText
 10
-84.39638
 20
-156.4891199999999
 30
0.0
 40
3.2
  1
Ｌ
 50
45.0
  7
BIGFONT
100
AcDbText
  0
TEXT
  5
298
330
1E
100
AcDbEntity
  8
1
  6
CONTINUOUS
 62
     7
100
AcDbText
 10
-82.39265999999998
 20
-154.2364
 30
0.0
 40
2.2
  1
１
 50
45.0
 41
1.1363636
  7
BIGFONT
100
AcDbText
  0
LINE
  5
299
330
1E
100
AcDbEntity
  8
1
  6
CONTINUOUS
 62
     1
100
AcDbLine
 10
-238.0067799999999
 20
-173.56002
 30
0.0
 11
-238.0067799999999
 21
-140.26002
 31
0.0
  0
ARC
  5
29A
330
1E
100
AcDbEntity
  8
1
  6
CONTINUOUS
 62
     1
100
AcDbCircle
 10
-237.4067799999999
 20
-173.56002
 30
0.0
 40
0.6
100
AcDbArc
 50
180.0
 51
270.0
  0
LINE
  5
29B
330
1E
100
AcDbEntity
  8
1
  6
CONTINUOUS
 62
     7
100
AcDbLine
 10
-246.0837
 20
-173.56002
 30
0.0
 11
-246.0837
 21
-140.26002
 31
0.0
  0
LINE
  5
29C
330
1E
100
AcDbEntity
  8
1
  6
CONTINUOUS
 62
     7
100
AcDbLine
 10
-239.0836999999999
 20
-140.26002
 30
0.0
 11
-246.8837
 21
-140.26002
 31
0.0
  0
LINE
  5
29D
330
1E
100
AcDbEntity
  8
1
  6
CONTINUOUS
 62
     7
100
AcDbLine
 10
-239.0836999999999
 20
-173.56002
 30
0.0
 11
-246.8837
 21
-173.56002
 31
0.0
  0
LINE
  5
29E
330
1E
100
AcDbEntity
  8
1
  6
CONTINUOUS
 62
     7
100
AcDbLine
 10
-245.7614599999998
 20
-141.46
 30
0.0
 11
-246.083
 21
-140.2599999999999
 31
0.0
  0
LINE
  5
29F
330
1E
100
AcDbEntity
  8
1
  6
CONTINUOUS
 62
     7
100
AcDbLine
 10
-246.083
 20
-140.2599999999999
 30
0.0
 11
-246.4045299999999
 21
-141.46
 31
0.0
  0
LINE
  5
2A0
330
1E
100
AcDbEntity
  8
1
  6
CONTINUOUS
 62
     7
100
AcDbLine
 10
-246.4045299999999
 20
-172.36
 30
0.0
 11
-246.083
 21
-173.5599999999999
 31
0.0
  0
LINE
  5
2A1
330
1E
100
AcDbEntity
  8
1
  6
CONTINUOUS
 62
     7
100
AcDbLine
 10
-246.083
 20
-173.5599999999999
 30
0.0
 11
-245.7614599999998
 21
-172.36
 31
0.0
  0
ARC
  5
2A2
330
1E
100
AcDbEntity
  8
1
  6
CONTINUOUS
 62
     7
100
AcDbCircle
 10
-237.5084399999999
 20
-173.56002
 30
0.0
 40
8.57526
100
AcDbArc
 50
191.5780499999999
 51
238.71324
  0
ARC
  5
2A3
330
1E
100
AcDbEntity
  8
1
  6
CONTINUOUS
 62
     7
100
AcDbCircle
 10
-237.5084399999999
 20
-173.56002
 30
0.0
 40
8.57526
100
AcDbArc
 50
238.71324
 51
246.3633899999999
  0
ARC
  5
2A4
330
1E
100
AcDbEntity
  8
1
  6
CONTINUOUS
 62
     7
100
AcDbCircle
 10
-237.5084399999999
 20
-173.56002
 30
0.0
 40
8.57526
100
AcDbArc
 50
246.3633899999999
 51
247.8281799999999
  0
ARC
  5
2A5
330
1E
100
AcDbEntity
  8
1
  6
CONTINUOUS
 62
     7
100
AcDbCircle
 10
-237.5084399999999
 20
-173.56002
 30
0.0
 40
8.57526
100
AcDbArc
 50
247.8281799999999
 51
258.01527
  0
LINE
  5
2A6
330
1E
100
AcDbEntity
  8
1
  6
CONTINUOUS
 62
     7
100
AcDbLine
 10
-245.9251
 20
-175.2016199999999
 30
0.0
 11
-246.0837
 21
-173.56002
 31
0.0
  0
LINE
  5
2A7
330
1E
100
AcDbEntity
  8
1
  6
CONTINUOUS
 62
     7
100
AcDbLine
 10
-245.6475499999999
 20
-174.72351
 30
0.0
 11
-246.083
 21
-173.5599999999999
 31
0.0
  0
LINE
  5
2A8
330
1E
100
AcDbEntity
  8
1
  6
CONTINUOUS
 62
     7
100
AcDbLine
 10
-246.083
 20
-173.5599999999999
 30
0.0
 11
-246.28765
 21
-174.7853499999999
 31
0.0
  0
LINE
  5
2A9
330
1E
100
AcDbEntity
  8
1
  6
CONTINUOUS
 62
     7
100
AcDbLine
 10
-239.2208399999999
 20
-181.9625599999999
 30
0.0
 11
-237.5084399999999
 21
-182.1352799999999
 31
0.0
  0
LINE
  5
2AA
330
1E
100
AcDbEntity
  8
1
  6
CONTINUOUS
 62
     7
100
AcDbLine
 10
-238.73421
 20
-182.33448
 30
0.0
 11
-237.508
 21
-182.1349999999999
 31
0.0
  0
LINE
  5
2AB
330
1E
100
AcDbEntity
  8
1
  6
CONTINUOUS
 62
     7
100
AcDbLine
 10
-237.508
 20
-182.1349999999999
 30
0.0
 11
-238.66967
 21
-181.69465
 31
0.0
  0
ARC
  5
2AC
330
1E
100
AcDbEntity
  8
1
  6
CONTINUOUS
 62
     7
100
AcDbCircle
 10
-237.5084399999999
 20
-173.56002
 30
0.0
 40
8.57526
100
AcDbArc
 50
258.01527
 51
258.41701
  0
LINE
  5
2AD
330
1E
100
AcDbEntity
  8
1
  6
CONTINUOUS
 62
     7
100
AcDbLine
 10
-246.0837
 20
-173.56002
 30
0.0
 11
-246.0837
 21
-169.20466
 31
0.0
  0
ARC
  5
2AE
330
1E
100
AcDbEntity
  8
1
  6
CONTINUOUS
 62
     7
100
AcDbCircle
 10
-237.5084399999999
 20
-173.56002
 30
0.0
 40
8.57526
100
AcDbArc
 50
191.0231699999999
 51
191.5780499999999
  0
LINE
  5
2AF
330
1E
100
AcDbEntity
  8
1
  6
CONTINUOUS
 62
     7
100
AcDbLine
 10
-240.06602
 20
-173.56002
 30
0.0
 11
-237.5084399999999
 21
-173.56002
 31
0.0
  0
TEXT
  5
2B0
330
1E
100
AcDbEntity
  8
1
  6
CONTINUOUS
 62
     7
100
AcDbText
 10
-244.9862399999999
 20
-177.1657999999999
 30
0.0
 40
3.2
  1
Ｌ
 50
315.0
  7
BIGFONT
100
AcDbText
  0
TEXT
  5
2B1
330
1E
100
AcDbEntity
  8
1
  6
CONTINUOUS
 62
     7
100
AcDbText
 10
-242.78472
 20
-179.1304799999999
 30
0.0
 40
2.2
  1
２
 50
315.0
 41
1.1363636
  7
BIGFONT
100
AcDbText
  0
LINE
  5
2B2
330
1E
100
AcDbEntity
  8
1
  6
CONTINUOUS
 62
     7
100
AcDbLine
 10
-237.5084399999999
 20
-175.88668
 30
0.0
 11
-237.5084399999999
 21
-173.56002
 31
0.0
  0
TEXT
  5
2B3
330
1E
100
AcDbEntity
  8
1
  6
CONTINUOUS
 62
     7
100
AcDbText
 10
-206.68298
 20
-173.86258
 30
0.0
 40
3.2
  1
Ｒ
 50
2.0
  7
BIGFONT
100
AcDbText
  0
LINE
  5
2B4
330
1E
100
AcDbEntity
  8
1
  6
CONTINUOUS
 62
     1
100
AcDbLine
 10
-207.5067799999999
 20
-173.56002
 30
0.0
 11
-207.5067799999999
 21
-166.53902
 31
0.0
  0
ARC
  5
2B5
330
1E
100
AcDbEntity
  8
1
  6
CONTINUOUS
 62
     1
100
AcDbCircle
 10
-206.90678
 20
-173.56002
 30
0.0
 40
0.6
100
AcDbArc
 50
180.0
 51
270.0
  0
LINE
  5
2B6
330
1E
100
AcDbEntity
  8
1
  6
CONTINUOUS
 62
     7
100
AcDbLine
 10
-215.5837
 20
-173.56002
 30
0.0
 11
-215.5837
 21
-166.53902
 31
0.0
  0
LINE
  5
2B7
330
1E
100
AcDbEntity
  8
1
  6
CONTINUOUS
 62
     7
100
AcDbLine
 10
-208.5837
 20
-166.53902
 30
0.0
 11
-216.3837
 21
-166.53902
 31
0.0
  0
LINE
  5
2B8
330
1E
100
AcDbEntity
  8
1
  6
CONTINUOUS
 62
     7
100
AcDbLine
 10
-208.5837
 20
-173.56002
 30
0.0
 11
-216.3837
 21
-173.56002
 31
0.0
  0
LINE
  5
2B9
330
1E
100
AcDbEntity
  8
1
  6
CONTINUOUS
 62
     7
100
AcDbLine
 10
-215.26146
 20
-167.739
 30
0.0
 11
-215.5829999999999
 21
-166.5389999999999
 31
0.0
  0
LINE
  5
2BA
330
1E
100
AcDbEntity
  8
1
  6
CONTINUOUS
 62
     7
100
AcDbLine
 10
-215.5829999999999
 20
-166.5389999999999
 30
0.0
 11
-215.9045299999999
 21
-167.739
 31
0.0
  0
LINE
  5
2BB
330
1E
100
AcDbEntity
  8
1
  6
CONTINUOUS
 62
     7
100
AcDbLine
 10
-215.9045299999999
 20
-172.36
 30
0.0
 11
-215.5829999999999
 21
-173.5599999999999
 31
0.0
  0
LINE
  5
2BC
330
1E
100
AcDbEntity
  8
1
  6
CONTINUOUS
 62
     7
100
AcDbLine
 10
-215.5829999999999
 20
-173.5599999999999
 30
0.0
 11
-215.26146
 21
-172.36
 31
0.0
  0
ARC
  5
2BD
330
1E
100
AcDbEntity
  8
1
  6
CONTINUOUS
 62
     7
100
AcDbCircle
 10
-207.0084399999999
 20
-173.56002
 30
0.0
 40
8.57526
100
AcDbArc
 50
191.5780499999999
 51
238.71324
  0
ARC
  5
2BE
330
1E
100
AcDbEntity
  8
1
  6
CONTINUOUS
 62
     7
100
AcDbCircle
 10
-207.0084399999999
 20
-173.56002
 30
0.0
 40
8.57526
100
AcDbArc
 50
238.71324
 51
246.3633899999999
  0
ARC
  5
2BF
330
1E
100
AcDbEntity
  8
1
  6
CONTINUOUS
 62
     7
100
AcDbCircle
 10
-207.0084399999999
 20
-173.56002
 30
0.0
 40
8.57526
100
AcDbArc
 50
246.3633899999999
 51
247.8281799999999
  0
ARC
  5
2C0
330
1E
100
AcDbEntity
  8
1
  6
CONTINUOUS
 62
     7
100
AcDbCircle
 10
-207.0084399999999
 20
-173.56002
 30
0.0
 40
8.57526
100
AcDbArc
 50
247.8281799999999
 51
258.01527
  0
LINE
  5
2C1
330
1E
100
AcDbEntity
  8
1
  6
CONTINUOUS
 62
     7
100
AcDbLine
 10
-215.4250999999999
 20
-175.2016199999999
 30
0.0
 11
-215.5837
 21
-173.56002
 31
0.0
  0
LINE
  5
2C2
330
1E
100
AcDbEntity
  8
1
  6
CONTINUOUS
 62
     7
100
AcDbLine
 10
-215.14755
 20
-174.72351
 30
0.0
 11
-215.5829999999999
 21
-173.5599999999999
 31
0.0
  0
LINE
  5
2C3
330
1E
100
AcDbEntity
  8
1
  6
CONTINUOUS
 62
     7
100
AcDbLine
 10
-215.5829999999999
 20
-173.5599999999999
 30
0.0
 11
-215.7876499999999
 21
-174.7853499999999
 31
0.0
  0
LINE
  5
2C4
330
1E
100
AcDbEntity
  8
1
  6
CONTINUOUS
 62
     7
100
AcDbLine
 10
-208.7208399999999
 20
-181.9625599999999
 30
0.0
 11
-207.0084399999999
 21
-182.1352799999999
 31
0.0
  0
LINE
  5
2C5
330
1E
100
AcDbEntity
  8
1
  6
CONTINUOUS
 62
     7
100
AcDbLine
 10
-208.23421
 20
-182.33448
 30
0.0
 11
-207.0079999999999
 21
-182.1349999999999
 31
0.0
  0
LINE
  5
2C6
330
1E
100
AcDbEntity
  8
1
  6
CONTINUOUS
 62
     7
100
AcDbLine
 10
-207.0079999999999
 20
-182.1349999999999
 30
0.0
 11
-208.16967
 21
-181.69465
 31
0.0
  0
ARC
  5
2C7
330
1E
100
AcDbEntity
  8
1
  6
CONTINUOUS
 62
     7
100
AcDbCircle
 10
-207.0084399999999
 20
-173.56002
 30
0.0
 40
8.57526
100
AcDbArc
 50
258.01527
 51
258.41701
  0
LINE
  5
2C8
330
1E
100
AcDbEntity
  8
1
  6
CONTINUOUS
 62
     7
100
AcDbLine
 10
-215.5837
 20
-173.56002
 30
0.0
 11
-215.5837
 21
-169.20466
 31
0.0
  0
ARC
  5
2C9
330
1E
100
AcDbEntity
  8
1
  6
CONTINUOUS
 62
     7
100
AcDbCircle
 10
-207.0084399999999
 20
-173.56002
 30
0.0
 40
8.57526
100
AcDbArc
 50
191.0231699999999
 51
191.5780499999999
  0
LINE
  5
2CA
330
1E
100
AcDbEntity
  8
1
  6
CONTINUOUS
 62
     7
100
AcDbLine
 10
-209.56602
 20
-173.56002
 30
0.0
 11
-207.0084399999999
 21
-173.56002
 31
0.0
  0
TEXT
  5
2CB
330
1E
100
AcDbEntity
  8
1
  6
CONTINUOUS
 62
     7
100
AcDbText
 10
-214.48624
 20
-177.1657999999999
 30
0.0
 40
3.2
  1
Ｌ
 50
315.0
  7
BIGFONT
100
AcDbText
  0
TEXT
  5
2CC
330
1E
100
AcDbEntity
  8
1
  6
CONTINUOUS
 62
     7
100
AcDbText
 10
-212.28472
 20
-179.1304799999999
 30
0.0
 40
2.2
  1
２
 50
315.0
 41
1.1363636
  7
BIGFONT
100
AcDbText
  0
TEXT
  5
2CD
330
1E
100
AcDbEntity
  8
1
  6
CONTINUOUS
 62
     7
100
AcDbText
 10
-216.0300799999999
 20
-172.75214
 30
0.0
 40
3.2
  1
Ｌ
 50
90.0
  7
BIGFONT
100
AcDbText
  0
TEXT
  5
2CE
330
1E
100
AcDbEntity
  8
1
  6
CONTINUOUS
 62
     7
100
AcDbText
 10
-216.1988
 20
-169.8213
 30
0.0
 40
2.2
  1
３
 50
90.0
 41
1.1363636
  7
BIGFONT
100
AcDbText
  0
LINE
  5
2CF
330
1E
100
AcDbEntity
  8
1
  6
CONTINUOUS
 62
     7
100
AcDbLine
 10
-207.0084399999999
 20
-175.88668
 30
0.0
 11
-207.0084399999999
 21
-173.56002
 31
0.0
  0
TEXT
  5
2D0
330
1E
100
AcDbEntity
  8
1
  6
CONTINUOUS
 62
     7
100
AcDbText
 10
-114.53186
 20
-152.92068
 30
0.0
 40
3.2
  1
Ｌ
 50
315.0
  7
BIGFONT
100
AcDbText
  0
TEXT
  5
2D1
330
1E
100
AcDbEntity
  8
1
  6
CONTINUOUS
 62
     7
100
AcDbText
 10
-112.3401399999996
 20
-154.8737999999999
 30
0.0
 40
2.2
  1
３
 50
315.0
 41
1.1363636
  7
BIGFONT
100
AcDbText
  0
LINE
  5
2D2
330
1E
100
AcDbEntity
  8
1
  6
CONTINUOUS
 62
     1
100
AcDbLine
 10
-61.26286
 20
-174.16002
 30
0.0
 11
-33.86286
 21
-174.16002
 31
0.0
  0
LINE
  5
2D3
330
1E
100
AcDbEntity
  8
1
  6
CONTINUOUS
 62
     1
100
AcDbLine
 10
-61.86285999999999
 20
-173.56002
 30
0.0
 11
-61.86285999999999
 21
-149.16002
 31
0.0
  0
ARC
  5
2D4
330
1E
100
AcDbEntity
  8
1
  6
CONTINUOUS
 62
     1
100
AcDbCircle
 10
-61.26286
 20
-173.56002
 30
0.0
 40
0.6
100
AcDbArc
 50
180.0
 51
270.0
  0
LINE
  5
2D5
330
1E
100
AcDbEntity
  8
1
  6
CONTINUOUS
 62
     7
100
AcDbLine
 10
-61.36452
 20
-182.1296
 30
0.0
 11
-33.86286
 21
-182.1296
 31
0.0
  0
LINE
  5
2D6
330
1E
100
AcDbEntity
  8
1
  6
CONTINUOUS
 62
     7
100
AcDbLine
 10
-33.86286
 20
-175.16002
 30
0.0
 11
-33.86286
 21
-182.9296
 31
0.0
  0
LINE
  5
2D7
330
1E
100
AcDbEntity
  8
1
  6
CONTINUOUS
 62
     7
100
AcDbLine
 10
-61.36452
 20
-174.5423199999999
 30
0.0
 11
-61.36452
 21
-182.9296
 31
0.0
  0
LINE
  5
2D8
330
1E
100
AcDbEntity
  8
1
  6
CONTINUOUS
 62
     7
100
AcDbLine
 10
-35.06199999999999
 20
-182.45053
 30
0.0
 11
-33.86199999999998
 21
-182.1289999999999
 31
0.0
  0
LINE
  5
2D9
330
1E
100
AcDbEntity
  8
1
  6
CONTINUOUS
 62
     7
100
AcDbLine
 10
-33.86199999999998
 20
-182.1289999999999
 30
0.0
 11
-35.06199999999999
 21
-181.80746
 31
0.0
  0
LINE
  5
2DA
330
1E
100
AcDbEntity
  8
1
  6
CONTINUOUS
 62
     7
100
AcDbLine
 10
-60.16399999999999
 20
-181.80746
 30
0.0
 11
-61.364
 21
-182.1289999999999
 31
0.0
  0
LINE
  5
2DB
330
1E
100
AcDbEntity
  8
1
  6
CONTINUOUS
 62
     7
100
AcDbLine
 10
-61.364
 20
-182.1289999999999
 30
0.0
 11
-60.16399999999999
 21
-182.45053
 31
0.0
  0
LINE
  5
2DC
330
1E
100
AcDbEntity
  8
1
  6
CONTINUOUS
 62
     7
100
AcDbLine
 10
-69.93978
 20
-173.56002
 30
0.0
 11
-69.93978
 21
-149.16002
 31
0.0
  0
LINE
  5
2DD
330
1E
100
AcDbEntity
  8
1
  6
CONTINUOUS
 62
     7
100
AcDbLine
 10
-62.93978
 20
-149.16002
 30
0.0
 11
-70.73978000000002
 21
-149.16002
 31
0.0
  0
LINE
  5
2DE
330
1E
100
AcDbEntity
  8
1
  6
CONTINUOUS
 62
     7
100
AcDbLine
 10
-62.93978
 20
-173.56002
 30
0.0
 11
-70.73978000000002
 21
-173.56002
 31
0.0
  0
LINE
  5
2DF
330
1E
100
AcDbEntity
  8
1
  6
CONTINUOUS
 62
     7
100
AcDbLine
 10
-69.61745999999999
 20
-150.36
 30
0.0
 11
-69.939
 21
-149.16
 31
0.0
  0
LINE
  5
2E0
330
1E
100
AcDbEntity
  8
1
  6
CONTINUOUS
 62
     7
100
AcDbLine
 10
-69.939
 20
-149.16
 30
0.0
 11
-70.26053
 21
-150.36
 31
0.0
  0
LINE
  5
2E1
330
1E
100
AcDbEntity
  8
1
  6
CONTINUOUS
 62
     7
100
AcDbLine
 10
-70.26053
 20
-172.36
 30
0.0
 11
-69.939
 21
-173.5599999999999
 31
0.0
  0
LINE
  5
2E2
330
1E
100
AcDbEntity
  8
1
  6
CONTINUOUS
 62
     7
100
AcDbLine
 10
-69.939
 20
-173.5599999999999
 30
0.0
 11
-69.61745999999999
 21
-172.36
 31
0.0
  0
ARC
  5
2E3
330
1E
100
AcDbEntity
  8
1
  6
CONTINUOUS
 62
     7
100
AcDbCircle
 10
-61.36452
 20
-173.56002
 30
0.0
 40
8.57526
100
AcDbArc
 50
191.5780499999999
 51
238.71324
  0
ARC
  5
2E4
330
1E
100
AcDbEntity
  8
1
  6
CONTINUOUS
 62
     7
100
AcDbCircle
 10
-61.36452
 20
-173.56002
 30
0.0
 40
8.57526
100
AcDbArc
 50
238.71324
 51
246.3633899999999
  0
LINE
  5
2E5
330
1E
100
AcDbEntity
  8
1
  6
CONTINUOUS
 62
     7
100
AcDbLine
 10
-61.36452
 20
-181.3127399999999
 30
0.0
 11
-61.36452
 21
-179.5295199999999
 31
0.0
  0
ARC
  5
2E6
330
1E
100
AcDbEntity
  8
1
  6
CONTINUOUS
 62
     7
100
AcDbCircle
 10
-61.36452
 20
-173.56002
 30
0.0
 40
8.57526
100
AcDbArc
 50
246.3633899999999
 51
247.8281799999999
  0
ARC
  5
2E7
330
1E
100
AcDbEntity
  8
1
  6
CONTINUOUS
 62
     7
100
AcDbCircle
 10
-61.36452
 20
-173.56002
 30
0.0
 40
8.57526
100
AcDbArc
 50
247.8281799999999
 51
258.01527
  0
LINE
  5
2E8
330
1E
100
AcDbEntity
  8
1
  6
CONTINUOUS
 62
     7
100
AcDbLine
 10
-69.78118000000001
 20
-175.2016199999999
 30
0.0
 11
-69.93978
 21
-173.56002
 31
0.0
  0
LINE
  5
2E9
330
1E
100
AcDbEntity
  8
1
  6
CONTINUOUS
 62
     7
100
AcDbLine
 10
-69.50355
 20
-174.72351
 30
0.0
 11
-69.939
 21
-173.5599999999999
 31
0.0
  0
LINE
  5
2EA
330
1E
100
AcDbEntity
  8
1
  6
CONTINUOUS
 62
     7
100
AcDbLine
 10
-69.939
 20
-173.5599999999999
 30
0.0
 11
-70.14364999999999
 21
-174.7853499999999
 31
0.0
  0
LINE
  5
2EB
330
1E
100
AcDbEntity
  8
1
  6
CONTINUOUS
 62
     7
100
AcDbLine
 10
-63.07691999999999
 20
-181.9625599999999
 30
0.0
 11
-61.36452
 21
-182.1352799999999
 31
0.0
  0
LINE
  5
2EC
330
1E
100
AcDbEntity
  8
1
  6
CONTINUOUS
 62
     7
100
AcDbLine
 10
-62.59021
 20
-182.33448
 30
0.0
 11
-61.364
 21
-182.1349999999999
 31
0.0
  0
LINE
  5
2ED
330
1E
100
AcDbEntity
  8
1
  6
CONTINUOUS
 62
     7
100
AcDbLine
 10
-61.364
 20
-182.1349999999999
 30
0.0
 11
-62.52566999999999
 21
-181.69465
 31
0.0
  0
ARC
  5
2EE
330
1E
100
AcDbEntity
  8
1
  6
CONTINUOUS
 62
     7
100
AcDbCircle
 10
-61.36452
 20
-173.56002
 30
0.0
 40
8.57526
100
AcDbArc
 50
258.01527
 51
258.41701
  0
LINE
  5
2EF
330
1E
100
AcDbEntity
  8
1
  6
CONTINUOUS
 62
     7
100
AcDbLine
 10
-61.36452
 20
-181.95782
 30
0.0
 11
-61.36452
 21
-181.3127399999999
 31
0.0
  0
LINE
  5
2F0
330
1E
100
AcDbEntity
  8
1
  6
CONTINUOUS
 62
     7
100
AcDbLine
 10
-69.93978
 20
-173.56002
 30
0.0
 11
-69.93978
 21
-169.20466
 31
0.0
  0
ARC
  5
2F1
330
1E
100
AcDbEntity
  8
1
  6
CONTINUOUS
 62
     7
100
AcDbCircle
 10
-61.36452
 20
-173.56002
 30
0.0
 40
8.57526
100
AcDbArc
 50
191.0231699999999
 51
191.5780499999999
  0
LINE
  5
2F2
330
1E
100
AcDbEntity
  8
1
  6
CONTINUOUS
 62
     7
100
AcDbLine
 10
-61.36452
 20
-175.87618
 30
0.0
 11
-61.36452
 21
-173.56002
 31
0.0
  0
LINE
  5
2F3
330
1E
100
AcDbEntity
  8
1
  6
CONTINUOUS
 62
     7
100
AcDbLine
 10
-63.9221
 20
-173.56002
 30
0.0
 11
-61.36452
 21
-173.56002
 31
0.0
  0
TEXT
  5
2F4
330
1E
100
AcDbEntity
  8
1
  6
CONTINUOUS
 62
     7
100
AcDbText
 10
-61.03906
 20
-173.93816
 30
0.0
 40
3.2
  1
Ｒ
 50
2.0
  7
BIGFONT
100
AcDbText
  0
TEXT
  5
2F5
330
1E
100
AcDbEntity
  8
1
  6
CONTINUOUS
 62
     7
100
AcDbText
 10
-68.84232
 20
-177.1657999999999
 30
0.0
 40
3.2
  1
Ｌ
 50
315.0
  7
BIGFONT
100
AcDbText
  0
TEXT
  5
2F6
330
1E
100
AcDbEntity
  8
1
  6
CONTINUOUS
 62
     7
100
AcDbText
 10
-66.6408
 20
-179.1304799999999
 30
0.0
 40
2.2
  1
２
 50
315.0
 41
1.1363636
  7
BIGFONT
100
AcDbText
  0
TEXT
  5
2F7
330
1E
100
AcDbEntity
  8
1
  6
CONTINUOUS
 62
     7
100
AcDbText
 10
-49.80091999999999
 20
-181.51276
 30
0.0
 40
3.2
  1
Ｌ
  7
BIGFONT
100
AcDbText
  0
TEXT
  5
2F8
330
1E
100
AcDbEntity
  8
1
  6
CONTINUOUS
 62
     7
100
AcDbText
 10
-46.79115999999999
 20
-181.33668
 30
0.0
 40
2.2
  1
１
 41
1.1363636
  7
BIGFONT
100
AcDbText
  0
TEXT
  5
2F9
330
1E
100
AcDbEntity
  8
1
  6
CONTINUOUS
 62
     7
100
AcDbText
 10
-70.38616000000001
 20
-164.4626399999999
 30
0.0
 40
3.2
  1
Ｌ
 50
90.0
  7
BIGFONT
100
AcDbText
  0
TEXT
  5
2FA
330
1E
100
AcDbEntity
  8
1
  6
CONTINUOUS
 62
     7
100
AcDbText
 10
-70.55488000000003
 20
-161.5318
 30
0.0
 40
2.2
  1
３
 50
90.0
 41
1.1363636
  7
BIGFONT
100
AcDbText
  0
CIRCLE
  5
2FB
330
1E
100
AcDbEntity
  8
1
  6
CONTINUOUS
 62
     7
100
AcDbCircle
 10
-228.2496999999999
 20
-159.0679199999998
 30
0.0
 40
2.497799999999998
  0
TEXT
  5
2FC
330
1E
100
AcDbEntity
  8
1
  6
CONTINUOUS
 62
     7
100
AcDbText
 10
-229.7829399999999
 20
-160.8673
 30
0.0
 40
3.2
  1
１
  7
BIGFONT
100
AcDbText
  0
LINE
  5
2FD
330
1E
100
AcDbEntity
  8
1
  6
CONTINUOUS
 62
     7
100
AcDbLine
 10
-233.10126
 20
-161.58608
 30
0.0
 11
-222.56418
 21
-161.58608
 31
0.0
  0
LINE
  5
2FE
330
1E
100
AcDbEntity
  8
1
  6
CONTINUOUS
 62
     7
100
AcDbLine
 10
-53.51449999999999
 20
-162.839
 30
0.0
 11
-40.94056
 21
-162.839
 31
0.0
  0
TEXT
  5
2FF
330
1E
100
AcDbEntity
  8
1
  6
CONTINUOUS
 62
     7
100
AcDbText
 10
-100.2595799999999
 20
-180.94288
 30
0.0
 40
3.2
  1
Ｌ
  7
BIGFONT
100
AcDbText
  0
TEXT
  5
300
330
1E
100
AcDbEntity
  8
1
  6
CONTINUOUS
 62
     7
100
AcDbText
 10
-97.24982
 20
-180.7667999999999
 30
0.0
 40
2.2
  1
１
 41
1.1363636
  7
BIGFONT
100
AcDbText
  0
LINE
  5
301
330
1E
100
AcDbEntity
  8
1
  6
CONTINUOUS
 62
     1
100
AcDbLine
 10
-110.33408
 20
-173.56002
 30
0.0
 11
-85.33407999999999
 21
-173.56002
 31
0.0
  0
LINE
  5
302
330
1E
100
AcDbEntity
  8
1
  6
CONTINUOUS
 62
     7
100
AcDbLine
 10
-110.33408
 20
-181.55972
 30
0.0
 11
-85.33407999999999
 21
-181.55972
 31
0.0
  0
LINE
  5
303
330
1E
100
AcDbEntity
  8
1
  6
CONTINUOUS
 62
     7
100
AcDbLine
 10
-85.33407999999999
 20
-174.56002
 30
0.0
 11
-85.33407999999999
 21
-182.3597199999999
 31
0.0
  0
LINE
  5
304
330
1E
100
AcDbEntity
  8
1
  6
CONTINUOUS
 62
     7
100
AcDbLine
 10
-110.33408
 20
-174.56002
 30
0.0
 11
-110.33408
 21
-182.3597199999999
 31
0.0
  0
LINE
  5
305
330
1E
100
AcDbEntity
  8
1
  6
CONTINUOUS
 62
     7
100
AcDbLine
 10
-86.53400000000003
 20
-181.88053
 30
0.0
 11
-85.334
 21
-181.559
 31
0.0
  0
LINE
  5
306
330
1E
100
AcDbEntity
  8
1
  6
CONTINUOUS
 62
     7
100
AcDbLine
 10
-85.334
 20
-181.559
 30
0.0
 11
-86.53400000000003
 21
-181.23746
 31
0.0
  0
LINE
  5
307
330
1E
100
AcDbEntity
  8
1
  6
CONTINUOUS
 62
     7
100
AcDbLine
 10
-109.1339999999999
 20
-181.23746
 30
0.0
 11
-110.3339999999999
 21
-181.559
 31
0.0
  0
LINE
  5
308
330
1E
100
AcDbEntity
  8
1
  6
CONTINUOUS
 62
     7
100
AcDbLine
 10
-110.3339999999999
 20
-181.559
 30
0.0
 11
-109.1339999999999
 21
-181.88053
 31
0.0
  0
CIRCLE
  5
309
330
1E
100
AcDbEntity
  8
1
  6
CONTINUOUS
 62
     7
100
AcDbCircle
 10
-192.5653
 20
-164.41904
 30
0.0
 40
2.497799999999998
  0
CIRCLE
  5
30A
330
1E
100
AcDbEntity
  8
1
  6
CONTINUOUS
 62
     7
100
AcDbCircle
 10
-140.8725399999999
 20
-161.8971399999999
 30
0.0
 40
2.497799999999998
  0
CIRCLE
  5
30B
330
1E
100
AcDbEntity
  8
1
  6
CONTINUOUS
 62
     7
100
AcDbCircle
 10
-97.90774
 20
-139.121
 30
0.0
 40
2.497799999999998
  0
CIRCLE
  5
30C
330
1E
100
AcDbEntity
  8
1
  6
CONTINUOUS
 62
     7
100
AcDbCircle
 10
-49.731
 20
-160.3314799999999
 30
0.0
 40
2.497799999999998
  0
CIRCLE
  5
30D
330
1E
100
AcDbEntity
  8
1
  6
CONTINUOUS
 62
     7
100
AcDbCircle
 10
-44.73629999999999
 20
-160.2815999999999
 30
0.0
 40
2.497799999999998
  0
CIRCLE
  5
30E
330
1E
100
AcDbEntity
  8
1
  6
CONTINUOUS
 62
     7
100
AcDbCircle
 10
-97.71204
 20
-164.91746
 30
0.0
 40
2.497799999999998
  0
TEXT
  5
30F
330
1E
100
AcDbEntity
  8
1
  6
CONTINUOUS
 62
     7
100
AcDbText
 10
-194.0972
 20
-166.20436
 30
0.0
 40
3.2
  1
２
  7
BIGFONT
100
AcDbText
  0
TEXT
  5
310
330
1E
100
AcDbEntity
  8
1
  6
CONTINUOUS
 62
     7
100
AcDbText
 10
-142.4053
 20
-163.71276
 30
0.0
 40
3.2
  1
３
  7
BIGFONT
100
AcDbText
  0
TEXT
  5
311
330
1E
100
AcDbEntity
  8
1
  6
CONTINUOUS
 62
     7
100
AcDbText
 10
-99.51959999999999
 20
-140.9247
 30
0.0
 40
3.2
  1
４
  7
BIGFONT
100
AcDbText
  0
TEXT
  5
312
330
1E
100
AcDbEntity
  8
1
  6
CONTINUOUS
 62
     7
100
AcDbText
 10
-51.23304
 20
-162.1628199999999
 30
0.0
 40
3.2
  1
５
  7
BIGFONT
100
AcDbText
  0
TEXT
  5
313
330
1E
100
AcDbEntity
  8
1
  6
CONTINUOUS
 62
     7
100
AcDbText
 10
-46.3363
 20
-162.10836
 30
0.0
 40
3.2
  1
６
  7
BIGFONT
100
AcDbText
  0
TEXT
  5
314
330
1E
100
AcDbEntity
  8
1
  6
CONTINUOUS
 62
     7
100
AcDbText
 10
-99.41508
 20
-166.7628399999999
 30
0.0
 40
3.2
  1
７
  7
BIGFONT
100
AcDbText
  0
LINE
  5
315
330
1E
100
AcDbEntity
  8
1
  6
CONTINUOUS
 62
     7
100
AcDbLine
 10
-103.0905799999999
 20
-141.6188
 30
0.0
 11
-92.95072000000001
 21
-141.6188
 31
0.0
  0
LINE
  5
316
330
1E
100
AcDbEntity
  8
1
  6
CONTINUOUS
 62
     7
100
AcDbLine
 10
-102.90954
 20
-167.3850199999999
 30
0.0
 11
-92.38572000000001
 21
-167.3850199999999
 31
0.0
  0
LINE
  5
317
330
1E
100
AcDbEntity
  8
1
  6
CONTINUOUS
 62
     7
100
AcDbLine
 10
-197.50464
 20
-166.9163
 30
0.0
 11
-186.96756
 21
-166.9163
 31
0.0
  0
LINE
  5
318
330
1E
100
AcDbEntity
  8
1
  6
CONTINUOUS
 62
     7
100
AcDbLine
 10
-145.7599599999998
 20
-164.3949399999999
 30
0.0
 11
-135.22288
 21
-164.3949399999999
 31
0.0
  0
TEXT
  5
319
330
1E
100
AcDbEntity
  8
1
  6
CONTINUOUS
 62
     7
100
AcDbText
 10
-246.4824999999999
 20
-159.9359199999998
 30
0.0
 40
3.2
  1
Ｌ
 50
90.0
  7
BIGFONT
100
AcDbText
  0
TEXT
  5
31A
330
1E
100
AcDbEntity
  8
1
  6
CONTINUOUS
 62
     7
100
AcDbText
 10
-246.6585799999999
 20
-156.92616
 30
0.0
 40
2.2
  1
１
 50
90.0
 41
1.1363636
  7
BIGFONT
100
AcDbText
  0
LINE
  5
31B
330
1E
100
AcDbEntity
  8
0
  6
CONTINUOUS
 62
     7
100
AcDbLine
 10
-228.3440999999999
 20
-98.15640000000001
 30
0.0
 11
-228.3440999999999
 21
-34.82305999999999
 31
0.0
  0
LINE
  5
31C
330
1E
100
AcDbEntity
  8
0
  6
CONTINUOUS
 62
     7
100
AcDbLine
 10
-228.3440999999999
 20
-34.82305999999999
 30
0.0
 11
-165.01076
 21
-34.82305999999999
 31
0.0
  0
LINE
  5
31D
330
1E
100
AcDbEntity
  8
0
  6
CONTINUOUS
 62
     7
100
AcDbLine
 10
-228.3440999999999
 20
-98.15640000000001
 30
0.0
 11
-178.3441
 21
-98.15640000000001
 31
0.0
  0
LINE
  5
31E
330
1E
100
AcDbEntity
  8
0
  6
CONTINUOUS
 62
     7
100
AcDbLine
 10
-165.01076
 20
-84.82305999999999
 30
0.0
 11
-165.01076
 21
-34.82305999999999
 31
0.0
  0
LINE
  5
31F
330
1E
100
AcDbEntity
  8
0
  6
CONTINUOUS
 62
     7
100
AcDbLine
 10
-103.67743
 20
-98.15640000000001
 30
0.0
 11
-53.67743
 21
-98.15640000000001
 31
0.0
  0
LINE
  5
320
330
1E
100
AcDbEntity
  8
0
  6
CONTINUOUS
 62
     7
100
AcDbLine
 10
-40.3441
 20
-84.82305999999999
 30
0.0
 11
-40.3441
 21
-34.82305999999999
 31
0.0
  0
CIRCLE
  5
321
330
1E
100
AcDbEntity
  8
0
  6
CONTINUOUS
 62
     7
100
AcDbCircle
 10
-200.1379299999999
 20
104.38493
 30
0.0
 40
2.5
  0
TEXT
  5
322
330
1E
100
AcDbEntity
  8
0
  6
CONTINUOUS
 62
     7
100
AcDbText
 10
-201.7481
 20
102.5617
 30
0.0
 40
3.2
  1
６
  7
BIGFONT
100
AcDbText
  0
LINE
  5
323
330
1E
100
AcDbEntity
  8
0
  6
CONTINUOUS
 62
     7
100
AcDbLine
 10
-203.2902299999999
 20
101.8895
 30
0.0
 11
-187.2902299999999
 21
101.8895
 31
0.0
  0
TEXT
  5
324
330
1E
100
AcDbEntity
  8
0
  6
CONTINUOUS
 62
     7
100
AcDbText
 10
-196.21436
 20
102.6312
 30
0.0
 40
3.2
  1
D10
  7
BIGFONT
100
AcDbText
  0
CIRCLE
  5
325
330
1E
100
AcDbEntity
  8
0
  6
CONTINUOUS
 62
     7
100
AcDbCircle
 10
-157.4997299999999
 20
81.49500000000001
 30
0.0
 40
2.5
  0
TEXT
  5
326
330
1E
100
AcDbEntity
  8
0
  6
CONTINUOUS
 62
     7
100
AcDbText
 10
-155.66736
 20
79.93506
 30
0.0
 40
3.2
  1
３
 50
90.0
  7
BIGFONT
100
AcDbText
  0
LINE
  5
327
330
1E
100
AcDbEntity
  8
0
  6
CONTINUOUS
 62
     7
100
AcDbLine
 10
-155.0126999999999
 20
77.67463000000002
 30
0.0
 11
-155.0126999999999
 21
93.67463
 31
0.0
  0
TEXT
  5
328
330
1E
100
AcDbEntity
  8
0
  6
CONTINUOUS
 62
     7
100
AcDbText
 10
-155.7544
 20
85.41715999999999
 30
0.0
 40
3.2
  1
D10
 50
90.0
  7
BIGFONT
100
AcDbText
  0
CIRCLE
  5
329
330
1E
100
AcDbEntity
  8
0
  6
CONTINUOUS
 62
     7
100
AcDbCircle
 10
-157.50393
 20
46.6537
 30
0.0
 40
2.5
  0
TEXT
  5
32A
330
1E
100
AcDbEntity
  8
0
  6
CONTINUOUS
 62
     7
100
AcDbText
 10
-155.6948999999999
 20
44.97265999999998
 30
0.0
 40
3.2
  1
４
 50
90.0
  7
BIGFONT
100
AcDbText
  0
LINE
  5
32B
330
1E
100
AcDbEntity
  8
0
  6
CONTINUOUS
 62
     7
100
AcDbLine
 10
-155.0126999999999
 20
44.01952999999998
 30
0.0
 11
-155.0126999999999
 21
60.01953
 31
0.0
  0
TEXT
  5
32C
330
1E
100
AcDbEntity
  8
0
  6
CONTINUOUS
 62
     7
100
AcDbText
 10
-155.7266999999999
 20
50.6154
 30
0.0
 40
3.2
  1
D13
 50
90.0
  7
BIGFONT
100
AcDbText
  0
TEXT
  5
32D
330
1E
100
AcDbEntity
  8
0
  6
CONTINUOUS
 62
     7
100
AcDbText
 10
-31.24373
 20
91.4996
 30
0.0
 40
3.2
  1
１
 50
90.0
  7
BIGFONT
100
AcDbText
  0
TEXT
  5
32E
330
1E
100
AcDbEntity
  8
0
  6
CONTINUOUS
 62
     7
100
AcDbText
 10
-76.97365999999998
 20
132.5176999999999
 30
0.0
 40
3.2
  1
５
  7
BIGFONT
100
AcDbText
  0
CIRCLE
  5
32F
330
1E
100
AcDbEntity
  8
0
  6
CONTINUOUS
 62
     7
100
AcDbCircle
 10
-33.04153
 20
92.87546
 30
0.0
 40
2.5
  0
LINE
  5
330
330
1E
100
AcDbEntity
  8
0
  6
CONTINUOUS
 62
     7
100
AcDbLine
 10
-30.5503
 20
89.40796
 30
0.0
 11
-30.5503
 21
105.40796
 31
0.0
  0
TEXT
  5
331
330
1E
100
AcDbEntity
  8
0
  6
CONTINUOUS
 62
     7
100
AcDbText
 10
-31.2643
 20
96.83716
 30
0.0
 40
3.2
  1
D16
 50
90.0
  7
BIGFONT
100
AcDbText
  0
CIRCLE
  5
332
330
1E
100
AcDbEntity
  8
0
  6
CONTINUOUS
 62
     7
100
AcDbCircle
 10
-75.2765
 20
134.34066
 30
0.0
 40
2.5
  0
LINE
  5
333
330
1E
100
AcDbEntity
  8
0
  6
CONTINUOUS
 62
     7
100
AcDbLine
 10
-78.52053000000002
 20
131.8412999999999
 30
0.0
 11
-62.52053
 21
131.8412999999999
 31
0.0
  0
TEXT
  5
334
330
1E
100
AcDbEntity
  8
0
  6
CONTINUOUS
 62
     7
100
AcDbText
 10
-71.42466
 20
132.5552999999999
 30
0.0
 40
3.2
  1
D13
  7
BIGFONT
100
AcDbText
  0
LINE
  5
335
330
1E
100
AcDbEntity
  8
0
  6
CONTINUOUS
 62
     1
100
AcDbLine
 10
-42.01075999999999
 20
-84.13273000000001
 30
0.0
 11
-42.01075999999999
 21
-36.65639999999999
 31
0.0
  0
LINE
  5
336
330
1E
100
AcDbEntity
  8
0
  6
CONTINUOUS
 62
     1
100
AcDbLine
 10
-54.36776
 20
-96.48972999999999
 30
0.0
 11
-42.01075999999999
 21
-84.13273000000001
 31
0.0
  0
LINE
  5
337
330
1E
100
AcDbEntity
  8
0
  6
CONTINUOUS
 62
     7
100
AcDbLine
 10
-113.66403
 20
-66.48973000000001
 30
0.0
 11
-101.8440999999999
 21
-66.48973000000001
 31
0.0
  0
LINE
  5
338
330
1E
100
AcDbEntity
  8
0
  6
CONTINUOUS
 62
     7
100
AcDbLine
 10
-103.044
 20
-66.81053
 30
0.0
 11
-101.844
 21
-66.48900000000001
 31
0.0
  0
LINE
  5
339
330
1E
100
AcDbEntity
  8
0
  6
CONTINUOUS
 62
     7
100
AcDbLine
 10
-101.844
 20
-66.48900000000001
 30
0.0
 11
-103.044
 21
-66.16745999999999
 31
0.0
  0
LINE
  5
33A
330
1E
100
AcDbEntity
  8
0
  6
CONTINUOUS
 62
     7
100
AcDbLine
 10
-41.63922999999999
 20
-99.56633
 30
0.0
 11
-49.5418
 21
-91.66375999999999
 31
0.0
  0
LINE
  5
33B
330
1E
100
AcDbEntity
  8
0
  6
CONTINUOUS
 62
     7
100
AcDbLine
 10
-48.4651
 20
-92.28416000000001
 30
0.0
 11
-49.541
 21
-91.66299999999999
 31
0.0
  0
LINE
  5
33C
330
1E
100
AcDbEntity
  8
0
  6
CONTINUOUS
 62
     7
100
AcDbLine
 10
-49.541
 20
-91.66299999999999
 30
0.0
 11
-48.91982999999999
 21
-92.73889
 31
0.0
  0
CIRCLE
  5
33D
330
1E
100
AcDbEntity
  8
0
  6
CONTINUOUS
 62
     7
100
AcDbCircle
 10
-92.10342999999999
 20
-105.6817
 30
0.0
 40
2.5
  0
TEXT
  5
33E
330
1E
100
AcDbEntity
  8
0
  6
CONTINUOUS
 62
     7
100
AcDbText
 10
-93.69583
 20
-107.3383999999999
 30
0.0
 40
3.2
  1
２
  7
BIGFONT
100
AcDbText
  0
LINE
  5
33F
330
1E
100
AcDbEntity
  8
0
  6
CONTINUOUS
 62
     7
100
AcDbLine
 10
-94.67743
 20
-108.1563999999999
 30
0.0
 11
-78.67743
 21
-108.1563999999999
 31
0.0
  0
TEXT
  5
340
330
1E
100
AcDbEntity
  8
0
  6
CONTINUOUS
 62
     7
100
AcDbText
 10
-88.14533
 20
-107.3703999999999
 30
0.0
 40
3.2
  1
D16
  7
BIGFONT
100
AcDbText
  0
CIRCLE
  5
341
330
1E
100
AcDbEntity
  8
0
  6
CONTINUOUS
 62
     7
100
AcDbCircle
 10
-32.8188
 20
-56.07396
 30
0.0
 40
2.5
  0
TEXT
  5
342
330
1E
100
AcDbEntity
  8
0
  6
CONTINUOUS
 62
     7
100
AcDbText
 10
-31.1621
 20
-57.67303
 30
0.0
 40
3.2
  1
２
 50
90.0
  7
BIGFONT
100
AcDbText
  0
LINE
  5
343
330
1E
100
AcDbEntity
  8
0
  6
CONTINUOUS
 62
     7
100
AcDbLine
 10
-30.3441
 20
-59.8813
 30
0.0
 11
-30.3441
 21
-43.8813
 31
0.0
  0
TEXT
  5
344
330
1E
100
AcDbEntity
  8
0
  6
CONTINUOUS
 62
     7
100
AcDbText
 10
-31.17843
 20
-52.11586
 30
0.0
 40
3.2
  1
D16
 50
90.0
  7
BIGFONT
100
AcDbText
  0
TEXT
  5
345
330
1E
100
AcDbEntity
  8
0
  6
CONTINUOUS
 62
     7
100
AcDbText
 10
-40.6283
 20
-97.64046
 30
0.0
 40
3.2
  1
７
 50
45.0
  7
BIGFONT
100
AcDbText
  0
CIRCLE
  5
346
330
1E
100
AcDbEntity
  8
0
  6
CONTINUOUS
 62
     7
100
AcDbCircle
 10
-116.15946
 20
-63.33743000000001
 30
0.0
 40
2.5
  0
TEXT
  5
347
330
1E
100
AcDbEntity
  8
0
  6
CONTINUOUS
 62
     7
100
AcDbText
 10
-114.3362299999999
 20
-64.94759999999999
 30
0.0
 40
3.2
  1
６
 50
90.0
  7
BIGFONT
100
AcDbText
  0
LINE
  5
348
330
1E
100
AcDbEntity
  8
0
  6
CONTINUOUS
 62
     7
100
AcDbLine
 10
-113.66403
 20
-66.48973000000001
 30
0.0
 11
-113.66403
 21
-50.48973
 31
0.0
  0
TEXT
  5
349
330
1E
100
AcDbEntity
  8
0
  6
CONTINUOUS
 62
     7
100
AcDbText
 10
-114.40573
 20
-59.41386
 30
0.0
 40
3.2
  1
D10
 50
90.0
  7
BIGFONT
100
AcDbText
  0
CIRCLE
  5
34A
330
1E
100
AcDbEntity
  8
0
  6
CONTINUOUS
 62
     7
100
AcDbCircle
 10
-40.70333
 20
-95.10139999999999
 30
0.0
 40
2.5
  0
LINE
  5
34B
330
1E
100
AcDbEntity
  8
0
  6
CONTINUOUS
 62
     7
100
AcDbLine
 10
-41.6392
 20
-99.56636000000001
 30
0.0
 11
-30.3255
 21
-88.25265999999997
 31
0.0
  0
TEXT
  5
34C
330
1E
100
AcDbEntity
  8
0
  6
CONTINUOUS
 62
     7
100
AcDbText
 10
-37.16026
 20
-94.0385
 30
0.0
 40
3.2
  1
D10
 50
45.0
  7
BIGFONT
100
AcDbText
  0
CIRCLE
  5
34D
330
1E
100
AcDbEntity
  8
0
  6
CONTINUOUS
 62
     7
100
AcDbCircle
 10
-157.4997299999999
 20
-73.13769999999998
 30
0.0
 40
2.5
  0
TEXT
  5
34E
330
1E
100
AcDbEntity
  8
0
  6
CONTINUOUS
 62
     7
100
AcDbText
 10
-155.66736
 20
-74.69763
 30
0.0
 40
3.2
  1
３
 50
90.0
  7
BIGFONT
100
AcDbText
  0
LINE
  5
34F
330
1E
100
AcDbEntity
  8
0
  6
CONTINUOUS
 62
     7
100
AcDbLine
 10
-155.0126999999999
 20
-76.29139999999998
 30
0.0
 11
-155.0126999999999
 21
-60.2914
 31
0.0
  0
TEXT
  5
350
330
1E
100
AcDbEntity
  8
0
  6
CONTINUOUS
 62
     7
100
AcDbText
 10
-155.7544
 20
-69.21553
 30
0.0
 40
3.2
  1
D10
 50
90.0
  7
BIGFONT
100
AcDbText
  0
CIRCLE
  5
351
330
1E
100
AcDbEntity
  8
0
  6
CONTINUOUS
 62
     7
100
AcDbCircle
 10
-230.4042299999999
 20
-105.65296
 30
0.0
 40
2.5
  0
TEXT
  5
352
330
1E
100
AcDbEntity
  8
0
  6
CONTINUOUS
 62
     7
100
AcDbText
 10
-232.08526
 20
-107.462
 30
0.0
 40
3.2
  1
４
  7
BIGFONT
100
AcDbText
  0
LINE
  5
353
330
1E
100
AcDbEntity
  8
0
  6
CONTINUOUS
 62
     7
100
AcDbLine
 10
-233.20506
 20
-108.1442
 30
0.0
 11
-217.2050599999999
 21
-108.1442
 31
0.0
  0
TEXT
  5
354
330
1E
100
AcDbEntity
  8
0
  6
CONTINUOUS
 62
     7
100
AcDbText
 10
-226.4425299999999
 20
-107.4302
 30
0.0
 40
3.2
  1
D13
  7
BIGFONT
100
AcDbText
  0
CIRCLE
  5
355
330
1E
100
AcDbEntity
  8
0
  6
CONTINUOUS
 62
     7
100
AcDbCircle
 10
-157.50393
 20
-42.06335999999999
 30
0.0
 40
2.5
  0
TEXT
  5
356
330
1E
100
AcDbEntity
  8
0
  6
CONTINUOUS
 62
     7
100
AcDbText
 10
-155.6948999999999
 20
-43.74439999999998
 30
0.0
 40
3.2
  1
４
 50
90.0
  7
BIGFONT
100
AcDbText
  0
LINE
  5
357
330
1E
100
AcDbEntity
  8
0
  6
CONTINUOUS
 62
     7
100
AcDbLine
 10
-155.0126999999999
 20
-45.53085999999999
 30
0.0
 11
-155.0126999999999
 21
-29.53085999999998
 31
0.0
  0
TEXT
  5
358
330
1E
100
AcDbEntity
  8
0
  6
CONTINUOUS
 62
     7
100
AcDbText
 10
-155.7266999999999
 20
-38.10165999999997
 30
0.0
 40
3.2
  1
D13
 50
90.0
  7
BIGFONT
100
AcDbText
  0
CIRCLE
  5
359
330
1E
100
AcDbEntity
  8
0
  6
CONTINUOUS
 62
     7
100
AcDbCircle
 10
-199.7904
 20
-105.66743
 30
0.0
 40
2.5
  0
TEXT
  5
35A
330
1E
100
AcDbEntity
  8
0
  6
CONTINUOUS
 62
     7
100
AcDbText
 10
-201.3503299999999
 20
-107.4997999999999
 30
0.0
 40
3.2
  1
３
  7
BIGFONT
100
AcDbText
  0
LINE
  5
35B
330
1E
100
AcDbEntity
  8
0
  6
CONTINUOUS
 62
     7
100
AcDbLine
 10
-203.3440999999998
 20
-108.15446
 30
0.0
 11
-187.3440999999999
 21
-108.15446
 31
0.0
  0
TEXT
  5
35C
330
1E
100
AcDbEntity
  8
0
  6
CONTINUOUS
 62
     7
100
AcDbText
 10
-195.86823
 20
-107.41276
 30
0.0
 40
3.2
  1
D10
  7
BIGFONT
100
AcDbText
  0
LINE
  5
35D
330
1E
100
AcDbEntity
  8
0
  6
CONTINUOUS
 62
     7
100
AcDbLine
 10
187.3526
 20
89.34099999999999
 30
0.0
 11
193.99926
 21
89.34099999999999
 31
0.0
  0
CIRCLE
  5
35E
330
1E
100
AcDbEntity
  8
0
  6
CONTINUOUS
 62
     7
100
AcDbCircle
 10
190.68466
 20
89.34600000000001
 30
0.0
 40
1.25
  0
LINE
  5
35F
330
1E
100
AcDbEntity
  8
0
  6
CONTINUOUS
 62
     7
100
AcDbLine
 10
190.68466
 20
86.09099999999996
 30
0.0
 11
190.68466
 21
92.73766
 31
0.0
  0
LINE
  5
360
330
1E
100
AcDbEntity
  8
0
  6
CONTINUOUS
 62
     1
100
AcDbLine
 10
-220.0057
 20
50.01063
 30
0.0
 11
-220.0057
 21
93.51063000000001
 31
0.0
  0
LINE
  5
361
330
1E
100
AcDbEntity
  8
0
  6
DASHED
 62
     1
100
AcDbLine
 10
-219.3390299999999
 20
50.01063
 30
0.0
 11
-219.3390299999999
 21
62.18913
 31
0.0
  0
LINE
  5
362
330
1E
100
AcDbEntity
  8
0
  6
CONTINUOUS
 62
     1
100
AcDbLine
 10
-213.3390299999999
 20
50.01063
 30
0.0
 11
-213.3390299999999
 21
93.51063000000001
 31
0.0
  0
LINE
  5
363
330
1E
100
AcDbEntity
  8
0
  6
DASHED
 62
     1
100
AcDbLine
 10
-212.67236
 20
50.01063
 30
0.0
 11
-212.67236
 21
62.18913
 31
0.0
  0
LINE
  5
364
330
1E
100
AcDbEntity
  8
0
  6
CONTINUOUS
 62
     1
100
AcDbLine
 10
-206.6723599999999
 20
50.01063
 30
0.0
 11
-206.6723599999999
 21
93.51063000000001
 31
0.0
  0
LINE
  5
365
330
1E
100
AcDbEntity
  8
0
  6
DASHED
 62
     1
100
AcDbLine
 10
-206.0057
 20
50.01063
 30
0.0
 11
-206.0057
 21
62.18913
 31
0.0
  0
LINE
  5
366
330
1E
100
AcDbEntity
  8
0
  6
CONTINUOUS
 62
     1
100
AcDbLine
 10
-200.0056999999999
 20
50.01063
 30
0.0
 11
-200.0056999999999
 21
93.51063000000001
 31
0.0
  0
LINE
  5
367
330
1E
100
AcDbEntity
  8
0
  6
DASHED
 62
     1
100
AcDbLine
 10
-199.33903
 20
50.01063
 30
0.0
 11
-199.33903
 21
62.18913
 31
0.0
  0
LINE
  5
368
330
1E
100
AcDbEntity
  8
0
  6
CONTINUOUS
 62
     1
100
AcDbLine
 10
-193.33903
 20
50.01063
 30
0.0
 11
-193.33903
 21
93.51063000000001
 31
0.0
  0
LINE
  5
369
330
1E
100
AcDbEntity
  8
0
  6
DASHED
 62
     1
100
AcDbLine
 10
-192.67236
 20
50.01063
 30
0.0
 11
-192.67236
 21
62.18913
 31
0.0
  0
LINE
  5
36A
330
1E
100
AcDbEntity
  8
0
  6
CONTINUOUS
 62
     1
100
AcDbLine
 10
-186.67236
 20
50.01063
 30
0.0
 11
-186.67236
 21
93.51063000000001
 31
0.0
  0
LINE
  5
36B
330
1E
100
AcDbEntity
  8
0
  6
DASHED
 62
     1
100
AcDbLine
 10
-186.0056999999999
 20
50.01063
 30
0.0
 11
-186.0056999999999
 21
62.18913
 31
0.0
  0
LINE
  5
36C
330
1E
100
AcDbEntity
  8
0
  6
CONTINUOUS
 62
     1
100
AcDbLine
 10
-180.0056999999999
 20
50.01063
 30
0.0
 11
-180.0056999999999
 21
93.51063000000001
 31
0.0
  0
LINE
  5
36D
330
1E
100
AcDbEntity
  8
0
  6
CONTINUOUS
 62
     7
100
AcDbLine
 10
-186.0056999999999
 20
60.01953
 30
0.0
 11
-192.67236
 21
60.01953
 31
0.0
  0
LINE
  5
36E
330
1E
100
AcDbEntity
  8
0
  6
CONTINUOUS
 62
     7
100
AcDbLine
 10
-191.472
 20
60.34053
 30
0.0
 11
-192.6719999999999
 21
60.019
 31
0.0
  0
LINE
  5
36F
330
1E
100
AcDbEntity
  8
0
  6
CONTINUOUS
 62
     7
100
AcDbLine
 10
-192.6719999999999
 20
60.019
 30
0.0
 11
-191.472
 21
59.69746
 31
0.0
  0
LINE
  5
370
330
1E
100
AcDbEntity
  8
0
  6
CONTINUOUS
 62
     7
100
AcDbLine
 10
-200.0056999999999
 20
77.67463000000002
 30
0.0
 11
-206.6723599999999
 21
77.67463000000002
 31
0.0
  0
LINE
  5
371
330
1E
100
AcDbEntity
  8
0
  6
CONTINUOUS
 62
     7
100
AcDbLine
 10
-205.472
 20
77.99553
 30
0.0
 11
-206.672
 21
77.67400000000002
 31
0.0
  0
LINE
  5
372
330
1E
100
AcDbEntity
  8
0
  6
CONTINUOUS
 62
     7
100
AcDbLine
 10
-206.672
 20
77.67400000000002
 30
0.0
 11
-205.472
 21
77.35246
 31
0.0
  0
LINE
  5
373
330
1E
100
AcDbEntity
  8
0
  6
CONTINUOUS
 62
     7
100
AcDbLine
 10
-206.6723599999999
 20
77.67463000000002
 30
0.0
 11
-213.3390299999999
 21
77.67463000000002
 31
0.0
  0
LINE
  5
374
330
1E
100
AcDbEntity
  8
0
  6
CONTINUOUS
 62
     7
100
AcDbLine
 10
-212.139
 20
77.99553
 30
0.0
 11
-213.3389999999999
 21
77.67400000000002
 31
0.0
  0
LINE
  5
375
330
1E
100
AcDbEntity
  8
0
  6
CONTINUOUS
 62
     7
100
AcDbLine
 10
-213.3389999999999
 20
77.67400000000002
 30
0.0
 11
-212.139
 21
77.35246
 31
0.0
  0
LINE
  5
376
330
1E
100
AcDbEntity
  8
0
  6
CONTINUOUS
 62
     7
100
AcDbLine
 10
-213.3390299999999
 20
77.67463000000002
 30
0.0
 11
-220.0057
 21
77.67463000000002
 31
0.0
  0
LINE
  5
377
330
1E
100
AcDbEntity
  8
0
  6
CONTINUOUS
 62
     7
100
AcDbLine
 10
-218.805
 20
77.99553
 30
0.0
 11
-220.005
 21
77.67400000000002
 31
0.0
  0
LINE
  5
378
330
1E
100
AcDbEntity
  8
0
  6
CONTINUOUS
 62
     7
100
AcDbLine
 10
-220.005
 20
77.67400000000002
 30
0.0
 11
-218.805
 21
77.35246
 31
0.0
  0
LINE
  5
379
330
1E
100
AcDbEntity
  8
0
  6
CONTINUOUS
 62
     7
100
AcDbLine
 10
-220.0057
 20
77.67463000000002
 30
0.0
 11
-226.67236
 21
77.67463000000002
 31
0.0
  0
LINE
  5
37A
330
1E
100
AcDbEntity
  8
0
  6
CONTINUOUS
 62
     7
100
AcDbLine
 10
-225.472
 20
77.99553
 30
0.0
 11
-226.6719999999998
 21
77.67400000000002
 31
0.0
  0
LINE
  5
37B
330
1E
100
AcDbEntity
  8
0
  6
CONTINUOUS
 62
     7
100
AcDbLine
 10
-226.6719999999998
 20
77.67400000000002
 30
0.0
 11
-225.472
 21
77.35246
 31
0.0
  0
LINE
  5
37C
330
1E
100
AcDbEntity
  8
0
  6
CONTINUOUS
 62
     1
100
AcDbLine
 10
-226.6738299999999
 20
62.67463000000001
 30
0.0
 11
-166.3440299999999
 21
62.67463000000001
 31
0.0
  0
LINE
  5
37D
330
1E
100
AcDbEntity
  8
0
  6
CONTINUOUS
 62
     1
100
AcDbLine
 10
-226.6738299999999
 20
72.67463000000002
 30
0.0
 11
-166.3440299999999
 21
72.67463000000002
 31
0.0
  0
LINE
  5
37E
330
1E
100
AcDbEntity
  8
0
  6
CONTINUOUS
 62
     1
100
AcDbLine
 10
-226.6738299999999
 20
82.67463000000002
 30
0.0
 11
-166.3440299999999
 21
82.67463000000002
 31
0.0
  0
LINE
  5
37F
330
1E
100
AcDbEntity
  8
0
  6
CONTINUOUS
 62
     1
100
AcDbLine
 10
-226.6738299999999
 20
92.67462999999999
 30
0.0
 11
-166.3440299999999
 21
92.67462999999999
 31
0.0
  0
LINE
  5
380
330
1E
100
AcDbEntity
  8
0
  6
CONTINUOUS
 62
     7
100
AcDbLine
 10
-203.2902299999999
 20
101.8895
 30
0.0
 11
-203.2902299999999
 21
92.67462999999999
 31
0.0
  0
LINE
  5
381
330
1E
100
AcDbEntity
  8
0
  6
CONTINUOUS
 62
     7
100
AcDbLine
 10
-203.61153
 20
93.87399999999999
 30
0.0
 11
-203.29
 21
92.674
 31
0.0
  0
LINE
  5
382
330
1E
100
AcDbEntity
  8
0
  6
CONTINUOUS
 62
     7
100
AcDbLine
 10
-203.29
 20
92.674
 30
0.0
 11
-202.96846
 21
93.87399999999999
 31
0.0
  0
LINE
  5
383
330
1E
100
AcDbEntity
  8
0
  6
CONTINUOUS
 62
     7
100
AcDbLine
 10
-203.2902299999999
 20
92.67462999999999
 30
0.0
 11
-203.2902299999999
 21
82.67463000000002
 31
0.0
  0
LINE
  5
384
330
1E
100
AcDbEntity
  8
0
  6
CONTINUOUS
 62
     7
100
AcDbLine
 10
-203.61153
 20
83.87399999999997
 30
0.0
 11
-203.29
 21
82.674
 31
0.0
  0
LINE
  5
385
330
1E
100
AcDbEntity
  8
0
  6
CONTINUOUS
 62
     7
100
AcDbLine
 10
-203.29
 20
82.674
 30
0.0
 11
-202.96846
 21
83.87399999999997
 31
0.0
  0
LINE
  5
386
330
1E
100
AcDbEntity
  8
0
  6
CONTINUOUS
 62
     7
100
AcDbLine
 10
-203.2902299999999
 20
82.67463000000002
 30
0.0
 11
-203.2902299999999
 21
72.67463000000002
 31
0.0
  0
LINE
  5
387
330
1E
100
AcDbEntity
  8
0
  6
CONTINUOUS
 62
     7
100
AcDbLine
 10
-203.61153
 20
73.87399999999998
 30
0.0
 11
-203.29
 21
72.67400000000002
 31
0.0
  0
LINE
  5
388
330
1E
100
AcDbEntity
  8
0
  6
CONTINUOUS
 62
     7
100
AcDbLine
 10
-203.29
 20
72.67400000000002
 30
0.0
 11
-202.96846
 21
73.87399999999998
 31
0.0
  0
LINE
  5
389
330
1E
100
AcDbEntity
  8
0
  6
CONTINUOUS
 62
     7
100
AcDbLine
 10
-203.2902299999999
 20
72.67463000000002
 30
0.0
 11
-203.2902299999999
 21
62.67463000000001
 31
0.0
  0
LINE
  5
38A
330
1E
100
AcDbEntity
  8
0
  6
CONTINUOUS
 62
     7
100
AcDbLine
 10
-203.61153
 20
63.87399999999999
 30
0.0
 11
-203.29
 21
62.674
 31
0.0
  0
LINE
  5
38B
330
1E
100
AcDbEntity
  8
0
  6
CONTINUOUS
 62
     7
100
AcDbLine
 10
-203.29
 20
62.674
 30
0.0
 11
-202.96846
 21
63.87399999999999
 31
0.0
  0
LINE
  5
38C
330
1E
100
AcDbEntity
  8
0
  6
CONTINUOUS
 62
     7
100
AcDbLine
 10
-203.2902299999999
 20
62.67463000000001
 30
0.0
 11
-203.2902299999999
 21
52.67463000000001
 31
0.0
  0
LINE
  5
38D
330
1E
100
AcDbEntity
  8
0
  6
CONTINUOUS
 62
     7
100
AcDbLine
 10
-203.61153
 20
53.87399999999999
 30
0.0
 11
-203.29
 21
52.674
 31
0.0
  0
LINE
  5
38E
330
1E
100
AcDbEntity
  8
0
  6
CONTINUOUS
 62
     7
100
AcDbLine
 10
-203.29
 20
52.674
 30
0.0
 11
-202.96846
 21
53.87399999999999
 31
0.0
  0
LINE
  5
38F
330
1E
100
AcDbEntity
  8
0
  6
CONTINUOUS
 62
     7
100
AcDbLine
 10
-245.71916
 20
48.50795999999998
 30
0.0
 11
-245.71916
 21
93.54026000000001
 31
0.0
  0
LINE
  5
390
330
1E
100
AcDbEntity
  8
0
  6
CONTINUOUS
 62
     7
100
AcDbLine
 10
-229.21916
 20
93.54026000000001
 30
0.0
 11
-246.51916
 21
93.54026000000001
 31
0.0
  0
LINE
  5
391
330
1E
100
AcDbEntity
  8
0
  6
CONTINUOUS
 62
     7
100
AcDbLine
 10
-229.326
 20
48.50795999999998
 30
0.0
 11
-246.51916
 21
48.50795999999998
 31
0.0
  0
LINE
  5
392
330
1E
100
AcDbEntity
  8
0
  6
CONTINUOUS
 62
     7
100
AcDbLine
 10
-245.39746
 20
92.33999999999999
 30
0.0
 11
-245.719
 21
93.54
 31
0.0
  0
LINE
  5
393
330
1E
100
AcDbEntity
  8
0
  6
CONTINUOUS
 62
     7
100
AcDbLine
 10
-245.719
 20
93.54
 30
0.0
 11
-246.04053
 21
92.33999999999999
 31
0.0
  0
LINE
  5
394
330
1E
100
AcDbEntity
  8
0
  6
CONTINUOUS
 62
     7
100
AcDbLine
 10
-246.04053
 20
49.707
 30
0.0
 11
-245.719
 21
48.50699999999999
 31
0.0
  0
LINE
  5
395
330
1E
100
AcDbEntity
  8
0
  6
CONTINUOUS
 62
     7
100
AcDbLine
 10
-245.719
 20
48.50699999999999
 30
0.0
 11
-245.39746
 21
49.707
 31
0.0
  0
TEXT
  5
396
330
1E
100
AcDbEntity
  8
0
  6
CONTINUOUS
 62
     7
100
AcDbText
 10
-246.11916
 20
65.82411
 30
0.0
 40
3.2
  1
1350
 50
90.0
 41
0.8125
  7
BIGFONT
100
AcDbText
  0
LINE
  5
397
330
1E
100
AcDbEntity
  8
0
  6
CONTINUOUS
 62
     7
100
AcDbLine
 10
-238.21916
 20
48.50795999999998
 30
0.0
 11
-238.21916
 21
52.66983
 31
0.0
  0
LINE
  5
398
330
1E
100
AcDbEntity
  8
0
  6
CONTINUOUS
 62
     7
100
AcDbLine
 10
-229.31916
 20
52.66983
 30
0.0
 11
-239.01916
 21
52.66983
 31
0.0
  0
LINE
  5
399
330
1E
100
AcDbEntity
  8
0
  6
CONTINUOUS
 62
     7
100
AcDbLine
 10
-233.35596
 20
48.50795999999998
 30
0.0
 11
-239.01916
 21
48.50795999999998
 31
0.0
  0
LINE
  5
39A
330
1E
100
AcDbEntity
  8
0
  6
CONTINUOUS
 62
     7
100
AcDbLine
 10
-238.21916
 20
55.06983
 30
0.0
 11
-238.21916
 21
52.66983
 31
0.0
  0
LINE
  5
39B
330
1E
100
AcDbEntity
  8
0
  6
CONTINUOUS
 62
     7
100
AcDbLine
 10
-238.5405299999999
 20
53.869
 30
0.0
 11
-238.219
 21
52.66899999999999
 31
0.0
  0
LINE
  5
39C
330
1E
100
AcDbEntity
  8
0
  6
CONTINUOUS
 62
     7
100
AcDbLine
 10
-238.219
 20
52.66899999999999
 30
0.0
 11
-237.8974599999998
 21
53.869
 31
0.0
  0
LINE
  5
39D
330
1E
100
AcDbEntity
  8
0
  6
CONTINUOUS
 62
     7
100
AcDbLine
 10
-238.21916
 20
48.50795999999998
 30
0.0
 11
-238.21916
 21
46.10795999999999
 31
0.0
  0
LINE
  5
39E
330
1E
100
AcDbEntity
  8
0
  6
CONTINUOUS
 62
     7
100
AcDbLine
 10
-237.8974599999998
 20
47.30699999999997
 30
0.0
 11
-238.219
 21
48.50699999999999
 31
0.0
  0
LINE
  5
39F
330
1E
100
AcDbEntity
  8
0
  6
CONTINUOUS
 62
     7
100
AcDbLine
 10
-238.219
 20
48.50699999999999
 30
0.0
 11
-238.5405299999999
 21
47.30699999999997
 31
0.0
  0
LINE
  5
3A0
330
1E
100
AcDbEntity
  8
0
  6
CONTINUOUS
 62
     7
100
AcDbLine
 10
-238.21916
 20
46.10795999999999
 30
0.0
 11
-238.21916
 21
39.66796
 31
0.0
  0
TEXT
  5
3A1
330
1E
100
AcDbEntity
  8
0
  6
CONTINUOUS
 62
     7
100
AcDbText
 10
-238.61916
 20
39.66796
 30
0.0
 40
3.2
  1
125
 50
90.0
 41
0.8125
  7
BIGFONT
100
AcDbText
  0
LINE
  5
3A2
330
1E
100
AcDbEntity
  8
0
  6
CONTINUOUS
 62
     7
100
AcDbLine
 10
-238.21916
 20
52.66983
 30
0.0
 11
-238.21916
 21
92.65712999999999
 31
0.0
  0
LINE
  5
3A3
330
1E
100
AcDbEntity
  8
0
  6
CONTINUOUS
 62
     7
100
AcDbLine
 10
-229.21916
 20
92.65712999999999
 30
0.0
 11
-239.01916
 21
92.65712999999999
 31
0.0
  0
LINE
  5
3A4
330
1E
100
AcDbEntity
  8
0
  6
CONTINUOUS
 62
     7
100
AcDbLine
 10
-237.8974599999998
 20
91.45699999999999
 30
0.0
 11
-238.219
 21
92.657
 31
0.0
  0
LINE
  5
3A5
330
1E
100
AcDbEntity
  8
0
  6
CONTINUOUS
 62
     7
100
AcDbLine
 10
-238.219
 20
92.657
 30
0.0
 11
-238.5405299999999
 21
91.45699999999999
 31
0.0
  0
LINE
  5
3A6
330
1E
100
AcDbEntity
  8
0
  6
CONTINUOUS
 62
     7
100
AcDbLine
 10
-238.5405299999999
 20
53.869
 30
0.0
 11
-238.219
 21
52.66899999999999
 31
0.0
  0
LINE
  5
3A7
330
1E
100
AcDbEntity
  8
0
  6
CONTINUOUS
 62
     7
100
AcDbLine
 10
-238.219
 20
52.66899999999999
 30
0.0
 11
-237.8974599999998
 21
53.869
 31
0.0
  0
TEXT
  5
3A8
330
1E
100
AcDbEntity
  8
0
  6
CONTINUOUS
 62
     7
100
AcDbText
 10
-238.62976
 20
58.53425999999998
 30
0.0
 40
3.2
  1
4×300=1200
 50
90.0
  7
BIGFONT
100
AcDbText
  0
LINE
  5
3A9
330
1E
100
AcDbEntity
  8
0
  6
CONTINUOUS
 62
     7
100
AcDbLine
 10
-121.1705999999999
 20
48.46526
 30
0.0
 11
-121.1705999999999
 21
123.46526
 31
0.0
  0
LINE
  5
3AA
330
1E
100
AcDbEntity
  8
0
  6
CONTINUOUS
 62
     7
100
AcDbLine
 10
-104.6705999999999
 20
123.46526
 30
0.0
 11
-121.9706
 21
123.46526
 31
0.0
  0
LINE
  5
3AB
330
1E
100
AcDbEntity
  8
0
  6
CONTINUOUS
 62
     7
100
AcDbLine
 10
-104.6705999999999
 20
48.46526
 30
0.0
 11
-121.9706
 21
48.46526
 31
0.0
  0
LINE
  5
3AC
330
1E
100
AcDbEntity
  8
0
  6
CONTINUOUS
 62
     7
100
AcDbLine
 10
-120.84846
 20
122.265
 30
0.0
 11
-121.1699999999999
 21
123.465
 31
0.0
  0
LINE
  5
3AD
330
1E
100
AcDbEntity
  8
0
  6
CONTINUOUS
 62
     7
100
AcDbLine
 10
-121.1699999999999
 20
123.465
 30
0.0
 11
-121.49153
 21
122.265
 31
0.0
  0
LINE
  5
3AE
330
1E
100
AcDbEntity
  8
0
  6
CONTINUOUS
 62
     7
100
AcDbLine
 10
-121.49153
 20
49.66499999999999
 30
0.0
 11
-121.1699999999999
 21
48.465
 31
0.0
  0
LINE
  5
3AF
330
1E
100
AcDbEntity
  8
0
  6
CONTINUOUS
 62
     7
100
AcDbLine
 10
-121.1699999999999
 20
48.465
 30
0.0
 11
-120.84846
 21
49.66499999999999
 31
0.0
  0
TEXT
  5
3B0
330
1E
100
AcDbEntity
  8
0
  6
CONTINUOUS
 62
     7
100
AcDbText
 10
-121.5705999999999
 20
80.76525999999999
 30
0.0
 40
3.2
  1
2250
 50
90.0
 41
0.8125
  7
BIGFONT
100
AcDbText
  0
TEXT
  5
3B1
330
1E
100
AcDbEntity
  8
0
  6
CONTINUOUS
 62
     7
100
AcDbText
 10
-114.08323
 20
69.64873
 30
0.0
 40
3.2
  1
10×200=2000
 50
90.0
  7
BIGFONT
100
AcDbText
  0
LINE
  5
3B2
330
1E
100
AcDbEntity
  8
0
  6
CONTINUOUS
 62
     7
100
AcDbLine
 10
144.06666
 20
48.50795999999998
 30
0.0
 11
144.06666
 21
53.82066
 31
0.0
  0
LINE
  5
3B3
330
1E
100
AcDbEntity
  8
0
  6
CONTINUOUS
 62
     7
100
AcDbLine
 10
147.3362299999999
 20
53.82066
 30
0.0
 11
143.26666
 21
53.82066
 31
0.0
  0
LINE
  5
3B4
330
1E
100
AcDbEntity
  8
0
  6
CONTINUOUS
 62
     7
100
AcDbLine
 10
146.49403
 20
48.50795999999998
 30
0.0
 11
143.26666
 21
48.50795999999998
 31
0.0
  0
LINE
  5
3B5
330
1E
100
AcDbEntity
  8
0
  6
CONTINUOUS
 62
     7
100
AcDbLine
 10
144.38753
 20
52.62
 30
0.0
 11
144.066
 21
53.82
 31
0.0
  0
LINE
  5
3B6
330
1E
100
AcDbEntity
  8
0
  6
CONTINUOUS
 62
     7
100
AcDbLine
 10
144.066
 20
53.82
 30
0.0
 11
143.74446
 21
52.62
 31
0.0
  0
LINE
  5
3B7
330
1E
100
AcDbEntity
  8
0
  6
CONTINUOUS
 62
     7
100
AcDbLine
 10
143.74446
 20
49.707
 30
0.0
 11
144.066
 21
48.50699999999999
 31
0.0
  0
LINE
  5
3B8
330
1E
100
AcDbEntity
  8
0
  6
CONTINUOUS
 62
     7
100
AcDbLine
 10
144.066
 20
48.50699999999999
 30
0.0
 11
144.38753
 21
49.707
 31
0.0
  0
TEXT
  5
3B9
330
1E
100
AcDbEntity
  8
0
  6
CONTINUOUS
 62
     7
100
AcDbText
 10
143.66666
 20
47.52431
 30
0.0
 40
3.2
  1
160
 50
90.0
 41
0.8125
  7
BIGFONT
100
AcDbText
  0
LINE
  5
3BA
330
1E
100
AcDbEntity
  8
0
  6
CONTINUOUS
 62
     7
100
AcDbLine
 10
144.06666
 20
53.82066
 30
0.0
 11
144.06666
 21
123.50796
 31
0.0
  0
LINE
  5
3BB
330
1E
100
AcDbEntity
  8
0
  6
CONTINUOUS
 62
     7
100
AcDbLine
 10
148.10826
 20
123.50796
 30
0.0
 11
143.26666
 21
123.50796
 31
0.0
  0
LINE
  5
3BC
330
1E
100
AcDbEntity
  8
0
  6
CONTINUOUS
 62
     7
100
AcDbLine
 10
144.38753
 20
122.307
 30
0.0
 11
144.066
 21
123.507
 31
0.0
  0
LINE
  5
3BD
330
1E
100
AcDbEntity
  8
0
  6
CONTINUOUS
 62
     7
100
AcDbLine
 10
144.066
 20
123.507
 30
0.0
 11
143.74446
 21
122.307
 31
0.0
  0
LINE
  5
3BE
330
1E
100
AcDbEntity
  8
0
  6
CONTINUOUS
 62
     7
100
AcDbLine
 10
143.74446
 20
55.02
 30
0.0
 11
144.066
 21
53.82
 31
0.0
  0
LINE
  5
3BF
330
1E
100
AcDbEntity
  8
0
  6
CONTINUOUS
 62
     7
100
AcDbLine
 10
144.066
 20
53.82
 30
0.0
 11
144.38753
 21
55.02
 31
0.0
  0
TEXT
  5
3C0
330
1E
100
AcDbEntity
  8
0
  6
CONTINUOUS
 62
     7
100
AcDbText
 10
143.66666
 20
83.46431
 30
0.0
 40
3.2
  1
2090
 50
90.0
 41
0.8125
  7
BIGFONT
100
AcDbText
  0
LINE
  5
3C1
330
1E
100
AcDbEntity
  8
0
  6
DASHED
 62
     1
100
AcDbLine
 10
-174.0107599999999
 20
-48.3072
 30
0.0
 11
-174.0107599999999
 21
-36.15639999999999
 31
0.0
  0
LINE
  5
3C2
330
1E
100
AcDbEntity
  8
0
  6
CONTINUOUS
 62
     1
100
AcDbLine
 10
-173.3441
 20
-64.83346
 30
0.0
 11
-173.3441
 21
-36.15639999999999
 31
0.0
  0
LINE
  5
3C3
330
1E
100
AcDbEntity
  8
0
  6
DASHED
 62
     1
100
AcDbLine
 10
-180.67743
 20
-48.3072
 30
0.0
 11
-180.67743
 21
-36.15639999999999
 31
0.0
  0
LINE
  5
3C4
330
1E
100
AcDbEntity
  8
0
  6
CONTINUOUS
 62
     1
100
AcDbLine
 10
-180.01076
 20
-64.83346
 30
0.0
 11
-180.01076
 21
-36.15639999999999
 31
0.0
  0
LINE
  5
3C5
330
1E
100
AcDbEntity
  8
0
  6
DASHED
 62
     1
100
AcDbLine
 10
-187.3440999999999
 20
-48.3072
 30
0.0
 11
-187.3440999999999
 21
-36.15639999999999
 31
0.0
  0
LINE
  5
3C6
330
1E
100
AcDbEntity
  8
0
  6
CONTINUOUS
 62
     1
100
AcDbLine
 10
-186.67743
 20
-64.83346
 30
0.0
 11
-186.67743
 21
-36.15639999999999
 31
0.0
  0
LINE
  5
3C7
330
1E
100
AcDbEntity
  8
0
  6
DASHED
 62
     1
100
AcDbLine
 10
-194.01076
 20
-48.3072
 30
0.0
 11
-194.01076
 21
-36.15639999999999
 31
0.0
  0
LINE
  5
3C8
330
1E
100
AcDbEntity
  8
0
  6
CONTINUOUS
 62
     1
100
AcDbLine
 10
-193.3441
 20
-64.83346
 30
0.0
 11
-193.3441
 21
-36.15639999999999
 31
0.0
  0
LINE
  5
3C9
330
1E
100
AcDbEntity
  8
0
  6
CONTINUOUS
 62
     1
100
AcDbLine
 10
-224.5441
 20
-96.48972999999999
 30
0.0
 11
-224.5441
 21
-36.15639999999999
 31
0.0
  0
LINE
  5
3CA
330
1E
100
AcDbEntity
  8
0
  6
CONTINUOUS
 62
     7
100
AcDbLine
 10
-224.5337
 20
-26.48972999999999
 30
0.0
 11
-219.9994299999999
 21
-26.48972999999999
 31
0.0
  0
LINE
  5
3CB
330
1E
100
AcDbEntity
  8
0
  6
CONTINUOUS
 62
     7
100
AcDbLine
 10
-219.9994299999999
 20
-33.82305999999999
 30
0.0
 11
-219.9994299999999
 21
-25.68972999999999
 31
0.0
  0
LINE
  5
3CC
330
1E
100
AcDbEntity
  8
0
  6
CONTINUOUS
 62
     7
100
AcDbLine
 10
-224.5337
 20
-33.82305999999999
 30
0.0
 11
-224.5337
 21
-25.68972999999999
 31
0.0
  0
LINE
  5
3CD
330
1E
100
AcDbEntity
  8
0
  6
CONTINUOUS
 62
     7
100
AcDbLine
 10
-221.199
 20
-26.81053
 30
0.0
 11
-219.999
 21
-26.489
 31
0.0
  0
LINE
  5
3CE
330
1E
100
AcDbEntity
  8
0
  6
CONTINUOUS
 62
     7
100
AcDbLine
 10
-219.999
 20
-26.489
 30
0.0
 11
-221.199
 21
-26.16746
 31
0.0
  0
LINE
  5
3CF
330
1E
100
AcDbEntity
  8
0
  6
CONTINUOUS
 62
     7
100
AcDbLine
 10
-223.333
 20
-26.16746
 30
0.0
 11
-224.533
 21
-26.489
 31
0.0
  0
LINE
  5
3D0
330
1E
100
AcDbEntity
  8
0
  6
CONTINUOUS
 62
     7
100
AcDbLine
 10
-224.533
 20
-26.489
 30
0.0
 11
-223.333
 21
-26.81053
 31
0.0
  0
TEXT
  5
3D1
330
1E
100
AcDbEntity
  8
0
  6
CONTINUOUS
 62
     7
100
AcDbText
 10
-225.0571209645813
 20
-26.08973
 30
0.0
 40
3.2
  1
138
 41
0.8125
  7
BIGFONT
100
AcDbText
  0
LINE
  5
3D2
330
1E
100
AcDbEntity
  8
0
  6
CONTINUOUS
 62
     7
100
AcDbLine
 10
-219.9994299999999
 20
-26.48972999999999
 30
0.0
 11
-166.6649999999999
 21
-26.48972999999999
 31
0.0
  0
LINE
  5
3D3
330
1E
100
AcDbEntity
  8
0
  6
CONTINUOUS
 62
     7
100
AcDbLine
 10
-166.6649999999999
 20
-33.82305999999999
 30
0.0
 11
-166.6649999999999
 21
-25.68972999999999
 31
0.0
  0
LINE
  5
3D4
330
1E
100
AcDbEntity
  8
0
  6
CONTINUOUS
 62
     7
100
AcDbLine
 10
-167.865
 20
-26.81053
 30
0.0
 11
-166.6649999999999
 21
-26.489
 31
0.0
  0
LINE
  5
3D5
330
1E
100
AcDbEntity
  8
0
  6
CONTINUOUS
 62
     7
100
AcDbLine
 10
-166.6649999999999
 20
-26.489
 30
0.0
 11
-167.865
 21
-26.16746
 31
0.0
  0
LINE
  5
3D6
330
1E
100
AcDbEntity
  8
0
  6
CONTINUOUS
 62
     7
100
AcDbLine
 10
-218.799
 20
-26.16746
 30
0.0
 11
-219.999
 21
-26.489
 31
0.0
  0
LINE
  5
3D7
330
1E
100
AcDbEntity
  8
0
  6
CONTINUOUS
 62
     7
100
AcDbLine
 10
-219.999
 20
-26.489
 30
0.0
 11
-218.799
 21
-26.81053
 31
0.0
  0
LINE
  5
3D8
330
1E
100
AcDbEntity
  8
0
  6
CONTINUOUS
 62
     7
100
AcDbLine
 10
-166.6649999999999
 20
-26.48972999999999
 30
0.0
 11
-165.01076
 21
-26.48972999999999
 31
0.0
  0
LINE
  5
3D9
330
1E
100
AcDbEntity
  8
0
  6
CONTINUOUS
 62
     7
100
AcDbLine
 10
-165.01076
 20
-29.98663
 30
0.0
 11
-165.01076
 21
-25.68972999999999
 31
0.0
  0
LINE
  5
3DA
330
1E
100
AcDbEntity
  8
0
  6
CONTINUOUS
 62
     7
100
AcDbLine
 10
-162.61076
 20
-26.48972999999999
 30
0.0
 11
-165.01076
 21
-26.48972999999999
 31
0.0
  0
LINE
  5
3DB
330
1E
100
AcDbEntity
  8
0
  6
CONTINUOUS
 62
     7
100
AcDbLine
 10
-163.81
 20
-26.16746
 30
0.0
 11
-165.0099999999999
 21
-26.489
 31
0.0
  0
LINE
  5
3DC
330
1E
100
AcDbEntity
  8
0
  6
CONTINUOUS
 62
     7
100
AcDbLine
 10
-165.0099999999999
 20
-26.489
 30
0.0
 11
-163.81
 21
-26.81053
 31
0.0
  0
LINE
  5
3DD
330
1E
100
AcDbEntity
  8
0
  6
CONTINUOUS
 62
     7
100
AcDbLine
 10
-166.6649999999999
 20
-26.48972999999999
 30
0.0
 11
-169.0649999999999
 21
-26.48972999999999
 31
0.0
  0
LINE
  5
3DE
330
1E
100
AcDbEntity
  8
0
  6
CONTINUOUS
 62
     7
100
AcDbLine
 10
-167.865
 20
-26.81053
 30
0.0
 11
-166.6649999999999
 21
-26.489
 31
0.0
  0
LINE
  5
3DF
330
1E
100
AcDbEntity
  8
0
  6
CONTINUOUS
 62
     7
100
AcDbLine
 10
-166.6649999999999
 20
-26.489
 30
0.0
 11
-167.865
 21
-26.16746
 31
0.0
  0
LINE
  5
3E0
330
1E
100
AcDbEntity
  8
0
  6
CONTINUOUS
 62
     7
100
AcDbLine
 10
-162.61076
 20
-26.48972999999999
 30
0.0
 11
-157.21076
 21
-26.48972999999999
 31
0.0
  0
TEXT
  5
3E1
330
1E
100
AcDbEntity
  8
0
  6
CONTINUOUS
 62
     7
100
AcDbText
 10
-162.41076
 20
-26.08973
 30
0.0
 40
3.2
  1
50
 41
0.8125
  7
BIGFONT
100
AcDbText
  0
TEXT
  5
3E2
330
1E
100
AcDbEntity
  8
0
  6
CONTINUOUS
 62
     7
100
AcDbText
 10
-207.14103
 20
-26.09393
 30
0.0
 40
3.2
  1
8×200=1600
  7
BIGFONT
100
AcDbText
  0
LINE
  5
3E3
330
1E
100
AcDbEntity
  8
0
  6
CONTINUOUS
 62
     7
100
AcDbLine
 10
-174.0107599999999
 20
-45.53085999999999
 30
0.0
 11
-180.67743
 21
-45.53085999999999
 31
0.0
  0
LINE
  5
3E4
330
1E
100
AcDbEntity
  8
0
  6
CONTINUOUS
 62
     7
100
AcDbLine
 10
-179.4769999999999
 20
-45.20845999999997
 30
0.0
 11
-180.677
 21
-45.52999999999999
 31
0.0
  0
LINE
  5
3E5
330
1E
100
AcDbEntity
  8
0
  6
CONTINUOUS
 62
     7
100
AcDbLine
 10
-180.677
 20
-45.52999999999999
 30
0.0
 11
-179.4769999999999
 21
-45.85153
 31
0.0
  0
LINE
  5
3E6
330
1E
100
AcDbEntity
  8
0
  6
CONTINUOUS
 62
     7
100
AcDbLine
 10
-173.3441
 20
-60.2914
 30
0.0
 11
-180.01076
 21
-60.2914
 31
0.0
  0
LINE
  5
3E7
330
1E
100
AcDbEntity
  8
0
  6
CONTINUOUS
 62
     7
100
AcDbLine
 10
-178.81
 20
-59.96946
 30
0.0
 11
-180.01
 21
-60.29099999999999
 31
0.0
  0
LINE
  5
3E8
330
1E
100
AcDbEntity
  8
0
  6
CONTINUOUS
 62
     7
100
AcDbLine
 10
-180.01
 20
-60.29099999999999
 30
0.0
 11
-178.81
 21
-60.61253
 31
0.0
  0
LINE
  5
3E9
330
1E
100
AcDbEntity
  8
0
  6
CONTINUOUS
 62
     7
100
AcDbLine
 10
-193.3441
 20
-60.2914
 30
0.0
 11
-200.01076
 21
-60.2914
 31
0.0
  0
LINE
  5
3EA
330
1E
100
AcDbEntity
  8
0
  6
CONTINUOUS
 62
     7
100
AcDbLine
 10
-198.81
 20
-59.96946
 30
0.0
 11
-200.0099999999999
 21
-60.29099999999999
 31
0.0
  0
LINE
  5
3EB
330
1E
100
AcDbEntity
  8
0
  6
CONTINUOUS
 62
     7
100
AcDbLine
 10
-200.0099999999999
 20
-60.29099999999999
 30
0.0
 11
-198.81
 21
-60.61253
 31
0.0
  0
LINE
  5
3EC
330
1E
100
AcDbEntity
  8
0
  6
CONTINUOUS
 62
     7
100
AcDbLine
 10
-200.01076
 20
-60.2914
 30
0.0
 11
-206.67743
 21
-60.2914
 31
0.0
  0
LINE
  5
3ED
330
1E
100
AcDbEntity
  8
0
  6
CONTINUOUS
 62
     7
100
AcDbLine
 10
-205.4769999999999
 20
-59.96946
 30
0.0
 11
-206.6769999999999
 21
-60.29099999999999
 31
0.0
  0
LINE
  5
3EE
330
1E
100
AcDbEntity
  8
0
  6
CONTINUOUS
 62
     7
100
AcDbLine
 10
-206.6769999999999
 20
-60.29099999999999
 30
0.0
 11
-205.4769999999999
 21
-60.61253
 31
0.0
  0
LINE
  5
3EF
330
1E
100
AcDbEntity
  8
0
  6
CONTINUOUS
 62
     7
100
AcDbLine
 10
-206.67743
 20
-60.2914
 30
0.0
 11
-213.3440999999999
 21
-60.2914
 31
0.0
  0
LINE
  5
3F0
330
1E
100
AcDbEntity
  8
0
  6
CONTINUOUS
 62
     7
100
AcDbLine
 10
-212.144
 20
-59.96946
 30
0.0
 11
-213.3439999999999
 21
-60.29099999999999
 31
0.0
  0
LINE
  5
3F1
330
1E
100
AcDbEntity
  8
0
  6
CONTINUOUS
 62
     7
100
AcDbLine
 10
-213.3439999999999
 20
-60.29099999999999
 30
0.0
 11
-212.144
 21
-60.61253
 31
0.0
  0
LINE
  5
3F2
330
1E
100
AcDbEntity
  8
0
  6
CONTINUOUS
 62
     7
100
AcDbLine
 10
-213.3440999999999
 20
-60.2914
 30
0.0
 11
-220.0107599999999
 21
-60.2914
 31
0.0
  0
LINE
  5
3F3
330
1E
100
AcDbEntity
  8
0
  6
CONTINUOUS
 62
     7
100
AcDbLine
 10
-218.8099999999999
 20
-59.96946
 30
0.0
 11
-220.0099999999999
 21
-60.29099999999999
 31
0.0
  0
LINE
  5
3F4
330
1E
100
AcDbEntity
  8
0
  6
CONTINUOUS
 62
     7
100
AcDbLine
 10
-220.0099999999999
 20
-60.29099999999999
 30
0.0
 11
-218.8099999999999
 21
-60.61253
 31
0.0
  0
LINE
  5
3F5
330
1E
100
AcDbEntity
  8
0
  6
CONTINUOUS
 62
     7
100
AcDbLine
 10
-220.0107599999999
 20
-60.2914
 30
0.0
 11
-224.5441
 21
-60.2914
 31
0.0
  0
LINE
  5
3F6
330
1E
100
AcDbEntity
  8
0
  6
CONTINUOUS
 62
     7
100
AcDbLine
 10
-223.3439999999999
 20
-59.96946
 30
0.0
 11
-224.544
 21
-60.29099999999999
 31
0.0
  0
LINE
  5
3F7
330
1E
100
AcDbEntity
  8
0
  6
CONTINUOUS
 62
     7
100
AcDbLine
 10
-224.544
 20
-60.29099999999999
 30
0.0
 11
-223.3439999999999
 21
-60.61253
 31
0.0
  0
LINE
  5
3F8
330
1E
100
AcDbEntity
  8
0
  6
CONTINUOUS
 62
     1
100
AcDbLine
 10
-173.33903
 20
50.01063
 30
0.0
 11
-173.33903
 21
93.51063000000001
 31
0.0
  0
LINE
  5
3F9
330
1E
100
AcDbEntity
  8
0
  6
CONTINUOUS
 62
     1
100
AcDbLine
 10
-48.66375999999998
 20
50.01063
 30
0.0
 11
-48.66375999999998
 21
121.8412999999999
 31
0.0
  0
LINE
  5
3FA
330
1E
100
AcDbEntity
  8
0
  6
CONTINUOUS
 62
     1
100
AcDbLine
 10
-44.13043
 20
50.01063
 30
0.0
 11
-44.13043
 21
121.8412999999999
 31
0.0
  0
LINE
  5
3FB
330
1E
100
AcDbEntity
  8
0
  6
CONTINUOUS
 62
     1
100
AcDbLine
 10
-101.99856
 20
121.8412999999999
 30
0.0
 11
-44.13043
 21
121.8412999999999
 31
0.0
  0
LINE
  5
3FC
330
1E
100
AcDbEntity
  8
0
  6
CONTINUOUS
 62
     1
100
AcDbLine
 10
-101.99856
 20
50.3413
 30
0.0
 11
-44.13043
 21
50.3413
 31
0.0
  0
LINE
  5
3FD
330
1E
100
AcDbEntity
  8
0
  6
CONTINUOUS
 62
     7
100
AcDbLine
 10
-48.66375999999998
 20
89.40796
 30
0.0
 11
-55.33043000000001
 21
89.40796
 31
0.0
  0
LINE
  5
3FE
330
1E
100
AcDbEntity
  8
0
  6
CONTINUOUS
 62
     7
100
AcDbLine
 10
-54.13
 20
89.72853
 30
0.0
 11
-55.33
 21
89.40699999999997
 31
0.0
  0
LINE
  5
3FF
330
1E
100
AcDbEntity
  8
0
  6
CONTINUOUS
 62
     7
100
AcDbLine
 10
-55.33
 20
89.40699999999997
 30
0.0
 11
-54.13
 21
89.08545999999999
 31
0.0
  0
LINE
  5
400
330
1E
100
AcDbEntity
  8
0
  6
CONTINUOUS
 62
     7
100
AcDbLine
 10
-44.13043
 20
89.40796
 30
0.0
 11
-48.70525999999999
 21
89.40796
 31
0.0
  0
LINE
  5
401
330
1E
100
AcDbEntity
  8
0
  6
CONTINUOUS
 62
     7
100
AcDbLine
 10
-47.505
 20
89.72853
 30
0.0
 11
-48.70499999999999
 21
89.40699999999997
 31
0.0
  0
LINE
  5
402
330
1E
100
AcDbEntity
  8
0
  6
CONTINUOUS
 62
     7
100
AcDbLine
 10
-48.70499999999999
 20
89.40699999999997
 30
0.0
 11
-47.505
 21
89.08545999999999
 31
0.0
  0
LINE
  5
403
330
1E
100
AcDbEntity
  8
0
  6
CONTINUOUS
 62
     7
100
AcDbLine
 10
-103.6705999999999
 20
31.00795999999998
 30
0.0
 11
-102.0086
 21
31.00795999999998
 31
0.0
  0
LINE
  5
404
330
1E
100
AcDbEntity
  8
0
  6
CONTINUOUS
 62
     7
100
AcDbLine
 10
-102.0086
 20
47.50796
 30
0.0
 11
-102.0086
 21
30.20795999999998
 31
0.0
  0
LINE
  5
405
330
1E
100
AcDbEntity
  8
0
  6
CONTINUOUS
 62
     7
100
AcDbLine
 10
-103.6705999999999
 20
36.65245999999999
 30
0.0
 11
-103.6705999999999
 21
30.20795999999998
 31
0.0
  0
LINE
  5
406
330
1E
100
AcDbEntity
  8
0
  6
CONTINUOUS
 62
     7
100
AcDbLine
 10
-99.6086
 20
31.00795999999998
 30
0.0
 11
-102.0086
 21
31.00795999999998
 31
0.0
  0
LINE
  5
407
330
1E
100
AcDbEntity
  8
0
  6
CONTINUOUS
 62
     7
100
AcDbLine
 10
-100.8079999999999
 20
31.32852999999998
 30
0.0
 11
-102.0079999999999
 21
31.00699999999999
 31
0.0
  0
LINE
  5
408
330
1E
100
AcDbEntity
  8
0
  6
CONTINUOUS
 62
     7
100
AcDbLine
 10
-102.0079999999999
 20
31.00699999999999
 30
0.0
 11
-100.8079999999999
 21
30.68545999999999
 31
0.0
  0
LINE
  5
409
330
1E
100
AcDbEntity
  8
0
  6
CONTINUOUS
 62
     7
100
AcDbLine
 10
-103.6705999999999
 20
31.00795999999998
 30
0.0
 11
-106.0705999999999
 21
31.00795999999998
 31
0.0
  0
LINE
  5
40A
330
1E
100
AcDbEntity
  8
0
  6
CONTINUOUS
 62
     7
100
AcDbLine
 10
-104.8699999999999
 20
30.68545999999999
 30
0.0
 11
-103.6699999999999
 21
31.00699999999999
 31
0.0
  0
LINE
  5
40B
330
1E
100
AcDbEntity
  8
0
  6
CONTINUOUS
 62
     7
100
AcDbLine
 10
-103.6699999999999
 20
31.00699999999999
 30
0.0
 11
-104.8699999999999
 21
31.32852999999998
 31
0.0
  0
LINE
  5
40C
330
1E
100
AcDbEntity
  8
0
  6
CONTINUOUS
 62
     7
100
AcDbLine
 10
-106.0705999999999
 20
31.00795999999998
 30
0.0
 11
-110.1705999999999
 21
31.00795999999998
 31
0.0
  0
TEXT
  5
40D
330
1E
100
AcDbEntity
  8
0
  6
CONTINUOUS
 62
     7
100
AcDbText
 10
-110.1705999999999
 20
31.40795999999999
 30
0.0
 40
3.2
  1
50
 41
0.8125
  7
BIGFONT
100
AcDbText
  0
LINE
  5
40E
330
1E
100
AcDbEntity
  8
0
  6
CONTINUOUS
 62
     7
100
AcDbLine
 10
-102.0086
 20
31.00795999999998
 30
0.0
 11
-48.70525999999999
 21
31.00795999999998
 31
0.0
  0
LINE
  5
40F
330
1E
100
AcDbEntity
  8
0
  6
CONTINUOUS
 62
     7
100
AcDbLine
 10
-48.70525999999999
 20
47.50796
 30
0.0
 11
-48.70525999999999
 21
30.20795999999998
 31
0.0
  0
LINE
  5
410
330
1E
100
AcDbEntity
  8
0
  6
CONTINUOUS
 62
     7
100
AcDbLine
 10
-49.905
 20
30.68545999999999
 30
0.0
 11
-48.70499999999999
 21
31.00699999999999
 31
0.0
  0
LINE
  5
411
330
1E
100
AcDbEntity
  8
0
  6
CONTINUOUS
 62
     7
100
AcDbLine
 10
-48.70499999999999
 20
31.00699999999999
 30
0.0
 11
-49.905
 21
31.32852999999998
 31
0.0
  0
LINE
  5
412
330
1E
100
AcDbEntity
  8
0
  6
CONTINUOUS
 62
     7
100
AcDbLine
 10
-100.8079999999999
 20
31.32852999999998
 30
0.0
 11
-102.0079999999999
 21
31.00699999999999
 31
0.0
  0
LINE
  5
413
330
1E
100
AcDbEntity
  8
0
  6
CONTINUOUS
 62
     7
100
AcDbLine
 10
-102.0079999999999
 20
31.00699999999999
 30
0.0
 11
-100.8079999999999
 21
30.68545999999999
 31
0.0
  0
LINE
  5
414
330
1E
100
AcDbEntity
  8
0
  6
CONTINUOUS
 62
     7
100
AcDbLine
 10
-48.70525999999999
 20
31.00795999999998
 30
0.0
 11
-44.106
 21
31.00795999999998
 31
0.0
  0
LINE
  5
415
330
1E
100
AcDbEntity
  8
0
  6
CONTINUOUS
 62
     7
100
AcDbLine
 10
-44.106
 20
47.50796
 30
0.0
 11
-44.106
 21
30.20795999999998
 31
0.0
  0
LINE
  5
416
330
1E
100
AcDbEntity
  8
0
  6
CONTINUOUS
 62
     7
100
AcDbLine
 10
-45.30599999999998
 20
30.68545999999999
 30
0.0
 11
-44.106
 21
31.00699999999999
 31
0.0
  0
LINE
  5
417
330
1E
100
AcDbEntity
  8
0
  6
CONTINUOUS
 62
     7
100
AcDbLine
 10
-44.106
 20
31.00699999999999
 30
0.0
 11
-45.30599999999998
 21
31.32852999999998
 31
0.0
  0
LINE
  5
418
330
1E
100
AcDbEntity
  8
0
  6
CONTINUOUS
 62
     7
100
AcDbLine
 10
-47.505
 20
31.32852999999998
 30
0.0
 11
-48.70499999999999
 21
31.00699999999999
 31
0.0
  0
LINE
  5
419
330
1E
100
AcDbEntity
  8
0
  6
CONTINUOUS
 62
     7
100
AcDbLine
 10
-48.70499999999999
 20
31.00699999999999
 30
0.0
 11
-47.505
 21
30.68545999999999
 31
0.0
  0
TEXT
  5
41A
330
1E
100
AcDbEntity
  8
0
  6
CONTINUOUS
 62
     7
100
AcDbText
 10
-50.30563
 20
27.40796
 30
0.0
 40
3.2
  1
138
 41
0.8125
  7
BIGFONT
100
AcDbText
  0
TEXT
  5
41B
330
1E
100
AcDbEntity
  8
0
  6
CONTINUOUS
 62
     7
100
AcDbText
 10
-88.43656000000001
 20
31.39806
 30
0.0
 40
3.2
  1
8×200=1600
  7
BIGFONT
100
AcDbText
  0
LINE
  5
41C
330
1E
100
AcDbEntity
  8
0
  6
CONTINUOUS
 62
     7
100
AcDbLine
 10
-228.34586
 20
31.00795999999998
 30
0.0
 11
-226.68386
 21
31.00795999999998
 31
0.0
  0
LINE
  5
41D
330
1E
100
AcDbEntity
  8
0
  6
CONTINUOUS
 62
     7
100
AcDbLine
 10
-226.68386
 20
47.50796
 30
0.0
 11
-226.68386
 21
30.20795999999998
 31
0.0
  0
LINE
  5
41E
330
1E
100
AcDbEntity
  8
0
  6
CONTINUOUS
 62
     7
100
AcDbLine
 10
-228.34586
 20
36.65245999999999
 30
0.0
 11
-228.34586
 21
30.20795999999998
 31
0.0
  0
LINE
  5
41F
330
1E
100
AcDbEntity
  8
0
  6
CONTINUOUS
 62
     7
100
AcDbLine
 10
-224.28386
 20
31.00795999999998
 30
0.0
 11
-226.68386
 21
31.00795999999998
 31
0.0
  0
LINE
  5
420
330
1E
100
AcDbEntity
  8
0
  6
CONTINUOUS
 62
     7
100
AcDbLine
 10
-225.483
 20
31.32852999999998
 30
0.0
 11
-226.683
 21
31.00699999999999
 31
0.0
  0
LINE
  5
421
330
1E
100
AcDbEntity
  8
0
  6
CONTINUOUS
 62
     7
100
AcDbLine
 10
-226.683
 20
31.00699999999999
 30
0.0
 11
-225.483
 21
30.68545999999999
 31
0.0
  0
LINE
  5
422
330
1E
100
AcDbEntity
  8
0
  6
CONTINUOUS
 62
     7
100
AcDbLine
 10
-228.34586
 20
31.00795999999998
 30
0.0
 11
-230.74586
 21
31.00795999999998
 31
0.0
  0
LINE
  5
423
330
1E
100
AcDbEntity
  8
0
  6
CONTINUOUS
 62
     7
100
AcDbLine
 10
-229.5449999999999
 20
30.68545999999999
 30
0.0
 11
-228.345
 21
31.00699999999999
 31
0.0
  0
LINE
  5
424
330
1E
100
AcDbEntity
  8
0
  6
CONTINUOUS
 62
     7
100
AcDbLine
 10
-228.345
 20
31.00699999999999
 30
0.0
 11
-229.5449999999999
 21
31.32852999999998
 31
0.0
  0
LINE
  5
425
330
1E
100
AcDbEntity
  8
0
  6
CONTINUOUS
 62
     7
100
AcDbLine
 10
-230.74586
 20
31.00795999999998
 30
0.0
 11
-234.84586
 21
31.00795999999998
 31
0.0
  0
TEXT
  5
426
330
1E
100
AcDbEntity
  8
0
  6
CONTINUOUS
 62
     7
100
AcDbText
 10
-234.84586
 20
31.40795999999999
 30
0.0
 40
3.2
  1
50
 41
0.8125
  7
BIGFONT
100
AcDbText
  0
LINE
  5
427
330
1E
100
AcDbEntity
  8
0
  6
CONTINUOUS
 62
     7
100
AcDbLine
 10
-226.68386
 20
31.00795999999998
 30
0.0
 11
-173.38053
 21
31.00795999999998
 31
0.0
  0
LINE
  5
428
330
1E
100
AcDbEntity
  8
0
  6
CONTINUOUS
 62
     7
100
AcDbLine
 10
-173.38053
 20
47.50796
 30
0.0
 11
-173.38053
 21
30.20795999999998
 31
0.0
  0
LINE
  5
429
330
1E
100
AcDbEntity
  8
0
  6
CONTINUOUS
 62
     7
100
AcDbLine
 10
-174.58
 20
30.68545999999999
 30
0.0
 11
-173.38
 21
31.00699999999999
 31
0.0
  0
LINE
  5
42A
330
1E
100
AcDbEntity
  8
0
  6
CONTINUOUS
 62
     7
100
AcDbLine
 10
-173.38
 20
31.00699999999999
 30
0.0
 11
-174.58
 21
31.32852999999998
 31
0.0
  0
LINE
  5
42B
330
1E
100
AcDbEntity
  8
0
  6
CONTINUOUS
 62
     7
100
AcDbLine
 10
-225.483
 20
31.32852999999998
 30
0.0
 11
-226.683
 21
31.00699999999999
 31
0.0
  0
LINE
  5
42C
330
1E
100
AcDbEntity
  8
0
  6
CONTINUOUS
 62
     7
100
AcDbLine
 10
-226.683
 20
31.00699999999999
 30
0.0
 11
-225.483
 21
30.68545999999999
 31
0.0
  0
LINE
  5
42D
330
1E
100
AcDbEntity
  8
0
  6
CONTINUOUS
 62
     7
100
AcDbLine
 10
-173.38053
 20
31.00795999999998
 30
0.0
 11
-168.7812599999999
 21
31.00795999999998
 31
0.0
  0
LINE
  5
42E
330
1E
100
AcDbEntity
  8
0
  6
CONTINUOUS
 62
     7
100
AcDbLine
 10
-168.7812599999999
 20
47.50796
 30
0.0
 11
-168.7812599999999
 21
30.20795999999998
 31
0.0
  0
LINE
  5
42F
330
1E
100
AcDbEntity
  8
0
  6
CONTINUOUS
 62
     7
100
AcDbLine
 10
-169.981
 20
30.68545999999999
 30
0.0
 11
-168.7809999999998
 21
31.00699999999999
 31
0.0
  0
LINE
  5
430
330
1E
100
AcDbEntity
  8
0
  6
CONTINUOUS
 62
     7
100
AcDbLine
 10
-168.7809999999998
 20
31.00699999999999
 30
0.0
 11
-169.981
 21
31.32852999999998
 31
0.0
  0
LINE
  5
431
330
1E
100
AcDbEntity
  8
0
  6
CONTINUOUS
 62
     7
100
AcDbLine
 10
-172.1799999999999
 20
31.32852999999998
 30
0.0
 11
-173.38
 21
31.00699999999999
 31
0.0
  0
LINE
  5
432
330
1E
100
AcDbEntity
  8
0
  6
CONTINUOUS
 62
     7
100
AcDbLine
 10
-173.38
 20
31.00699999999999
 30
0.0
 11
-172.1799999999999
 21
30.68545999999999
 31
0.0
  0
TEXT
  5
433
330
1E
100
AcDbEntity
  8
0
  6
CONTINUOUS
 62
     7
100
AcDbText
 10
-174.9808999999999
 20
27.40796
 30
0.0
 40
3.2
  1
138
 41
0.8125
  7
BIGFONT
100
AcDbText
  0
TEXT
  5
434
330
1E
100
AcDbEntity
  8
0
  6
CONTINUOUS
 62
     7
100
AcDbText
 10
-212.94516
 20
31.39806
 30
0.0
 40
3.2
  1
8×200=1600
  7
BIGFONT
100
AcDbText
  0
LINE
  5
435
330
1E
100
AcDbEntity
  8
0
  6
CONTINUOUS
 62
     1
100
AcDbLine
 10
-168.77236
 20
50.01063
 30
0.0
 11
-168.77236
 21
93.51063000000001
 31
0.0
  0
LINE
  5
436
330
1E
100
AcDbEntity
  8
0
  6
CONTINUOUS
 62
     7
100
AcDbLine
 10
-173.33903
 20
77.67463000000002
 30
0.0
 11
-180.0056999999999
 21
77.67463000000002
 31
0.0
  0
LINE
  5
437
330
1E
100
AcDbEntity
  8
0
  6
CONTINUOUS
 62
     7
100
AcDbLine
 10
-178.805
 20
77.99553
 30
0.0
 11
-180.0049999999996
 21
77.67400000000002
 31
0.0
  0
LINE
  5
438
330
1E
100
AcDbEntity
  8
0
  6
CONTINUOUS
 62
     7
100
AcDbLine
 10
-180.0049999999996
 20
77.67400000000002
 30
0.0
 11
-178.805
 21
77.35246
 31
0.0
  0
LINE
  5
439
330
1E
100
AcDbEntity
  8
0
  6
CONTINUOUS
 62
     7
100
AcDbLine
 10
-168.77236
 20
77.67463000000002
 30
0.0
 11
-173.37523
 21
77.67463000000002
 31
0.0
  0
LINE
  5
43A
330
1E
100
AcDbEntity
  8
0
  6
CONTINUOUS
 62
     7
100
AcDbLine
 10
-172.175
 20
77.99553
 30
0.0
 11
-173.375
 21
77.67400000000002
 31
0.0
  0
LINE
  5
43B
330
1E
100
AcDbEntity
  8
0
  6
CONTINUOUS
 62
     7
100
AcDbLine
 10
-173.375
 20
77.67400000000002
 30
0.0
 11
-172.175
 21
77.35246
 31
0.0
  0
LINE
  5
43C
330
1E
100
AcDbEntity
  8
0
  6
CONTINUOUS
 62
     7
100
AcDbLine
 10
-155.0126999999999
 20
77.67463000000002
 30
0.0
 11
-168.77236
 21
77.67463000000002
 31
0.0
  0
LINE
  5
43D
330
1E
100
AcDbEntity
  8
0
  6
CONTINUOUS
 62
     7
100
AcDbLine
 10
-167.572
 20
77.99553
 30
0.0
 11
-168.7719999999998
 21
77.67400000000002
 31
0.0
  0
LINE
  5
43E
330
1E
100
AcDbEntity
  8
0
  6
CONTINUOUS
 62
     7
100
AcDbLine
 10
-168.7719999999998
 20
77.67400000000002
 30
0.0
 11
-167.572
 21
77.35246
 31
0.0
  0
LINE
  5
43F
330
1E
100
AcDbEntity
  8
0
  6
CONTINUOUS
 62
     1
100
AcDbLine
 10
-101.8440999999999
 20
-38.62305999999996
 30
0.0
 11
-42.01075999999999
 21
-38.62305999999996
 31
0.0
  0
LINE
  5
440
330
1E
100
AcDbEntity
  8
0
  6
CONTINUOUS
 62
     1
100
AcDbLine
 10
-99.87743000000001
 20
-96.48972999999999
 30
0.0
 11
-99.87743000000001
 21
-36.65639999999999
 31
0.0
  0
LINE
  5
441
330
1E
100
AcDbEntity
  8
0
  6
CONTINUOUS
 62
     7
100
AcDbLine
 10
-30.3441
 20
-59.8813
 30
0.0
 11
-42.01075999999999
 21
-59.8813
 31
0.0
  0
LINE
  5
442
330
1E
100
AcDbEntity
  8
0
  6
CONTINUOUS
 62
     7
100
AcDbLine
 10
-40.81
 20
-59.55945999999999
 30
0.0
 11
-42.00999999999999
 21
-59.881
 31
0.0
  0
LINE
  5
443
330
1E
100
AcDbEntity
  8
0
  6
CONTINUOUS
 62
     7
100
AcDbLine
 10
-42.00999999999999
 20
-59.881
 30
0.0
 11
-40.81
 21
-60.20253
 31
0.0
  0
TEXT
  5
444
330
1E
100
AcDbEntity
  8
0
  6
CONTINUOUS
 62
     7
100
AcDbText
 10
-82.12222999999999
 20
-26.09016
 30
0.0
 40
3.2
  1
8×200=1600
  7
BIGFONT
100
AcDbText
  0
LINE
  5
445
330
1E
100
AcDbEntity
  8
0
  6
CONTINUOUS
 62
     7
100
AcDbLine
 10
-101.8440999999999
 20
-33.94336
 30
0.0
 11
-101.8440999999999
 21
-25.6529
 31
0.0
  0
LINE
  5
446
330
1E
100
AcDbEntity
  8
0
  6
CONTINUOUS
 62
     7
100
AcDbLine
 10
-103.67743
 20
-33.94336
 30
0.0
 11
-103.67743
 21
-25.6529
 31
0.0
  0
LINE
  5
447
330
1E
100
AcDbEntity
  8
0
  6
CONTINUOUS
 62
     7
100
AcDbLine
 10
-111.5860599999999
 20
-26.48972999999999
 30
0.0
 11
-103.6707
 21
-26.48972999999999
 31
0.0
  0
LINE
  5
448
330
1E
100
AcDbEntity
  8
0
  6
CONTINUOUS
 62
     7
100
AcDbLine
 10
-104.8699999999999
 20
-26.81053
 30
0.0
 11
-103.6699999999999
 21
-26.489
 31
0.0
  0
LINE
  5
449
330
1E
100
AcDbEntity
  8
0
  6
CONTINUOUS
 62
     7
100
AcDbLine
 10
-103.6699999999999
 20
-26.489
 30
0.0
 11
-104.8699999999999
 21
-26.16746
 31
0.0
  0
LINE
  5
44A
330
1E
100
AcDbEntity
  8
0
  6
CONTINUOUS
 62
     7
100
AcDbLine
 10
-104.53713
 20
-26.48972999999999
 30
0.0
 11
-98.09483
 21
-26.48972999999999
 31
0.0
  0
POINT
  5
44B
330
1E
100
AcDbEntity
  8
0
  6
CONTINUOUS
 62
     7
100
AcDbPoint
 10
-101.8440999999999
 20
-26.48972999999999
 30
0.0
  0
TEXT
  5
44C
330
1E
100
AcDbEntity
  8
0
  6
CONTINUOUS
 62
     7
100
AcDbText
 10
-103.2092912743717
 20
-30.08592999999999
 30
0.0
 40
3.2
  1
59
  7
BIGFONT
100
AcDbText
  0
TEXT
  5
44D
330
1E
100
AcDbEntity
  8
0
  6
CONTINUOUS
 62
     7
100
AcDbText
 10
-111.2929999999999
 20
-25.95482999999999
 30
0.0
 40
3.2
  1
55
  7
BIGFONT
100
AcDbText
  0
LINE
  5
44E
330
1E
100
AcDbEntity
  8
0
  6
CONTINUOUS
 62
     7
100
AcDbLine
 10
-78.67743
 20
-108.1563999999999
 30
0.0
 11
-78.67743
 21
-96.46326
 31
0.0
  0
LINE
  5
44F
330
1E
100
AcDbEntity
  8
0
  6
CONTINUOUS
 62
     7
100
AcDbLine
 10
-78.67743
 20
-96.46326
 30
0.0
 11
-78.67743
 21
-94.06325999999999
 31
0.0
  0
LINE
  5
450
330
1E
100
AcDbEntity
  8
0
  6
CONTINUOUS
 62
     7
100
AcDbLine
 10
-78.35545999999998
 20
-97.66300000000001
 30
0.0
 11
-78.67700000000002
 21
-96.463
 31
0.0
  0
LINE
  5
451
330
1E
100
AcDbEntity
  8
0
  6
CONTINUOUS
 62
     7
100
AcDbLine
 10
-78.67700000000002
 20
-96.463
 30
0.0
 11
-78.99853
 21
-97.66300000000001
 31
0.0
  0
LINE
  5
452
330
1E
100
AcDbEntity
  8
0
  6
CONTINUOUS
 62
     1
100
AcDbLine
 10
-227.01076
 20
-76.48973000000002
 30
0.0
 11
-198.35193
 21
-76.48973000000002
 31
0.0
  0
LINE
  5
453
330
1E
100
AcDbEntity
  8
0
  6
CONTINUOUS
 62
     1
100
AcDbLine
 10
-227.01076
 20
-69.82306
 30
0.0
 11
-198.35193
 21
-69.82306
 31
0.0
  0
LINE
  5
454
330
1E
100
AcDbEntity
  8
0
  6
CONTINUOUS
 62
     7
100
AcDbLine
 10
-217.2050599999999
 20
-82.47946
 30
0.0
 11
-217.2050599999999
 21
-75.81279999999998
 31
0.0
  0
LINE
  5
455
330
1E
100
AcDbEntity
  8
0
  6
CONTINUOUS
 62
     7
100
AcDbLine
 10
-216.88346
 20
-77.012
 30
0.0
 11
-217.205
 21
-75.81199999999999
 31
0.0
  0
LINE
  5
456
330
1E
100
AcDbEntity
  8
0
  6
CONTINUOUS
 62
     7
100
AcDbLine
 10
-217.205
 20
-75.81199999999999
 30
0.0
 11
-217.5265299999999
 21
-77.012
 31
0.0
  0
LINE
  5
457
330
1E
100
AcDbEntity
  8
0
  6
CONTINUOUS
 62
     7
100
AcDbLine
 10
-217.2050599999999
 20
-75.81279999999998
 30
0.0
 11
-217.2050599999999
 21
-69.14613
 31
0.0
  0
LINE
  5
458
330
1E
100
AcDbEntity
  8
0
  6
CONTINUOUS
 62
     7
100
AcDbLine
 10
-216.88346
 20
-70.34600000000001
 30
0.0
 11
-217.205
 21
-69.146
 31
0.0
  0
LINE
  5
459
330
1E
100
AcDbEntity
  8
0
  6
CONTINUOUS
 62
     7
100
AcDbLine
 10
-217.205
 20
-69.146
 30
0.0
 11
-217.5265299999999
 21
-70.34600000000001
 31
0.0
  0
LINE
  5
45A
330
1E
100
AcDbEntity
  8
0
  6
CONTINUOUS
 62
     7
100
AcDbLine
 10
-217.2050599999999
 20
-69.14613
 30
0.0
 11
-217.2050599999999
 21
-62.47945999999998
 31
0.0
  0
LINE
  5
45B
330
1E
100
AcDbEntity
  8
0
  6
CONTINUOUS
 62
     7
100
AcDbLine
 10
-216.88346
 20
-63.67899999999998
 30
0.0
 11
-217.205
 21
-62.479
 31
0.0
  0
LINE
  5
45C
330
1E
100
AcDbEntity
  8
0
  6
CONTINUOUS
 62
     7
100
AcDbLine
 10
-217.205
 20
-62.479
 30
0.0
 11
-217.5265299999999
 21
-63.67899999999998
 31
0.0
  0
LINE
  5
45D
330
1E
100
AcDbEntity
  8
0
  6
CONTINUOUS
 62
     7
100
AcDbLine
 10
-217.2050599999999
 20
-62.47945999999998
 30
0.0
 11
-217.2050599999999
 21
-55.8128
 31
0.0
  0
LINE
  5
45E
330
1E
100
AcDbEntity
  8
0
  6
CONTINUOUS
 62
     7
100
AcDbLine
 10
-216.88346
 20
-57.012
 30
0.0
 11
-217.205
 21
-55.81199999999999
 31
0.0
  0
LINE
  5
45F
330
1E
100
AcDbEntity
  8
0
  6
CONTINUOUS
 62
     7
100
AcDbLine
 10
-217.205
 20
-55.81199999999999
 30
0.0
 11
-217.5265299999999
 21
-57.012
 31
0.0
  0
LINE
  5
460
330
1E
100
AcDbEntity
  8
0
  6
CONTINUOUS
 62
     7
100
AcDbLine
 10
-203.3440999999998
 20
-83.1564
 30
0.0
 11
-203.3440999999998
 21
-76.48973000000002
 31
0.0
  0
LINE
  5
461
330
1E
100
AcDbEntity
  8
0
  6
CONTINUOUS
 62
     7
100
AcDbLine
 10
-203.0224599999999
 20
-77.68899999999998
 30
0.0
 11
-203.344
 21
-76.48900000000002
 31
0.0
  0
LINE
  5
462
330
1E
100
AcDbEntity
  8
0
  6
CONTINUOUS
 62
     7
100
AcDbLine
 10
-203.344
 20
-76.48900000000002
 30
0.0
 11
-203.66553
 21
-77.68899999999998
 31
0.0
  0
LINE
  5
463
330
1E
100
AcDbEntity
  8
0
  6
CONTINUOUS
 62
     7
100
AcDbLine
 10
-203.3440999999998
 20
-76.48973000000002
 30
0.0
 11
-203.3440999999998
 21
-69.82306
 31
0.0
  0
LINE
  5
464
330
1E
100
AcDbEntity
  8
0
  6
CONTINUOUS
 62
     7
100
AcDbLine
 10
-203.0224599999999
 20
-71.02299999999998
 30
0.0
 11
-203.344
 21
-69.82299999999999
 31
0.0
  0
LINE
  5
465
330
1E
100
AcDbEntity
  8
0
  6
CONTINUOUS
 62
     7
100
AcDbLine
 10
-203.344
 20
-69.82299999999999
 30
0.0
 11
-203.66553
 21
-71.02299999999998
 31
0.0
  0
LINE
  5
466
330
1E
100
AcDbEntity
  8
0
  6
CONTINUOUS
 62
     7
100
AcDbLine
 10
-203.3440999999998
 20
-69.82306
 30
0.0
 11
-203.3440999999998
 21
-63.1564
 31
0.0
  0
LINE
  5
467
330
1E
100
AcDbEntity
  8
0
  6
CONTINUOUS
 62
     7
100
AcDbLine
 10
-203.0224599999999
 20
-64.35599999999999
 30
0.0
 11
-203.344
 21
-63.15599999999999
 31
0.0
  0
LINE
  5
468
330
1E
100
AcDbEntity
  8
0
  6
CONTINUOUS
 62
     7
100
AcDbLine
 10
-203.344
 20
-63.15599999999999
 30
0.0
 11
-203.66553
 21
-64.35599999999999
 31
0.0
  0
LINE
  5
469
330
1E
100
AcDbEntity
  8
0
  6
CONTINUOUS
 62
     7
100
AcDbLine
 10
-203.3440999999998
 20
-63.1564
 30
0.0
 11
-203.3440999999998
 21
-56.48973
 31
0.0
  0
LINE
  5
46A
330
1E
100
AcDbEntity
  8
0
  6
CONTINUOUS
 62
     7
100
AcDbLine
 10
-203.0224599999999
 20
-57.68899999999999
 30
0.0
 11
-203.344
 21
-56.489
 31
0.0
  0
LINE
  5
46B
330
1E
100
AcDbEntity
  8
0
  6
CONTINUOUS
 62
     7
100
AcDbLine
 10
-203.344
 20
-56.489
 30
0.0
 11
-203.66553
 21
-57.68899999999999
 31
0.0
  0
LINE
  5
46C
330
1E
100
AcDbEntity
  8
0
  6
CONTINUOUS
 62
     7
100
AcDbLine
 10
-203.3440999999998
 20
-56.48973
 30
0.0
 11
-203.3440999999998
 21
-49.82306
 31
0.0
  0
LINE
  5
46D
330
1E
100
AcDbEntity
  8
0
  6
CONTINUOUS
 62
     7
100
AcDbLine
 10
-203.0224599999999
 20
-51.023
 30
0.0
 11
-203.344
 21
-49.823
 31
0.0
  0
LINE
  5
46E
330
1E
100
AcDbEntity
  8
0
  6
CONTINUOUS
 62
     7
100
AcDbLine
 10
-203.344
 20
-49.823
 30
0.0
 11
-203.66553
 21
-51.023
 31
0.0
  0
LINE
  5
46F
330
1E
100
AcDbEntity
  8
0
  6
CONTINUOUS
 62
     7
100
AcDbLine
 10
-203.3440999999998
 20
-49.82306
 30
0.0
 11
-203.3440999999998
 21
-43.1564
 31
0.0
  0
LINE
  5
470
330
1E
100
AcDbEntity
  8
0
  6
CONTINUOUS
 62
     7
100
AcDbLine
 10
-203.0224599999999
 20
-44.35599999999999
 30
0.0
 11
-203.344
 21
-43.15599999999998
 31
0.0
  0
LINE
  5
471
330
1E
100
AcDbEntity
  8
0
  6
CONTINUOUS
 62
     7
100
AcDbLine
 10
-203.344
 20
-43.15599999999998
 30
0.0
 11
-203.66553
 21
-44.35599999999999
 31
0.0
  0
LINE
  5
472
330
1E
100
AcDbEntity
  8
0
  6
CONTINUOUS
 62
     7
100
AcDbLine
 10
-203.3440999999998
 20
-43.1564
 30
0.0
 11
-203.3440999999998
 21
-38.42306
 31
0.0
  0
LINE
  5
473
330
1E
100
AcDbEntity
  8
0
  6
CONTINUOUS
 62
     7
100
AcDbLine
 10
-203.0224599999999
 20
-39.62299999999999
 30
0.0
 11
-203.344
 21
-38.423
 31
0.0
  0
LINE
  5
474
330
1E
100
AcDbEntity
  8
0
  6
CONTINUOUS
 62
     7
100
AcDbLine
 10
-203.344
 20
-38.423
 30
0.0
 11
-203.66553
 21
-39.62299999999999
 31
0.0
  0
LINE
  5
475
330
1E
100
AcDbEntity
  8
0
  6
DASHED
 62
     1
100
AcDbLine
 10
-227.01076
 20
-62.4545
 30
0.0
 11
-214.85996
 21
-62.4545
 31
0.0
  0
LINE
  5
476
330
1E
100
AcDbEntity
  8
0
  6
DASHED
 62
     1
100
AcDbLine
 10
-227.01076
 20
-69.12116000000001
 30
0.0
 11
-214.85996
 21
-69.12116000000001
 31
0.0
  0
LINE
  5
477
330
1E
100
AcDbEntity
  8
0
  6
DASHED
 62
     1
100
AcDbLine
 10
-227.01076
 20
-75.78783
 30
0.0
 11
-214.85996
 21
-75.78783
 31
0.0
  0
LINE
  5
478
330
1E
100
AcDbEntity
  8
0
  6
DASHED
 62
     1
100
AcDbLine
 10
-227.01076
 20
-82.45449999999998
 30
0.0
 11
-214.85996
 21
-82.45449999999998
 31
0.0
  0
LINE
  5
479
330
1E
100
AcDbEntity
  8
0
  6
DASHED
 62
     1
100
AcDbLine
 10
-227.01076
 20
-89.12116000000002
 30
0.0
 11
-214.85996
 21
-89.12116000000002
 31
0.0
  0
LINE
  5
47A
330
1E
100
AcDbEntity
  8
0
  6
DASHED
 62
     1
100
AcDbLine
 10
-227.01076
 20
-95.78782999999999
 30
0.0
 11
-214.85996
 21
-95.78782999999999
 31
0.0
  0
LINE
  5
47B
330
1E
100
AcDbEntity
  8
0
  6
CONTINUOUS
 62
     1
100
AcDbLine
 10
-95.34409999999999
 20
-96.48972999999999
 30
0.0
 11
-95.34409999999999
 21
-36.65639999999999
 31
0.0
  0
LINE
  5
47C
330
1E
100
AcDbEntity
  8
0
  6
CONTINUOUS
 62
     1
100
AcDbLine
 10
-88.67743
 20
-96.48972999999999
 30
0.0
 11
-88.67743
 21
-36.65639999999999
 31
0.0
  0
LINE
  5
47D
330
1E
100
AcDbEntity
  8
0
  6
CONTINUOUS
 62
     1
100
AcDbLine
 10
-82.01076
 20
-96.48972999999999
 30
0.0
 11
-82.01076
 21
-36.65639999999999
 31
0.0
  0
LINE
  5
47E
330
1E
100
AcDbEntity
  8
0
  6
CONTINUOUS
 62
     1
100
AcDbLine
 10
-75.3441
 20
-96.48972999999999
 30
0.0
 11
-75.3441
 21
-36.65639999999999
 31
0.0
  0
LINE
  5
47F
330
1E
100
AcDbEntity
  8
0
  6
CONTINUOUS
 62
     1
100
AcDbLine
 10
-68.67743
 20
-96.48972999999999
 30
0.0
 11
-68.67743
 21
-36.65639999999999
 31
0.0
  0
LINE
  5
480
330
1E
100
AcDbEntity
  8
0
  6
CONTINUOUS
 62
     1
100
AcDbLine
 10
-62.01076
 20
-96.48972999999999
 30
0.0
 11
-62.01076
 21
-36.65639999999999
 31
0.0
  0
LINE
  5
481
330
1E
100
AcDbEntity
  8
0
  6
CONTINUOUS
 62
     1
100
AcDbLine
 10
-55.3441
 20
-96.48972999999999
 30
0.0
 11
-55.3441
 21
-36.65639999999999
 31
0.0
  0
LINE
  5
482
330
1E
100
AcDbEntity
  8
0
  6
CONTINUOUS
 62
     1
100
AcDbLine
 10
-101.8440999999999
 20
-43.1564
 30
0.0
 11
-42.01075999999999
 21
-43.1564
 31
0.0
  0
LINE
  5
483
330
1E
100
AcDbEntity
  8
0
  6
CONTINUOUS
 62
     1
100
AcDbLine
 10
-101.8440999999999
 20
-49.82306
 30
0.0
 11
-42.01075999999999
 21
-49.82306
 31
0.0
  0
LINE
  5
484
330
1E
100
AcDbEntity
  8
0
  6
CONTINUOUS
 62
     1
100
AcDbLine
 10
-101.8440999999999
 20
-56.48973
 30
0.0
 11
-42.01075999999999
 21
-56.48973
 31
0.0
  0
LINE
  5
485
330
1E
100
AcDbEntity
  8
0
  6
CONTINUOUS
 62
     1
100
AcDbLine
 10
-101.8440999999999
 20
-63.1564
 30
0.0
 11
-42.01075999999999
 21
-63.1564
 31
0.0
  0
LINE
  5
486
330
1E
100
AcDbEntity
  8
0
  6
CONTINUOUS
 62
     1
100
AcDbLine
 10
-101.8440999999999
 20
-69.82306
 30
0.0
 11
-42.01075999999999
 21
-69.82306
 31
0.0
  0
LINE
  5
487
330
1E
100
AcDbEntity
  8
0
  6
CONTINUOUS
 62
     1
100
AcDbLine
 10
-101.8440999999999
 20
-76.48973000000002
 30
0.0
 11
-42.01075999999999
 21
-76.48973000000002
 31
0.0
  0
LINE
  5
488
330
1E
100
AcDbEntity
  8
0
  6
CONTINUOUS
 62
     1
100
AcDbLine
 10
-101.8440999999999
 20
-83.1564
 30
0.0
 11
-42.01075999999999
 21
-83.1564
 31
0.0
  0
LINE
  5
489
330
1E
100
AcDbEntity
  8
0
  6
CONTINUOUS
 62
     1
100
AcDbLine
 10
-101.8440999999999
 20
-89.82305999999999
 30
0.0
 11
-47.70109999999998
 21
-89.82305999999999
 31
0.0
  0
LINE
  5
48A
330
1E
100
AcDbEntity
  8
0
  6
CONTINUOUS
 62
     1
100
AcDbLine
 10
-48.67743
 20
-90.7994
 30
0.0
 11
-48.67743
 21
-36.65639999999999
 31
0.0
  0
LINE
  5
48B
330
1E
100
AcDbEntity
  8
0
  6
CONTINUOUS
 62
     7
100
AcDbLine
 10
-78.67743
 20
-43.1564
 30
0.0
 11
-78.67743
 21
-38.62305999999996
 31
0.0
  0
LINE
  5
48C
330
1E
100
AcDbEntity
  8
0
  6
CONTINUOUS
 62
     7
100
AcDbLine
 10
-78.35545999999998
 20
-39.823
 30
0.0
 11
-78.67700000000002
 21
-38.62299999999999
 31
0.0
  0
LINE
  5
48D
330
1E
100
AcDbEntity
  8
0
  6
CONTINUOUS
 62
     7
100
AcDbLine
 10
-78.67700000000002
 20
-38.62299999999999
 30
0.0
 11
-78.99853
 21
-39.823
 31
0.0
  0
LINE
  5
48E
330
1E
100
AcDbEntity
  8
0
  6
CONTINUOUS
 62
     7
100
AcDbLine
 10
-78.67743
 20
-49.82306
 30
0.0
 11
-78.67743
 21
-43.1564
 31
0.0
  0
LINE
  5
48F
330
1E
100
AcDbEntity
  8
0
  6
CONTINUOUS
 62
     7
100
AcDbLine
 10
-78.35545999999998
 20
-44.35599999999999
 30
0.0
 11
-78.67700000000002
 21
-43.15599999999998
 31
0.0
  0
LINE
  5
490
330
1E
100
AcDbEntity
  8
0
  6
CONTINUOUS
 62
     7
100
AcDbLine
 10
-78.67700000000002
 20
-43.15599999999998
 30
0.0
 11
-78.99853
 21
-44.35599999999999
 31
0.0
  0
LINE
  5
491
330
1E
100
AcDbEntity
  8
0
  6
CONTINUOUS
 62
     7
100
AcDbLine
 10
-78.67743
 20
-56.48973
 30
0.0
 11
-78.67743
 21
-49.82306
 31
0.0
  0
LINE
  5
492
330
1E
100
AcDbEntity
  8
0
  6
CONTINUOUS
 62
     7
100
AcDbLine
 10
-78.35545999999998
 20
-51.023
 30
0.0
 11
-78.67700000000002
 21
-49.823
 31
0.0
  0
LINE
  5
493
330
1E
100
AcDbEntity
  8
0
  6
CONTINUOUS
 62
     7
100
AcDbLine
 10
-78.67700000000002
 20
-49.823
 30
0.0
 11
-78.99853
 21
-51.023
 31
0.0
  0
LINE
  5
494
330
1E
100
AcDbEntity
  8
0
  6
CONTINUOUS
 62
     7
100
AcDbLine
 10
-78.67743
 20
-63.1564
 30
0.0
 11
-78.67743
 21
-56.48973
 31
0.0
  0
LINE
  5
495
330
1E
100
AcDbEntity
  8
0
  6
CONTINUOUS
 62
     7
100
AcDbLine
 10
-78.35545999999998
 20
-57.68899999999999
 30
0.0
 11
-78.67700000000002
 21
-56.489
 31
0.0
  0
LINE
  5
496
330
1E
100
AcDbEntity
  8
0
  6
CONTINUOUS
 62
     7
100
AcDbLine
 10
-78.67700000000002
 20
-56.489
 30
0.0
 11
-78.99853
 21
-57.68899999999999
 31
0.0
  0
LINE
  5
497
330
1E
100
AcDbEntity
  8
0
  6
CONTINUOUS
 62
     7
100
AcDbLine
 10
-78.67743
 20
-69.82306
 30
0.0
 11
-78.67743
 21
-63.1564
 31
0.0
  0
LINE
  5
498
330
1E
100
AcDbEntity
  8
0
  6
CONTINUOUS
 62
     7
100
AcDbLine
 10
-78.35545999999998
 20
-64.35599999999999
 30
0.0
 11
-78.67700000000002
 21
-63.15599999999999
 31
0.0
  0
LINE
  5
499
330
1E
100
AcDbEntity
  8
0
  6
CONTINUOUS
 62
     7
100
AcDbLine
 10
-78.67700000000002
 20
-63.15599999999999
 30
0.0
 11
-78.99853
 21
-64.35599999999999
 31
0.0
  0
LINE
  5
49A
330
1E
100
AcDbEntity
  8
0
  6
CONTINUOUS
 62
     7
100
AcDbLine
 10
-78.67743
 20
-76.48973000000002
 30
0.0
 11
-78.67743
 21
-69.82306
 31
0.0
  0
LINE
  5
49B
330
1E
100
AcDbEntity
  8
0
  6
CONTINUOUS
 62
     7
100
AcDbLine
 10
-78.35545999999998
 20
-71.02299999999998
 30
0.0
 11
-78.67700000000002
 21
-69.82299999999999
 31
0.0
  0
LINE
  5
49C
330
1E
100
AcDbEntity
  8
0
  6
CONTINUOUS
 62
     7
100
AcDbLine
 10
-78.67700000000002
 20
-69.82299999999999
 30
0.0
 11
-78.99853
 21
-71.02299999999998
 31
0.0
  0
LINE
  5
49D
330
1E
100
AcDbEntity
  8
0
  6
CONTINUOUS
 62
     7
100
AcDbLine
 10
-78.67743
 20
-83.1564
 30
0.0
 11
-78.67743
 21
-76.48973000000002
 31
0.0
  0
LINE
  5
49E
330
1E
100
AcDbEntity
  8
0
  6
CONTINUOUS
 62
     7
100
AcDbLine
 10
-78.35545999999998
 20
-77.68899999999998
 30
0.0
 11
-78.67700000000002
 21
-76.48900000000002
 31
0.0
  0
LINE
  5
49F
330
1E
100
AcDbEntity
  8
0
  6
CONTINUOUS
 62
     7
100
AcDbLine
 10
-78.67700000000002
 20
-76.48900000000002
 30
0.0
 11
-78.99853
 21
-77.68899999999998
 31
0.0
  0
LINE
  5
4A0
330
1E
100
AcDbEntity
  8
0
  6
CONTINUOUS
 62
     7
100
AcDbLine
 10
-78.67743
 20
-89.82305999999999
 30
0.0
 11
-78.67743
 21
-83.1564
 31
0.0
  0
LINE
  5
4A1
330
1E
100
AcDbEntity
  8
0
  6
CONTINUOUS
 62
     7
100
AcDbLine
 10
-78.35545999999998
 20
-84.35599999999999
 30
0.0
 11
-78.67700000000002
 21
-83.15600000000001
 31
0.0
  0
LINE
  5
4A2
330
1E
100
AcDbEntity
  8
0
  6
CONTINUOUS
 62
     7
100
AcDbLine
 10
-78.67700000000002
 20
-83.15600000000001
 30
0.0
 11
-78.99853
 21
-84.35599999999999
 31
0.0
  0
LINE
  5
4A3
330
1E
100
AcDbEntity
  8
0
  6
CONTINUOUS
 62
     7
100
AcDbLine
 10
-78.67743
 20
-96.48972999999999
 30
0.0
 11
-78.67743
 21
-89.82305999999999
 31
0.0
  0
LINE
  5
4A4
330
1E
100
AcDbEntity
  8
0
  6
CONTINUOUS
 62
     7
100
AcDbLine
 10
-78.35545999999998
 20
-91.02299999999999
 30
0.0
 11
-78.67700000000002
 21
-89.823
 31
0.0
  0
LINE
  5
4A5
330
1E
100
AcDbEntity
  8
0
  6
CONTINUOUS
 62
     7
100
AcDbLine
 10
-78.67700000000002
 20
-89.823
 30
0.0
 11
-78.99853
 21
-91.02299999999999
 31
0.0
  0
LINE
  5
4A6
330
1E
100
AcDbEntity
  8
0
  6
CONTINUOUS
 62
     7
100
AcDbLine
 10
-95.34409999999999
 20
-59.8813
 30
0.0
 11
-99.87743000000001
 21
-59.8813
 31
0.0
  0
LINE
  5
4A7
330
1E
100
AcDbEntity
  8
0
  6
CONTINUOUS
 62
     7
100
AcDbLine
 10
-98.67700000000001
 20
-59.55945999999999
 30
0.0
 11
-99.87700000000003
 21
-59.881
 31
0.0
  0
LINE
  5
4A8
330
1E
100
AcDbEntity
  8
0
  6
CONTINUOUS
 62
     7
100
AcDbLine
 10
-99.87700000000003
 20
-59.881
 30
0.0
 11
-98.67700000000001
 21
-60.20253
 31
0.0
  0
LINE
  5
4A9
330
1E
100
AcDbEntity
  8
0
  6
CONTINUOUS
 62
     7
100
AcDbLine
 10
-88.67743
 20
-59.8813
 30
0.0
 11
-95.34409999999999
 21
-59.8813
 31
0.0
  0
LINE
  5
4AA
330
1E
100
AcDbEntity
  8
0
  6
CONTINUOUS
 62
     7
100
AcDbLine
 10
-94.14399999999998
 20
-59.55945999999999
 30
0.0
 11
-95.34399999999999
 21
-59.881
 31
0.0
  0
LINE
  5
4AB
330
1E
100
AcDbEntity
  8
0
  6
CONTINUOUS
 62
     7
100
AcDbLine
 10
-95.34399999999999
 20
-59.881
 30
0.0
 11
-94.14399999999998
 21
-60.20253
 31
0.0
  0
LINE
  5
4AC
330
1E
100
AcDbEntity
  8
0
  6
CONTINUOUS
 62
     7
100
AcDbLine
 10
-82.01076
 20
-59.8813
 30
0.0
 11
-88.67743
 21
-59.8813
 31
0.0
  0
LINE
  5
4AD
330
1E
100
AcDbEntity
  8
0
  6
CONTINUOUS
 62
     7
100
AcDbLine
 10
-87.477
 20
-59.55945999999999
 30
0.0
 11
-88.67700000000002
 21
-59.881
 31
0.0
  0
LINE
  5
4AE
330
1E
100
AcDbEntity
  8
0
  6
CONTINUOUS
 62
     7
100
AcDbLine
 10
-88.67700000000002
 20
-59.881
 30
0.0
 11
-87.477
 21
-60.20253
 31
0.0
  0
LINE
  5
4AF
330
1E
100
AcDbEntity
  8
0
  6
CONTINUOUS
 62
     7
100
AcDbLine
 10
-75.3441
 20
-59.8813
 30
0.0
 11
-82.01076
 21
-59.8813
 31
0.0
  0
LINE
  5
4B0
330
1E
100
AcDbEntity
  8
0
  6
CONTINUOUS
 62
     7
100
AcDbLine
 10
-80.81000000000001
 20
-59.55945999999999
 30
0.0
 11
-82.01
 21
-59.881
 31
0.0
  0
LINE
  5
4B1
330
1E
100
AcDbEntity
  8
0
  6
CONTINUOUS
 62
     7
100
AcDbLine
 10
-82.01
 20
-59.881
 30
0.0
 11
-80.81000000000001
 21
-60.20253
 31
0.0
  0
LINE
  5
4B2
330
1E
100
AcDbEntity
  8
0
  6
CONTINUOUS
 62
     7
100
AcDbLine
 10
-68.67743
 20
-59.8813
 30
0.0
 11
-75.3441
 21
-59.8813
 31
0.0
  0
LINE
  5
4B3
330
1E
100
AcDbEntity
  8
0
  6
CONTINUOUS
 62
     7
100
AcDbLine
 10
-74.14399999999997
 20
-59.55945999999999
 30
0.0
 11
-75.34399999999997
 21
-59.881
 31
0.0
  0
LINE
  5
4B4
330
1E
100
AcDbEntity
  8
0
  6
CONTINUOUS
 62
     7
100
AcDbLine
 10
-75.34399999999997
 20
-59.881
 30
0.0
 11
-74.14399999999997
 21
-60.20253
 31
0.0
  0
LINE
  5
4B5
330
1E
100
AcDbEntity
  8
0
  6
CONTINUOUS
 62
     7
100
AcDbLine
 10
-62.01076
 20
-59.8813
 30
0.0
 11
-68.67743
 21
-59.8813
 31
0.0
  0
LINE
  5
4B6
330
1E
100
AcDbEntity
  8
0
  6
CONTINUOUS
 62
     7
100
AcDbLine
 10
-68.67743
 20
-59.8813
 30
0.0
 11
-71.07743000000002
 21
-59.8813
 31
0.0
  0
LINE
  5
4B7
330
1E
100
AcDbEntity
  8
0
  6
CONTINUOUS
 62
     7
100
AcDbLine
 10
-67.477
 20
-59.55945999999999
 30
0.0
 11
-68.67700000000001
 21
-59.881
 31
0.0
  0
LINE
  5
4B8
330
1E
100
AcDbEntity
  8
0
  6
CONTINUOUS
 62
     7
100
AcDbLine
 10
-68.67700000000001
 20
-59.881
 30
0.0
 11
-67.477
 21
-60.20253
 31
0.0
  0
LINE
  5
4B9
330
1E
100
AcDbEntity
  8
0
  6
CONTINUOUS
 62
     7
100
AcDbLine
 10
-55.3441
 20
-59.8813
 30
0.0
 11
-62.01076
 21
-59.8813
 31
0.0
  0
LINE
  5
4BA
330
1E
100
AcDbEntity
  8
0
  6
CONTINUOUS
 62
     7
100
AcDbLine
 10
-60.81
 20
-59.55945999999999
 30
0.0
 11
-62.01
 21
-59.881
 31
0.0
  0
LINE
  5
4BB
330
1E
100
AcDbEntity
  8
0
  6
CONTINUOUS
 62
     7
100
AcDbLine
 10
-62.01
 20
-59.881
 30
0.0
 11
-60.81
 21
-60.20253
 31
0.0
  0
LINE
  5
4BC
330
1E
100
AcDbEntity
  8
0
  6
CONTINUOUS
 62
     7
100
AcDbLine
 10
-48.67743
 20
-59.8813
 30
0.0
 11
-55.3441
 21
-59.8813
 31
0.0
  0
LINE
  5
4BD
330
1E
100
AcDbEntity
  8
0
  6
CONTINUOUS
 62
     7
100
AcDbLine
 10
-54.144
 20
-59.55945999999999
 30
0.0
 11
-55.34399999999997
 21
-59.881
 31
0.0
  0
LINE
  5
4BE
330
1E
100
AcDbEntity
  8
0
  6
CONTINUOUS
 62
     7
100
AcDbLine
 10
-55.34399999999997
 20
-59.881
 30
0.0
 11
-54.144
 21
-60.20253
 31
0.0
  0
LINE
  5
4BF
330
1E
100
AcDbEntity
  8
0
  6
CONTINUOUS
 62
     7
100
AcDbLine
 10
-42.01075999999999
 20
-59.8813
 30
0.0
 11
-48.67743
 21
-59.8813
 31
0.0
  0
LINE
  5
4C0
330
1E
100
AcDbEntity
  8
0
  6
CONTINUOUS
 62
     7
100
AcDbLine
 10
-47.477
 20
-59.55945999999999
 30
0.0
 11
-48.677
 21
-59.881
 31
0.0
  0
LINE
  5
4C1
330
1E
100
AcDbEntity
  8
0
  6
CONTINUOUS
 62
     7
100
AcDbLine
 10
-48.677
 20
-59.881
 30
0.0
 11
-47.477
 21
-60.20253
 31
0.0
  0
LINE
  5
4C2
330
1E
100
AcDbEntity
  8
0
  6
CONTINUOUS
 62
     7
100
AcDbLine
 10
94.57219999999999
 20
110.17463
 30
0.0
 11
94.57219999999999
 21
123.50796
 31
0.0
  0
LINE
  5
4C3
330
1E
100
AcDbEntity
  8
0
  6
CONTINUOUS
 62
     7
100
AcDbLine
 10
94.47219999999999
 20
110.0746299999999
 30
0.0
 11
94.57219999999999
 21
110.17463
 31
0.0
  0
LINE
  5
4C4
330
1E
100
AcDbEntity
  8
0
  6
CONTINUOUS
 62
     7
100
AcDbLine
 10
94.47219999999999
 20
59.27463
 30
0.0
 11
94.57219999999999
 21
59.17463000000001
 31
0.0
  0
LINE
  5
4C5
330
1E
100
AcDbEntity
  8
0
  6
CONTINUOUS
 62
     7
100
AcDbLine
 10
94.47219999999999
 20
59.27463
 30
0.0
 11
94.47219999999999
 21
110.0746299999999
 31
0.0
  0
LINE
  5
4C6
330
1E
100
AcDbEntity
  8
0
  6
CONTINUOUS
 62
     7
100
AcDbLine
 10
94.57219999999999
 20
48.90795999999999
 30
0.0
 11
94.57219999999999
 21
59.17463000000001
 31
0.0
  0
LINE
  5
4C7
330
1E
100
AcDbEntity
  8
0
  6
CONTINUOUS
 62
     7
100
AcDbLine
 10
94.57210000000001
 20
48.50795999999998
 30
0.0
 11
94.57210000000001
 21
53.84129999999998
 31
0.0
  0
LINE
  5
4C8
330
1E
100
AcDbEntity
  8
0
  6
CONTINUOUS
 62
     7
100
AcDbLine
 10
94.57210000000001
 20
52.62955999999999
 30
0.0
 11
94.57210000000001
 21
57.17463000000001
 31
0.0
  0
LINE
  5
4C9
330
1E
100
AcDbEntity
  8
0
  6
CONTINUOUS
 62
     7
100
AcDbLine
 10
33.50965999999999
 20
123.50796
 30
0.0
 11
94.57219999999999
 21
123.50796
 31
0.0
  0
LINE
  5
4CA
330
1E
100
AcDbEntity
  8
0
  6
CONTINUOUS
 62
     7
100
AcDbLine
 10
80.80353
 20
48.50795999999998
 30
0.0
 11
94.57210000000001
 21
48.50795999999998
 31
0.0
  0
LINE
  5
4CB
330
1E
100
AcDbEntity
  8
0
  6
CONTINUOUS
 62
     7
100
AcDbLine
 10
80.80353
 20
53.84129999999998
 30
0.0
 11
94.57210000000001
 21
53.84129999999998
 31
0.0
  0
LINE
  5
4CC
330
1E
100
AcDbEntity
  8
0
  6
CONTINUOUS
 62
     1
100
AcDbLine
 10
41.58903
 20
50.17096
 30
0.0
 11
44.8907
 21
50.17096
 31
0.0
  0
LINE
  5
4CD
330
1E
100
AcDbEntity
  8
0
  6
CONTINUOUS
 62
     1
100
AcDbLine
 10
32.89835999999999
 20
58.59905999999998
 30
0.0
 11
32.89835999999999
 21
62.1824
 31
0.0
  0
LINE
  5
4CE
330
1E
100
AcDbEntity
  8
0
  6
CONTINUOUS
 62
     1
100
AcDbLine
 10
35.783
 20
50.17463
 30
0.0
 11
39.24965999999999
 21
50.17463
 31
0.0
  0
LINE
  5
4CF
330
1E
100
AcDbEntity
  8
0
  6
CONTINUOUS
 62
     1
100
AcDbLine
 10
32.90553
 20
53.43893000000001
 30
0.0
 11
32.90553
 21
56.9056
 31
0.0
  0
POINT
  5
4D0
330
1E
100
AcDbEntity
  8
0
  6
CONTINUOUS
 62
     1
100
AcDbPoint
 10
35.29233
 20
50.67463
 30
0.0
  0
ARC
  5
4D1
330
1E
100
AcDbEntity
  8
0
  6
CONTINUOUS
 62
     1
100
AcDbCircle
 10
33.73885999999998
 20
51.00795999999998
 30
0.0
 40
1.0
100
AcDbArc
 50
180.0
 51
270.0
  0
LINE
  5
4D2
330
1E
100
AcDbEntity
  8
0
  6
CONTINUOUS
 62
     1
100
AcDbLine
 10
32.73885999999999
 20
51.00795999999998
 30
0.0
 11
32.73885999999999
 21
93.50796
 31
0.0
  0
POINT
  5
4D3
330
1E
100
AcDbEntity
  8
0
  6
CONTINUOUS
 62
     7
100
AcDbPoint
 10
33.06566
 20
92.67462999999999
 30
0.0
  0
LINE
  5
4D4
330
1E
100
AcDbEntity
  8
0
  6
CONTINUOUS
 62
     1
100
AcDbLine
 10
33.73885999999998
 20
50.00796
 30
0.0
 11
61.18533000000001
 21
50.00796
 31
0.0
  0
LINE
  5
4D5
330
1E
100
AcDbEntity
  8
0
  6
CONTINUOUS
 62
     7
100
AcDbLine
 10
31.53885999999999
 20
123.50796
 30
0.0
 11
36.27219999999999
 21
123.50796
 31
0.0
  0
LINE
  5
4D6
330
1E
100
AcDbEntity
  8
0
  6
CONTINUOUS
 62
     7
100
AcDbLine
 10
31.23886
 20
123.20796
 30
0.0
 11
31.53885999999999
 21
123.50796
 31
0.0
  0
LINE
  5
4D7
330
1E
100
AcDbEntity
  8
0
  6
CONTINUOUS
 62
     7
100
AcDbLine
 10
36.27219999999999
 20
123.50796
 30
0.0
 11
36.5722
 21
123.20796
 31
0.0
  0
LINE
  5
4D8
330
1E
100
AcDbEntity
  8
0
  6
CONTINUOUS
 62
     7
100
AcDbLine
 10
36.5722
 20
57.17463000000001
 30
0.0
 11
39.90553
 21
53.84129999999998
 31
0.0
  0
LINE
  5
4D9
330
1E
100
AcDbEntity
  8
0
  6
CONTINUOUS
 62
     7
100
AcDbLine
 10
36.5722
 20
57.17463000000001
 30
0.0
 11
36.5722
 21
123.20796
 31
0.0
  0
LINE
  5
4DA
330
1E
100
AcDbEntity
  8
0
  6
CONTINUOUS
 62
     7
100
AcDbLine
 10
31.23886
 20
51.54593
 30
0.0
 11
31.23886
 21
52.73663
 31
0.0
  0
LINE
  5
4DB
330
1E
100
AcDbEntity
  8
0
  6
CONTINUOUS
 62
     7
100
AcDbLine
 10
31.23886
 20
48.50795999999998
 30
0.0
 11
31.23886
 21
48.80726
 31
0.0
  0
LINE
  5
4DC
330
1E
100
AcDbEntity
  8
0
  6
CONTINUOUS
 62
     7
100
AcDbLine
 10
39.90553
 20
53.84129999999998
 30
0.0
 11
40.48335999999999
 21
53.84129999999998
 31
0.0
  0
LINE
  5
4DD
330
1E
100
AcDbEntity
  8
0
  6
CONTINUOUS
 62
     7
100
AcDbLine
 10
40.48335999999999
 20
53.84129999999998
 30
0.0
 11
44.58689999999999
 21
53.84129999999998
 31
0.0
  0
LINE
  5
4DE
330
1E
100
AcDbEntity
  8
0
  6
CONTINUOUS
 62
     7
100
AcDbLine
 10
44.58689999999999
 20
53.84129999999998
 30
0.0
 11
69.91723
 21
53.84129999999998
 31
0.0
  0
LINE
  5
4DF
330
1E
100
AcDbEntity
  8
0
  6
CONTINUOUS
 62
     7
100
AcDbLine
 10
69.91723
 20
53.84129999999998
 30
0.0
 11
74.3458
 21
53.84129999999998
 31
0.0
  0
LINE
  5
4E0
330
1E
100
AcDbEntity
  8
0
  6
CONTINUOUS
 62
     7
100
AcDbLine
 10
33.50965999999999
 20
123.50796
 30
0.0
 11
62.1187
 21
123.50796
 31
0.0
  0
LINE
  5
4E1
330
1E
100
AcDbEntity
  8
0
  6
CONTINUOUS
 62
     7
100
AcDbLine
 10
31.23886
 20
23.50796
 30
0.0
 11
81.23876
 21
23.50796
 31
0.0
  0
LINE
  5
4E2
330
1E
100
AcDbEntity
  8
0
  6
CONTINUOUS
 62
     7
100
AcDbLine
 10
81.23876
 20
47.50796
 30
0.0
 11
81.23876
 21
22.70796
 31
0.0
  0
LINE
  5
4E3
330
1E
100
AcDbEntity
  8
0
  6
CONTINUOUS
 62
     7
100
AcDbLine
 10
31.23886
 20
47.50796
 30
0.0
 11
31.23886
 21
22.70796
 31
0.0
  0
LINE
  5
4E4
330
1E
100
AcDbEntity
  8
0
  6
CONTINUOUS
 62
     7
100
AcDbLine
 10
80.038
 20
23.18545999999999
 30
0.0
 11
81.23800000000001
 21
23.50699999999999
 31
0.0
  0
LINE
  5
4E5
330
1E
100
AcDbEntity
  8
0
  6
CONTINUOUS
 62
     7
100
AcDbLine
 10
81.23800000000001
 20
23.50699999999999
 30
0.0
 11
80.038
 21
23.82852999999998
 31
0.0
  0
LINE
  5
4E6
330
1E
100
AcDbEntity
  8
0
  6
CONTINUOUS
 62
     7
100
AcDbLine
 10
32.438
 20
23.82852999999998
 30
0.0
 11
31.238
 21
23.50699999999999
 31
0.0
  0
LINE
  5
4E7
330
1E
100
AcDbEntity
  8
0
  6
CONTINUOUS
 62
     7
100
AcDbLine
 10
31.238
 20
23.50699999999999
 30
0.0
 11
32.438
 21
23.18545999999999
 31
0.0
  0
TEXT
  5
4E8
330
1E
100
AcDbEntity
  8
0
  6
CONTINUOUS
 62
     7
100
AcDbText
 10
51.03881
 20
23.90795999999999
 30
0.0
 40
3.2
  1
1500
 41
0.8125
  7
BIGFONT
100
AcDbText
  0
LINE
  5
4E9
330
1E
100
AcDbEntity
  8
0
  6
CONTINUOUS
 62
     7
100
AcDbLine
 10
31.23886
 20
31.00795999999998
 30
0.0
 11
32.7434
 21
31.00795999999998
 31
0.0
  0
LINE
  5
4EA
330
1E
100
AcDbEntity
  8
0
  6
CONTINUOUS
 62
     7
100
AcDbLine
 10
32.7434
 20
47.50796
 30
0.0
 11
32.7434
 21
30.20795999999998
 31
0.0
  0
LINE
  5
4EB
330
1E
100
AcDbEntity
  8
0
  6
CONTINUOUS
 62
     7
100
AcDbLine
 10
31.23886
 20
33.74425999999999
 30
0.0
 11
31.23886
 21
30.20795999999998
 31
0.0
  0
LINE
  5
4EC
330
1E
100
AcDbEntity
  8
0
  6
CONTINUOUS
 62
     7
100
AcDbLine
 10
35.1434
 20
31.00795999999998
 30
0.0
 11
32.7434
 21
31.00795999999998
 31
0.0
  0
LINE
  5
4ED
330
1E
100
AcDbEntity
  8
0
  6
CONTINUOUS
 62
     7
100
AcDbLine
 10
33.94299999999999
 20
31.32852999999998
 30
0.0
 11
32.743
 21
31.00699999999999
 31
0.0
  0
LINE
  5
4EE
330
1E
100
AcDbEntity
  8
0
  6
CONTINUOUS
 62
     7
100
AcDbLine
 10
32.743
 20
31.00699999999999
 30
0.0
 11
33.94299999999999
 21
30.68545999999999
 31
0.0
  0
LINE
  5
4EF
330
1E
100
AcDbEntity
  8
0
  6
CONTINUOUS
 62
     7
100
AcDbLine
 10
31.23886
 20
31.00795999999998
 30
0.0
 11
28.83886
 21
31.00795999999998
 31
0.0
  0
LINE
  5
4F0
330
1E
100
AcDbEntity
  8
0
  6
CONTINUOUS
 62
     7
100
AcDbLine
 10
30.038
 20
30.68545999999999
 30
0.0
 11
31.238
 21
31.00699999999999
 31
0.0
  0
LINE
  5
4F1
330
1E
100
AcDbEntity
  8
0
  6
CONTINUOUS
 62
     7
100
AcDbLine
 10
31.238
 20
31.00699999999999
 30
0.0
 11
30.038
 21
31.32852999999998
 31
0.0
  0
LINE
  5
4F2
330
1E
100
AcDbEntity
  8
0
  6
CONTINUOUS
 62
     7
100
AcDbLine
 10
28.83886
 20
31.00795999999998
 30
0.0
 11
23.43886
 21
31.00795999999998
 31
0.0
  0
TEXT
  5
4F3
330
1E
100
AcDbEntity
  8
0
  6
CONTINUOUS
 62
     7
100
AcDbText
 10
23.43886
 20
31.40795999999999
 30
0.0
 40
3.2
  1
45
 41
0.8125
  7
BIGFONT
100
AcDbText
  0
LINE
  5
4F4
330
1E
100
AcDbEntity
  8
0
  6
CONTINUOUS
 62
     7
100
AcDbLine
 10
32.7434
 20
31.00795999999998
 30
0.0
 11
81.23876
 21
31.00795999999998
 31
0.0
  0
LINE
  5
4F5
330
1E
100
AcDbEntity
  8
0
  6
CONTINUOUS
 62
     7
100
AcDbLine
 10
81.23876
 20
32.1964
 30
0.0
 11
81.23876
 21
30.20795999999998
 31
0.0
  0
LINE
  5
4F6
330
1E
100
AcDbEntity
  8
0
  6
CONTINUOUS
 62
     7
100
AcDbLine
 10
80.038
 20
30.68545999999999
 30
0.0
 11
81.23800000000001
 21
31.00699999999999
 31
0.0
  0
LINE
  5
4F7
330
1E
100
AcDbEntity
  8
0
  6
CONTINUOUS
 62
     7
100
AcDbLine
 10
81.23800000000001
 20
31.00699999999999
 30
0.0
 11
80.038
 21
31.32852999999998
 31
0.0
  0
LINE
  5
4F8
330
1E
100
AcDbEntity
  8
0
  6
CONTINUOUS
 62
     7
100
AcDbLine
 10
33.94299999999999
 20
31.32852999999998
 30
0.0
 11
32.743
 21
31.00699999999999
 31
0.0
  0
LINE
  5
4F9
330
1E
100
AcDbEntity
  8
0
  6
CONTINUOUS
 62
     7
100
AcDbLine
 10
32.743
 20
31.00699999999999
 30
0.0
 11
33.94299999999999
 21
30.68545999999999
 31
0.0
  0
TEXT
  5
4FA
330
1E
100
AcDbEntity
  8
0
  6
CONTINUOUS
 62
     7
100
AcDbText
 10
51.79108
 20
31.40795999999999
 30
0.0
 40
3.2
  1
1455
 41
0.8125
  7
BIGFONT
100
AcDbText
  0
LINE
  5
4FB
330
1E
100
AcDbEntity
  8
0
  6
CONTINUOUS
 62
     7
100
AcDbLine
 10
13.73886
 20
48.50795999999998
 30
0.0
 11
13.73886
 21
50.0202
 31
0.0
  0
LINE
  5
4FC
330
1E
100
AcDbEntity
  8
0
  6
CONTINUOUS
 62
     7
100
AcDbLine
 10
30.23886
 20
50.0202
 30
0.0
 11
12.93886
 21
50.0202
 31
0.0
  0
LINE
  5
4FD
330
1E
100
AcDbEntity
  8
0
  6
CONTINUOUS
 62
     7
100
AcDbLine
 10
30.23886
 20
48.50795999999998
 30
0.0
 11
12.93886
 21
48.50795999999998
 31
0.0
  0
LINE
  5
4FE
330
1E
100
AcDbEntity
  8
0
  6
CONTINUOUS
 62
     7
100
AcDbLine
 10
13.73886
 20
52.4202
 30
0.0
 11
13.73886
 21
50.0202
 31
0.0
  0
LINE
  5
4FF
330
1E
100
AcDbEntity
  8
0
  6
CONTINUOUS
 62
     7
100
AcDbLine
 10
13.41646
 20
51.21999999999999
 30
0.0
 11
13.738
 21
50.02
 31
0.0
  0
LINE
  5
500
330
1E
100
AcDbEntity
  8
0
  6
CONTINUOUS
 62
     7
100
AcDbLine
 10
13.738
 20
50.02
 30
0.0
 11
14.05953
 21
51.21999999999999
 31
0.0
  0
LINE
  5
501
330
1E
100
AcDbEntity
  8
0
  6
CONTINUOUS
 62
     7
100
AcDbLine
 10
13.73886
 20
48.50795999999998
 30
0.0
 11
13.73886
 21
46.10795999999999
 31
0.0
  0
LINE
  5
502
330
1E
100
AcDbEntity
  8
0
  6
CONTINUOUS
 62
     7
100
AcDbLine
 10
14.05953
 20
47.30699999999997
 30
0.0
 11
13.738
 21
48.50699999999999
 31
0.0
  0
LINE
  5
503
330
1E
100
AcDbEntity
  8
0
  6
CONTINUOUS
 62
     7
100
AcDbLine
 10
13.738
 20
48.50699999999999
 30
0.0
 11
13.41646
 21
47.30699999999997
 31
0.0
  0
LINE
  5
504
330
1E
100
AcDbEntity
  8
0
  6
CONTINUOUS
 62
     7
100
AcDbLine
 10
13.73886
 20
46.10795999999999
 30
0.0
 11
13.73886
 21
40.70796
 31
0.0
  0
TEXT
  5
505
330
1E
100
AcDbEntity
  8
0
  6
CONTINUOUS
 62
     7
100
AcDbText
 10
13.33886
 20
40.70796
 30
0.0
 40
3.2
  1
45
 50
90.0
 41
0.8125
  7
BIGFONT
100
AcDbText
  0
LINE
  5
506
330
1E
100
AcDbEntity
  8
0
  6
CONTINUOUS
 62
     7
100
AcDbLine
 10
13.73886
 20
50.0202
 30
0.0
 11
13.73886
 21
121.84543
 31
0.0
  0
LINE
  5
507
330
1E
100
AcDbEntity
  8
0
  6
CONTINUOUS
 62
     7
100
AcDbLine
 10
30.23886
 20
121.84543
 30
0.0
 11
12.93886
 21
121.84543
 31
0.0
  0
LINE
  5
508
330
1E
100
AcDbEntity
  8
0
  6
CONTINUOUS
 62
     7
100
AcDbLine
 10
14.05953
 20
120.645
 30
0.0
 11
13.738
 21
121.845
 31
0.0
  0
LINE
  5
509
330
1E
100
AcDbEntity
  8
0
  6
CONTINUOUS
 62
     7
100
AcDbLine
 10
13.738
 20
121.845
 30
0.0
 11
13.41646
 21
120.645
 31
0.0
  0
LINE
  5
50A
330
1E
100
AcDbEntity
  8
0
  6
CONTINUOUS
 62
     7
100
AcDbLine
 10
13.41646
 20
51.21999999999999
 30
0.0
 11
13.738
 21
50.02
 31
0.0
  0
LINE
  5
50B
330
1E
100
AcDbEntity
  8
0
  6
CONTINUOUS
 62
     7
100
AcDbLine
 10
13.738
 20
50.02
 30
0.0
 11
14.05953
 21
51.21999999999999
 31
0.0
  0
TEXT
  5
50C
330
1E
100
AcDbEntity
  8
0
  6
CONTINUOUS
 62
     7
100
AcDbText
 10
13.33886
 20
80.73280999999999
 30
0.0
 40
3.2
  1
2155
 50
90.0
 41
0.8125
  7
BIGFONT
100
AcDbText
  0
LINE
  5
50D
330
1E
100
AcDbEntity
  8
0
  6
CONTINUOUS
 62
     7
100
AcDbLine
 10
13.73886
 20
121.84543
 30
0.0
 11
13.73886
 21
123.5022
 31
0.0
  0
LINE
  5
50E
330
1E
100
AcDbEntity
  8
0
  6
CONTINUOUS
 62
     7
100
AcDbLine
 10
30.23886
 20
123.5022
 30
0.0
 11
12.93886
 21
123.5022
 31
0.0
  0
LINE
  5
50F
330
1E
100
AcDbEntity
  8
0
  6
CONTINUOUS
 62
     7
100
AcDbLine
 10
13.73886
 20
125.9021999999999
 30
0.0
 11
13.73886
 21
123.5022
 31
0.0
  0
LINE
  5
510
330
1E
100
AcDbEntity
  8
0
  6
CONTINUOUS
 62
     7
100
AcDbLine
 10
13.41646
 20
124.702
 30
0.0
 11
13.738
 21
123.502
 31
0.0
  0
LINE
  5
511
330
1E
100
AcDbEntity
  8
0
  6
CONTINUOUS
 62
     7
100
AcDbLine
 10
13.738
 20
123.502
 30
0.0
 11
14.05953
 21
124.702
 31
0.0
  0
LINE
  5
512
330
1E
100
AcDbEntity
  8
0
  6
CONTINUOUS
 62
     7
100
AcDbLine
 10
13.73886
 20
121.84543
 30
0.0
 11
13.73886
 21
119.44543
 31
0.0
  0
LINE
  5
513
330
1E
100
AcDbEntity
  8
0
  6
CONTINUOUS
 62
     7
100
AcDbLine
 10
14.05953
 20
120.645
 30
0.0
 11
13.738
 21
121.845
 31
0.0
  0
LINE
  5
514
330
1E
100
AcDbEntity
  8
0
  6
CONTINUOUS
 62
     7
100
AcDbLine
 10
13.738
 20
121.845
 30
0.0
 11
13.41646
 21
120.645
 31
0.0
  0
LINE
  5
515
330
1E
100
AcDbEntity
  8
0
  6
CONTINUOUS
 62
     7
100
AcDbLine
 10
13.73886
 20
125.9021999999999
 30
0.0
 11
13.73886
 21
131.3021999999999
 31
0.0
  0
TEXT
  5
516
330
1E
100
AcDbEntity
  8
0
  6
CONTINUOUS
 62
     7
100
AcDbText
 10
13.33886
 20
126.1022
 30
0.0
 40
3.2
  1
50
 50
90.0
 41
0.8125
  7
BIGFONT
100
AcDbText
  0
LINE
  5
517
330
1E
100
AcDbEntity
  8
0
  6
CONTINUOUS
 62
     1
100
AcDbLine
 10
34.73885999999998
 20
52.73663
 30
0.0
 11
34.73885999999998
 21
122.27463
 31
0.0
  0
LINE
  5
518
330
1E
100
AcDbEntity
  8
0
  6
CONTINUOUS
 62
     1
100
AcDbLine
 10
34.73885999999998
 20
52.2252
 30
0.0
 11
34.73885999999998
 21
53.15643000000001
 31
0.0
  0
LINE
  5
519
330
1E
100
AcDbEntity
  8
0
  6
CONTINUOUS
 62
     1
100
AcDbLine
 10
34.73885999999998
 20
51.17463
 30
0.0
 11
34.73885999999998
 21
53.3088
 31
0.0
  0
LINE
  5
51A
330
1E
100
AcDbEntity
  8
0
  6
CONTINUOUS
 62
     1
100
AcDbLine
 10
35.73885999999999
 20
50.17463
 30
0.0
 11
36.85052999999999
 21
50.17463
 31
0.0
  0
ARC
  5
51B
330
1E
100
AcDbEntity
  8
0
  6
CONTINUOUS
 62
     1
100
AcDbCircle
 10
35.73885999999999
 20
51.17463
 30
0.0
 40
1.0
100
AcDbArc
 50
180.0
 51
270.0
  0
LINE
  5
51C
330
1E
100
AcDbEntity
  8
0
  6
CONTINUOUS
 62
     1
100
AcDbLine
 10
32.90553
 20
53.45795999999999
 30
0.0
 11
32.90553
 21
53.7109
 31
0.0
  0
LINE
  5
51D
330
1E
100
AcDbEntity
  8
0
  6
CONTINUOUS
 62
     1
100
AcDbLine
 10
33.90553
 20
52.45796
 30
0.0
 11
36.07242999999999
 21
52.45796
 31
0.0
  0
ARC
  5
51E
330
1E
100
AcDbEntity
  8
0
  6
CONTINUOUS
 62
     1
100
AcDbCircle
 10
33.90553
 20
53.45795999999999
 30
0.0
 40
1.0
100
AcDbArc
 50
180.0
 51
270.0
  0
LINE
  5
51F
330
1E
100
AcDbEntity
  8
0
  6
CONTINUOUS
 62
     1
100
AcDbLine
 10
32.89835999999999
 20
58.59905999999998
 30
0.0
 11
41.58905999999999
 21
50.17096
 31
0.0
  0
LINE
  5
520
330
1E
100
AcDbEntity
  8
0
  6
CONTINUOUS
 62
     7
100
AcDbLine
 10
34.68072999999999
 20
138.9832299999999
 30
0.0
 11
27.57433
 21
138.9832299999999
 31
0.0
  0
LINE
  5
521
330
1E
100
AcDbEntity
  8
0
  6
CONTINUOUS
 62
     7
100
AcDbLine
 10
27.57433
 20
138.9832299999999
 30
0.0
 11
25.17433
 21
138.9832299999999
 31
0.0
  0
LINE
  5
522
330
1E
100
AcDbEntity
  8
0
  6
CONTINUOUS
 62
     7
100
AcDbLine
 10
28.774
 20
139.30453
 30
0.0
 11
27.574
 21
138.983
 31
0.0
  0
LINE
  5
523
330
1E
100
AcDbEntity
  8
0
  6
CONTINUOUS
 62
     7
100
AcDbLine
 10
27.574
 20
138.983
 30
0.0
 11
28.774
 21
138.66146
 31
0.0
  0
TEXT
  5
524
330
1E
100
AcDbEntity
  8
0
  6
CONTINUOUS
 62
     7
100
AcDbText
 10
23.03895999999999
 20
131.30413
 30
0.0
 40
4.2
  1
Ａ
 41
0.8333332999999999
  7
BIGFONT
100
AcDbText
  0
TEXT
  5
525
330
1E
100
AcDbEntity
  8
0
  6
CONTINUOUS
 62
     7
100
AcDbText
 10
23.23812999999999
 20
136.5988
 30
0.0
 40
4.2
  1
Ｂ
 41
0.8333332999999999
  7
BIGFONT
100
AcDbText
  0
LINE
  5
526
330
1E
100
AcDbEntity
  8
0
  6
CONTINUOUS
 62
     7
100
AcDbLine
 10
33.16563
 20
124.70936
 30
0.0
 11
33.16563
 21
133.4892299999999
 31
0.0
  0
LINE
  5
527
330
1E
100
AcDbEntity
  8
0
  6
CONTINUOUS
 62
     7
100
AcDbLine
 10
34.68072999999999
 20
6.91316
 30
0.0
 11
27.57433
 21
6.91316
 31
0.0
  0
LINE
  5
528
330
1E
100
AcDbEntity
  8
0
  6
CONTINUOUS
 62
     7
100
AcDbLine
 10
28.774
 20
7.23453
 30
0.0
 11
27.574
 21
6.912999999999997
 31
0.0
  0
LINE
  5
529
330
1E
100
AcDbEntity
  8
0
  6
CONTINUOUS
 62
     7
100
AcDbLine
 10
27.574
 20
6.912999999999997
 30
0.0
 11
28.774
 21
6.59146
 31
0.0
  0
LINE
  5
52A
330
1E
100
AcDbEntity
  8
0
  6
CONTINUOUS
 62
     7
100
AcDbLine
 10
33.16563
 20
12.40716
 30
0.0
 11
33.16563
 21
21.18703
 31
0.0
  0
TEXT
  5
52B
330
1E
100
AcDbEntity
  8
0
  6
CONTINUOUS
 62
     7
100
AcDbText
 10
23.02492999999999
 20
10.36923
 30
0.0
 40
4.2
  1
Ａ
 41
0.8333332999999999
  7
BIGFONT
100
AcDbText
  0
TEXT
  5
52C
330
1E
100
AcDbEntity
  8
0
  6
CONTINUOUS
 62
     7
100
AcDbText
 10
23.2241
 20
4.635629999999999
 30
0.0
 40
4.2
  1
Ｂ
 41
0.8333332999999999
  7
BIGFONT
100
AcDbText
  0
LINE
  5
52D
330
1E
100
AcDbEntity
  8
0
  6
CONTINUOUS
 62
     7
100
AcDbLine
 10
109.85986
 20
51.8468
 30
0.0
 11
109.85986
 21
44.7404
 31
0.0
  0
LINE
  5
52E
330
1E
100
AcDbEntity
  8
0
  6
CONTINUOUS
 62
     7
100
AcDbLine
 10
109.53746
 20
45.94
 30
0.0
 11
109.8589999999999
 21
44.74
 31
0.0
  0
LINE
  5
52F
330
1E
100
AcDbEntity
  8
0
  6
CONTINUOUS
 62
     7
100
AcDbLine
 10
109.8589999999999
 20
44.74
 30
0.0
 11
110.18053
 21
45.94
 31
0.0
  0
LINE
  5
530
330
1E
100
AcDbEntity
  8
0
  6
CONTINUOUS
 62
     7
100
AcDbLine
 10
96.086
 20
50.42355999999998
 30
0.0
 11
104.86586
 21
50.42355999999998
 31
0.0
  0
LINE
  5
531
330
1E
100
AcDbEntity
  8
0
  6
CONTINUOUS
 62
     7
100
AcDbLine
 10
-3.056229999999998
 20
51.8468
 30
0.0
 11
-3.056229999999998
 21
44.7404
 31
0.0
  0
LINE
  5
532
330
1E
100
AcDbEntity
  8
0
  6
CONTINUOUS
 62
     7
100
AcDbLine
 10
-3.37753
 20
45.94
 30
0.0
 11
-3.056
 21
44.74
 31
0.0
  0
LINE
  5
533
330
1E
100
AcDbEntity
  8
0
  6
CONTINUOUS
 62
     7
100
AcDbLine
 10
-3.056
 20
44.74
 30
0.0
 11
-2.734459999999999
 21
45.94
 31
0.0
  0
LINE
  5
534
330
1E
100
AcDbEntity
  8
0
  6
CONTINUOUS
 62
     7
100
AcDbLine
 10
1.937759999999999
 20
50.42355999999998
 30
0.0
 11
10.71763
 21
50.42355999999998
 31
0.0
  0
TEXT
  5
535
330
1E
100
AcDbEntity
  8
0
  6
CONTINUOUS
 62
     7
100
AcDbText
 10
0.26486
 20
39.3828
 30
0.0
 40
4.2
  1
Ｃ
 41
0.8333332999999999
  7
BIGFONT
100
AcDbText
  0
TEXT
  5
536
330
1E
100
AcDbEntity
  8
0
  6
CONTINUOUS
 62
     7
100
AcDbText
 10
-4.778959999999996
 20
39.3645
 30
0.0
 40
4.2
  1
Ｄ
 41
0.8333332999999999
  7
BIGFONT
100
AcDbText
  0
TEXT
  5
537
330
1E
100
AcDbEntity
  8
0
  6
CONTINUOUS
 62
     7
100
AcDbText
 10
103.32173
 20
39.3828
 30
0.0
 40
4.2
  1
Ｃ
 41
0.8333332999999999
  7
BIGFONT
100
AcDbText
  0
TEXT
  5
538
330
1E
100
AcDbEntity
  8
0
  6
CONTINUOUS
 62
     7
100
AcDbText
 10
108.45873
 20
39.3645
 30
0.0
 40
4.2
  1
Ｄ
 41
0.8333332999999999
  7
BIGFONT
100
AcDbText
  0
LINE
  5
539
330
1E
100
AcDbEntity
  8
0
  6
CONTINUOUS
 62
     7
100
AcDbLine
 10
-3.056229999999998
 20
51.8468
 30
0.0
 11
10.7552
 21
51.8468
 31
0.0
  0
LINE
  5
53A
330
1E
100
AcDbEntity
  8
0
  6
CONTINUOUS
 62
     7
100
AcDbLine
 10
95.96720000000001
 20
51.8468
 30
0.0
 11
109.85986
 21
51.8468
 31
0.0
  0
LINE
  5
53B
330
1E
100
AcDbEntity
  8
0
  6
CONTINUOUS
 62
     7
100
AcDbLine
 10
34.68072999999999
 20
124.70936
 30
0.0
 11
34.68072999999999
 21
138.9832299999999
 31
0.0
  0
LINE
  5
53C
330
1E
100
AcDbEntity
  8
0
  6
CONTINUOUS
 62
     7
100
AcDbLine
 10
34.68072999999999
 20
6.91316
 30
0.0
 11
34.68072999999999
 21
21.18376
 31
0.0
  0
LINE
  5
53D
330
1E
100
AcDbEntity
  8
0
  6
CONTINUOUS
 62
     7
100
AcDbLine
 10
33.16563
 20
133.4892299999999
 30
0.0
 11
27.56512999999999
 21
133.4892299999999
 31
0.0
  0
LINE
  5
53E
330
1E
100
AcDbEntity
  8
0
  6
CONTINUOUS
 62
     7
100
AcDbLine
 10
28.765
 20
133.81053
 30
0.0
 11
27.565
 21
133.489
 31
0.0
  0
LINE
  5
53F
330
1E
100
AcDbEntity
  8
0
  6
CONTINUOUS
 62
     7
100
AcDbLine
 10
27.565
 20
133.489
 30
0.0
 11
28.765
 21
133.16746
 31
0.0
  0
LINE
  5
540
330
1E
100
AcDbEntity
  8
0
  6
CONTINUOUS
 62
     7
100
AcDbLine
 10
33.16563
 20
12.40716
 30
0.0
 11
27.56512999999999
 21
12.40716
 31
0.0
  0
LINE
  5
541
330
1E
100
AcDbEntity
  8
0
  6
CONTINUOUS
 62
     7
100
AcDbLine
 10
28.765
 20
12.72853
 30
0.0
 11
27.565
 21
12.407
 31
0.0
  0
LINE
  5
542
330
1E
100
AcDbEntity
  8
0
  6
CONTINUOUS
 62
     7
100
AcDbLine
 10
27.565
 20
12.407
 30
0.0
 11
28.765
 21
12.08546
 31
0.0
  0
LINE
  5
543
330
1E
100
AcDbEntity
  8
0
  6
CONTINUOUS
 62
     7
100
AcDbLine
 10
104.86586
 20
50.42355999999998
 30
0.0
 11
104.86586
 21
44.7404
 31
0.0
  0
LINE
  5
544
330
1E
100
AcDbEntity
  8
0
  6
CONTINUOUS
 62
     7
100
AcDbLine
 10
104.5434599999999
 20
45.94
 30
0.0
 11
104.8649999999999
 21
44.74
 31
0.0
  0
LINE
  5
545
330
1E
100
AcDbEntity
  8
0
  6
CONTINUOUS
 62
     7
100
AcDbLine
 10
104.8649999999999
 20
44.74
 30
0.0
 11
105.18653
 21
45.94
 31
0.0
  0
LINE
  5
546
330
1E
100
AcDbEntity
  8
0
  6
CONTINUOUS
 62
     7
100
AcDbLine
 10
1.937759999999999
 20
50.42355999999998
 30
0.0
 11
1.937759999999999
 21
44.7404
 31
0.0
  0
LINE
  5
547
330
1E
100
AcDbEntity
  8
0
  6
CONTINUOUS
 62
     7
100
AcDbLine
 10
1.61546
 20
45.94
 30
0.0
 11
1.936999999999999
 21
44.74
 31
0.0
  0
LINE
  5
548
330
1E
100
AcDbEntity
  8
0
  6
CONTINUOUS
 62
     7
100
AcDbLine
 10
1.936999999999999
 20
44.74
 30
0.0
 11
2.258529999999999
 21
45.94
 31
0.0
  0
LINE
  5
549
330
1E
100
AcDbEntity
  8
0
  6
CONTINUOUS
 62
     7
100
AcDbLine
 10
31.23886
 20
48.50795999999998
 30
0.0
 11
94.57210000000001
 21
48.50795999999998
 31
0.0
  0
LINE
  5
54A
330
1E
100
AcDbEntity
  8
0
  6
CONTINUOUS
 62
     7
100
AcDbLine
 10
74.3458
 20
53.84129999999998
 30
0.0
 11
94.57219999999999
 21
53.84129999999998
 31
0.0
  0
POINT
  5
54B
330
1E
100
AcDbEntity
  8
0
  6
CONTINUOUS
 62
     1
100
AcDbPoint
 10
35.0722
 20
121.8412999999999
 30
0.0
  0
LINE
  5
54C
330
1E
100
AcDbEntity
  8
0
  6
CONTINUOUS
 62
     7
100
AcDbLine
 10
44.71485999999997
 20
112.3811
 30
0.0
 11
35.0722
 21
105.0413
 31
0.0
  0
LINE
  5
54D
330
1E
100
AcDbEntity
  8
0
  6
CONTINUOUS
 62
     7
100
AcDbLine
 10
35.83209999999999
 20
106.02366
 30
0.0
 11
35.07199999999999
 21
105.041
 31
0.0
  0
LINE
  5
54E
330
1E
100
AcDbEntity
  8
0
  6
CONTINUOUS
 62
     7
100
AcDbLine
 10
35.07199999999999
 20
105.041
 30
0.0
 11
36.2216
 21
105.51196
 31
0.0
  0
LINE
  5
54F
330
1E
100
AcDbEntity
  8
0
  6
CONTINUOUS
 62
     7
100
AcDbLine
 10
60.69893
 20
88.41706
 30
0.0
 11
34.72293
 21
88.42143
 31
0.0
  0
LINE
  5
550
330
1E
100
AcDbEntity
  8
0
  6
CONTINUOUS
 62
     7
100
AcDbLine
 10
35.92204999999999
 20
88.74233000000002
 30
0.0
 11
34.722
 21
88.421
 31
0.0
  0
LINE
  5
551
330
1E
100
AcDbEntity
  8
0
  6
CONTINUOUS
 62
     7
100
AcDbLine
 10
34.722
 20
88.421
 30
0.0
 11
35.92194
 21
88.09924999999998
 31
0.0
  0
LINE
  5
552
330
1E
100
AcDbEntity
  8
0
  6
CONTINUOUS
 62
     7
100
AcDbLine
 10
45.6716
 20
71.4739
 30
0.0
 11
37.0908
 21
54.5333
 31
0.0
  0
LINE
  5
553
330
1E
100
AcDbEntity
  8
0
  6
CONTINUOUS
 62
     7
100
AcDbLine
 10
37.34539
 20
55.74879
 30
0.0
 11
37.09
 21
54.533
 31
0.0
  0
LINE
  5
554
330
1E
100
AcDbEntity
  8
0
  6
CONTINUOUS
 62
     7
100
AcDbLine
 10
37.09
 20
54.533
 30
0.0
 11
37.91907
 21
55.45821
 31
0.0
  0
LINE
  5
555
330
1E
100
AcDbEntity
  8
0
  6
CONTINUOUS
 62
     7
100
AcDbLine
 10
21.73885999999999
 20
67.68003
 30
0.0
 11
32.73885999999999
 21
67.68003
 31
0.0
  0
LINE
  5
556
330
1E
100
AcDbEntity
  8
0
  6
CONTINUOUS
 62
     7
100
AcDbLine
 10
31.538
 20
67.35845999999999
 30
0.0
 11
32.738
 21
67.68
 31
0.0
  0
LINE
  5
557
330
1E
100
AcDbEntity
  8
0
  6
CONTINUOUS
 62
     7
100
AcDbLine
 10
32.738
 20
67.68
 30
0.0
 11
31.538
 21
68.00153
 31
0.0
  0
POINT
  5
558
330
1E
100
AcDbEntity
  8
0
  6
CONTINUOUS
 62
     1
100
AcDbPoint
 10
33.46035999999998
 20
52.91646
 30
0.0
  0
LINE
  5
559
330
1E
100
AcDbEntity
  8
0
  6
CONTINUOUS
 62
     7
100
AcDbLine
 10
21.73232999999999
 20
96.91396000000001
 30
0.0
 11
33.06566
 21
92.67462999999999
 31
0.0
  0
LINE
  5
55A
330
1E
100
AcDbEntity
  8
0
  6
CONTINUOUS
 62
     7
100
AcDbLine
 10
31.8284
 20
92.79326000000001
 30
0.0
 11
33.06499999999999
 21
92.674
 31
0.0
  0
LINE
  5
55B
330
1E
100
AcDbEntity
  8
0
  6
CONTINUOUS
 62
     7
100
AcDbLine
 10
33.06499999999999
 20
92.674
 30
0.0
 11
32.0537
 21
93.39558000000002
 31
0.0
  0
LINE
  5
55C
330
1E
100
AcDbEntity
  8
0
  6
CONTINUOUS
 62
     1
100
AcDbLine
 10
32.73885999999999
 20
52.2913
 30
0.0
 11
80.54843000000003
 21
52.2913
 31
0.0
  0
POINT
  5
55D
330
1E
100
AcDbEntity
  8
0
  6
CONTINUOUS
 62
     1
100
AcDbPoint
 10
39.5722
 20
50.50895999999998
 30
0.0
  0
POINT
  5
55E
330
1E
100
AcDbEntity
  8
0
  6
CONTINUOUS
 62
     1
100
AcDbPoint
 10
46.23885999999997
 20
50.50895999999998
 30
0.0
  0
POINT
  5
55F
330
1E
100
AcDbEntity
  8
0
  6
CONTINUOUS
 62
     7
100
AcDbPoint
 10
52.90553
 20
50.50895999999998
 30
0.0
  0
POINT
  5
560
330
1E
100
AcDbEntity
  8
0
  6
CONTINUOUS
 62
     1
100
AcDbPoint
 10
59.5722
 20
50.50895999999998
 30
0.0
  0
POINT
  5
561
330
1E
100
AcDbEntity
  8
0
  6
CONTINUOUS
 62
     1
100
AcDbPoint
 10
46.23885999999997
 20
51.9483
 30
0.0
  0
POINT
  5
562
330
1E
100
AcDbEntity
  8
0
  6
CONTINUOUS
 62
     1
100
AcDbPoint
 10
52.90553
 20
51.9483
 30
0.0
  0
POINT
  5
563
330
1E
100
AcDbEntity
  8
0
  6
CONTINUOUS
 62
     7
100
AcDbPoint
 10
59.5722
 20
51.9483
 30
0.0
  0
POINT
  5
564
330
1E
100
AcDbEntity
  8
0
  6
CONTINUOUS
 62
     1
100
AcDbPoint
 10
66.23886
 20
51.9483
 30
0.0
  0
POINT
  5
565
330
1E
100
AcDbEntity
  8
0
  6
CONTINUOUS
 62
     1
100
AcDbPoint
 10
72.90553
 20
51.9483
 30
0.0
  0
POINT
  5
566
330
1E
100
AcDbEntity
  8
0
  6
CONTINUOUS
 62
     1
100
AcDbPoint
 10
79.57219999999998
 20
51.9483
 30
0.0
  0
CIRCLE
  5
567
330
1E
100
AcDbEntity
  8
0
  6
CONTINUOUS
 62
     7
100
AcDbCircle
 10
19.23689999999998
 20
100.18506
 30
0.0
 40
2.5
  0
TEXT
  5
568
330
1E
100
AcDbEntity
  8
0
  6
CONTINUOUS
 62
     7
100
AcDbText
 10
21.06012999999998
 20
98.5749
 30
0.0
 40
3.2
  1
６
 50
90.0
  7
BIGFONT
100
AcDbText
  0
LINE
  5
569
330
1E
100
AcDbEntity
  8
0
  6
CONTINUOUS
 62
     7
100
AcDbLine
 10
21.73232999999999
 20
97.03276
 30
0.0
 11
21.73232999999999
 21
113.03276
 31
0.0
  0
TEXT
  5
56A
330
1E
100
AcDbEntity
  8
0
  6
CONTINUOUS
 62
     7
100
AcDbText
 10
20.99063
 20
104.10863
 30
0.0
 40
3.2
  1
D10
 50
90.0
  7
BIGFONT
100
AcDbText
  0
CIRCLE
  5
56B
330
1E
100
AcDbEntity
  8
0
  6
CONTINUOUS
 62
     7
100
AcDbCircle
 10
67.66183000000001
 20
64.66383
 30
0.0
 40
2.5
  0
TEXT
  5
56C
330
1E
100
AcDbEntity
  8
0
  6
CONTINUOUS
 62
     7
100
AcDbText
 10
66.06276
 20
62.84046
 30
0.0
 40
3.2
  1
２
  7
BIGFONT
100
AcDbText
  0
LINE
  5
56D
330
1E
100
AcDbEntity
  8
0
  6
CONTINUOUS
 62
     7
100
AcDbLine
 10
64.52116
 20
62.18913
 30
0.0
 11
80.52115999999998
 21
62.18913
 31
0.0
  0
TEXT
  5
56E
330
1E
100
AcDbEntity
  8
0
  6
CONTINUOUS
 62
     7
100
AcDbText
 10
71.61993000000002
 20
62.90846
 30
0.0
 40
3.2
  1
D16
  7
BIGFONT
100
AcDbText
  0
CIRCLE
  5
56F
330
1E
100
AcDbEntity
  8
0
  6
CONTINUOUS
 62
     7
100
AcDbCircle
 10
19.25182999999998
 20
70.83373
 30
0.0
 40
2.5
  0
TEXT
  5
570
330
1E
100
AcDbEntity
  8
0
  6
CONTINUOUS
 62
     7
100
AcDbText
 10
21.0842
 20
69.27379999999999
 30
0.0
 40
3.2
  1
３
 50
90.0
  7
BIGFONT
100
AcDbText
  0
LINE
  5
571
330
1E
100
AcDbEntity
  8
0
  6
CONTINUOUS
 62
     7
100
AcDbLine
 10
21.73885999999999
 20
67.68003
 30
0.0
 11
21.73885999999999
 21
83.68002999999999
 31
0.0
  0
TEXT
  5
572
330
1E
100
AcDbEntity
  8
0
  6
CONTINUOUS
 62
     7
100
AcDbText
 10
20.99716
 20
74.7559
 30
0.0
 40
3.2
  1
D10
 50
90.0
  7
BIGFONT
100
AcDbText
  0
CIRCLE
  5
573
330
1E
100
AcDbEntity
  8
0
  6
CONTINUOUS
 62
     7
100
AcDbCircle
 10
48.97242999999999
 20
73.96513
 30
0.0
 40
2.5
  0
TEXT
  5
574
330
1E
100
AcDbEntity
  8
0
  6
CONTINUOUS
 62
     7
100
AcDbText
 10
47.2914
 20
72.15609999999998
 30
0.0
 40
3.2
  1
４
  7
BIGFONT
100
AcDbText
  0
LINE
  5
575
330
1E
100
AcDbEntity
  8
0
  6
CONTINUOUS
 62
     7
100
AcDbLine
 10
45.6716
 20
71.4739
 30
0.0
 11
61.67159999999999
 21
71.4739
 31
0.0
  0
TEXT
  5
576
330
1E
100
AcDbEntity
  8
0
  6
CONTINUOUS
 62
     7
100
AcDbText
 10
52.93413000000001
 20
72.1879
 30
0.0
 40
3.2
  1
D13
  7
BIGFONT
100
AcDbText
  0
TEXT
  5
577
330
1E
100
AcDbEntity
  8
0
  6
CONTINUOUS
 62
     7
100
AcDbText
 10
46.39313
 20
113.03066
 30
0.0
 40
3.2
  1
５
  7
BIGFONT
100
AcDbText
  0
CIRCLE
  5
578
330
1E
100
AcDbEntity
  8
0
  6
CONTINUOUS
 62
     7
100
AcDbCircle
 10
60.21843
 20
41.06563
 30
0.0
 40
2.5
  0
TEXT
  5
579
330
1E
100
AcDbEntity
  8
0
  6
CONTINUOUS
 62
     7
100
AcDbText
 10
58.6585
 20
39.23325999999999
 30
0.0
 40
3.2
  1
３
  7
BIGFONT
100
AcDbText
  0
LINE
  5
57A
330
1E
100
AcDbEntity
  8
0
  6
CONTINUOUS
 62
     7
100
AcDbLine
 10
56.99805999999998
 20
38.5786
 30
0.0
 11
72.99806
 21
38.5786
 31
0.0
  0
TEXT
  5
57B
330
1E
100
AcDbEntity
  8
0
  6
CONTINUOUS
 62
     7
100
AcDbText
 10
64.1406
 20
39.3203
 30
0.0
 40
3.2
  1
D10
  7
BIGFONT
100
AcDbText
  0
CIRCLE
  5
57C
330
1E
100
AcDbEntity
  8
0
  6
CONTINUOUS
 62
     7
100
AcDbCircle
 10
47.98042999999998
 20
114.8455
 30
0.0
 40
2.5
  0
LINE
  5
57D
330
1E
100
AcDbEntity
  8
0
  6
CONTINUOUS
 62
     7
100
AcDbLine
 10
44.6796
 20
112.35426
 30
0.0
 11
60.6796
 21
112.35426
 31
0.0
  0
TEXT
  5
57E
330
1E
100
AcDbEntity
  8
0
  6
CONTINUOUS
 62
     7
100
AcDbText
 10
51.94213
 20
113.06826
 30
0.0
 40
3.2
  1
D13
  7
BIGFONT
100
AcDbText
  0
LINE
  5
57F
330
1E
100
AcDbEntity
  8
0
  6
CONTINUOUS
 62
     7
100
AcDbLine
 10
56.99723
 20
38.59035999999999
 30
0.0
 11
52.9119
 21
50.49036
 31
0.0
  0
LINE
  5
580
330
1E
100
AcDbEntity
  8
0
  6
CONTINUOUS
 62
     7
100
AcDbLine
 10
53.60476
 20
49.45942
 30
0.0
 11
52.911
 21
50.49
 31
0.0
  0
LINE
  5
581
330
1E
100
AcDbEntity
  8
0
  6
CONTINUOUS
 62
     7
100
AcDbLine
 10
52.911
 20
50.49
 30
0.0
 11
52.99652
 21
49.25060999999999
 31
0.0
  0
TEXT
  5
582
330
1E
100
AcDbEntity
  8
0
  6
CONTINUOUS
 62
     7
100
AcDbText
 10
46.43913
 20
89.21049999999999
 30
0.0
 40
3.2
  1
１
  7
BIGFONT
100
AcDbText
  0
CIRCLE
  5
583
330
1E
100
AcDbEntity
  8
0
  6
CONTINUOUS
 62
     7
100
AcDbCircle
 10
47.915
 20
90.94162999999999
 30
0.0
 40
2.5
  0
TEXT
  5
584
330
1E
100
AcDbEntity
  8
0
  6
CONTINUOUS
 62
     7
100
AcDbText
 10
51.8767
 20
89.16439999999999
 30
0.0
 40
3.2
  1
D16
  7
BIGFONT
100
AcDbText
  0
POINT
  5
585
330
1E
100
AcDbEntity
  8
0
  6
CONTINUOUS
 62
     1
100
AcDbPoint
 10
35.07242999999999
 20
51.9483
 30
0.0
  0
POINT
  5
586
330
1E
100
AcDbEntity
  8
0
  6
CONTINUOUS
 62
     1
100
AcDbPoint
 10
33.06566
 20
82.67463000000002
 30
0.0
  0
POINT
  5
587
330
1E
100
AcDbEntity
  8
0
  6
CONTINUOUS
 62
     1
100
AcDbPoint
 10
33.06566
 20
72.67463000000002
 30
0.0
  0
POINT
  5
588
330
1E
100
AcDbEntity
  8
0
  6
CONTINUOUS
 62
     1
100
AcDbPoint
 10
33.06566
 20
62.67463000000001
 30
0.0
  0
LINE
  5
589
330
1E
100
AcDbEntity
  8
0
  6
CONTINUOUS
 62
     7
100
AcDbLine
 10
56.99805999999998
 20
38.5786
 30
0.0
 11
49.31713
 21
50.00796
 31
0.0
  0
LINE
  5
58A
330
1E
100
AcDbEntity
  8
0
  6
CONTINUOUS
 62
     7
100
AcDbLine
 10
50.25320999999999
 20
49.19036
 30
0.0
 11
49.317
 21
50.007
 31
0.0
  0
LINE
  5
58B
330
1E
100
AcDbEntity
  8
0
  6
CONTINUOUS
 62
     7
100
AcDbLine
 10
49.317
 20
50.007
 30
0.0
 11
49.71945999999999
 21
48.83166
 31
0.0
  0
LINE
  5
58C
330
1E
100
AcDbEntity
  8
0
  6
CONTINUOUS
 62
     7
100
AcDbLine
 10
31.23886
 20
52.73663
 30
0.0
 11
31.23886
 21
56.63723
 31
0.0
  0
LINE
  5
58D
330
1E
100
AcDbEntity
  8
0
  6
CONTINUOUS
 62
     7
100
AcDbLine
 10
31.23886
 20
56.63723
 30
0.0
 11
31.23886
 21
123.20796
 31
0.0
  0
LINE
  5
58E
330
1E
100
AcDbEntity
  8
0
  6
CONTINUOUS
 62
     7
100
AcDbLine
 10
31.23886
 20
48.80726
 30
0.0
 11
31.23886
 21
49.18483
 31
0.0
  0
LINE
  5
58F
330
1E
100
AcDbEntity
  8
0
  6
CONTINUOUS
 62
     7
100
AcDbLine
 10
31.23886
 20
49.18483
 30
0.0
 11
31.23886
 21
51.54593
 31
0.0
  0
POINT
  5
590
330
1E
100
AcDbEntity
  8
0
  6
CONTINUOUS
 62
     1
100
AcDbPoint
 10
39.5722
 20
51.9483
 30
0.0
  0
LINE
  5
591
330
1E
100
AcDbEntity
  8
0
  6
CONTINUOUS
 62
     7
100
AcDbLine
 10
64.52116
 20
62.18913
 30
0.0
 11
59.5722
 21
51.9483
 31
0.0
  0
LINE
  5
592
330
1E
100
AcDbEntity
  8
0
  6
CONTINUOUS
 62
     7
100
AcDbLine
 10
59.80463
 20
53.16835
 30
0.0
 11
59.572
 21
51.948
 31
0.0
  0
LINE
  5
593
330
1E
100
AcDbEntity
  8
0
  6
CONTINUOUS
 62
     7
100
AcDbLine
 10
59.572
 20
51.948
 30
0.0
 11
60.38364
 21
52.88854
 31
0.0
  0
LINE
  5
594
330
1E
100
AcDbEntity
  8
0
  6
CONTINUOUS
 62
     7
100
AcDbLine
 10
64.52116
 20
62.18913
 30
0.0
 11
55.93813
 21
52.2913
 31
0.0
  0
LINE
  5
595
330
1E
100
AcDbEntity
  8
0
  6
CONTINUOUS
 62
     7
100
AcDbLine
 10
56.48124
 20
53.40825
 30
0.0
 11
55.938
 21
52.29099999999998
 31
0.0
  0
LINE
  5
596
330
1E
100
AcDbEntity
  8
0
  6
CONTINUOUS
 62
     7
100
AcDbLine
 10
55.938
 20
52.29099999999998
 30
0.0
 11
56.96709
 21
52.98694000000001
 31
0.0
  0
LINE
  5
597
330
1E
100
AcDbEntity
  8
0
  6
CONTINUOUS
 62
     1
100
AcDbLine
 10
-101.99856
 20
51.70796
 30
0.0
 11
-44.13043
 21
51.70796
 31
0.0
  0
LINE
  5
598
330
1E
100
AcDbEntity
  8
0
  6
CONTINUOUS
 62
     1
100
AcDbLine
 10
-101.99856
 20
58.37463
 30
0.0
 11
-44.13043
 21
58.37463
 31
0.0
  0
LINE
  5
599
330
1E
100
AcDbEntity
  8
0
  6
CONTINUOUS
 62
     1
100
AcDbLine
 10
-101.99856
 20
65.0413
 30
0.0
 11
-44.13043
 21
65.0413
 31
0.0
  0
LINE
  5
59A
330
1E
100
AcDbEntity
  8
0
  6
CONTINUOUS
 62
     1
100
AcDbLine
 10
-101.99856
 20
71.70796
 30
0.0
 11
-44.13043
 21
71.70796
 31
0.0
  0
LINE
  5
59B
330
1E
100
AcDbEntity
  8
0
  6
CONTINUOUS
 62
     1
100
AcDbLine
 10
-101.99856
 20
78.37463000000003
 30
0.0
 11
-44.13043
 21
78.37463000000003
 31
0.0
  0
LINE
  5
59C
330
1E
100
AcDbEntity
  8
0
  6
CONTINUOUS
 62
     1
100
AcDbLine
 10
-101.99856
 20
85.04130000000001
 30
0.0
 11
-44.13043
 21
85.04130000000001
 31
0.0
  0
LINE
  5
59D
330
1E
100
AcDbEntity
  8
0
  6
CONTINUOUS
 62
     1
100
AcDbLine
 10
-101.99856
 20
91.70796000000001
 30
0.0
 11
-44.13043
 21
91.70796000000001
 31
0.0
  0
LINE
  5
59E
330
1E
100
AcDbEntity
  8
0
  6
CONTINUOUS
 62
     1
100
AcDbLine
 10
-101.99856
 20
98.37462999999999
 30
0.0
 11
-44.13043
 21
98.37462999999999
 31
0.0
  0
LINE
  5
59F
330
1E
100
AcDbEntity
  8
0
  6
CONTINUOUS
 62
     1
100
AcDbLine
 10
-101.99856
 20
105.0413
 30
0.0
 11
-44.13043
 21
105.0413
 31
0.0
  0
LINE
  5
5A0
330
1E
100
AcDbEntity
  8
0
  6
CONTINUOUS
 62
     1
100
AcDbLine
 10
-101.99856
 20
111.70796
 30
0.0
 11
-44.13043
 21
111.70796
 31
0.0
  0
LINE
  5
5A1
330
1E
100
AcDbEntity
  8
0
  6
CONTINUOUS
 62
     1
100
AcDbLine
 10
-101.99856
 20
118.37463
 30
0.0
 11
-44.13043
 21
118.37463
 31
0.0
  0
LINE
  5
5A2
330
1E
100
AcDbEntity
  8
0
  6
CONTINUOUS
 62
     7
100
AcDbLine
 10
-78.52053000000002
 20
121.90513
 30
0.0
 11
-78.52053000000002
 21
118.37463
 31
0.0
  0
LINE
  5
5A3
330
1E
100
AcDbEntity
  8
0
  6
CONTINUOUS
 62
     7
100
AcDbLine
 10
-78.84153000000002
 20
119.574
 30
0.0
 11
-78.52
 21
118.374
 31
0.0
  0
LINE
  5
5A4
330
1E
100
AcDbEntity
  8
0
  6
CONTINUOUS
 62
     7
100
AcDbLine
 10
-78.52
 20
118.374
 30
0.0
 11
-78.19846
 21
119.574
 31
0.0
  0
LINE
  5
5A5
330
1E
100
AcDbEntity
  8
0
  6
CONTINUOUS
 62
     7
100
AcDbLine
 10
-78.52053000000002
 20
118.38506
 30
0.0
 11
-78.52053000000002
 21
111.70796
 31
0.0
  0
LINE
  5
5A6
330
1E
100
AcDbEntity
  8
0
  6
CONTINUOUS
 62
     7
100
AcDbLine
 10
-78.84153000000002
 20
112.907
 30
0.0
 11
-78.52
 21
111.707
 31
0.0
  0
LINE
  5
5A7
330
1E
100
AcDbEntity
  8
0
  6
CONTINUOUS
 62
     7
100
AcDbLine
 10
-78.52
 20
111.707
 30
0.0
 11
-78.19846
 21
112.907
 31
0.0
  0
LINE
  5
5A8
330
1E
100
AcDbEntity
  8
0
  6
CONTINUOUS
 62
     7
100
AcDbLine
 10
-78.52053000000002
 20
111.7183999999999
 30
0.0
 11
-78.52053000000002
 21
105.0413
 31
0.0
  0
LINE
  5
5A9
330
1E
100
AcDbEntity
  8
0
  6
CONTINUOUS
 62
     7
100
AcDbLine
 10
-78.84153000000002
 20
106.241
 30
0.0
 11
-78.52
 21
105.041
 31
0.0
  0
LINE
  5
5AA
330
1E
100
AcDbEntity
  8
0
  6
CONTINUOUS
 62
     7
100
AcDbLine
 10
-78.52
 20
105.041
 30
0.0
 11
-78.19846
 21
106.241
 31
0.0
  0
LINE
  5
5AB
330
1E
100
AcDbEntity
  8
0
  6
CONTINUOUS
 62
     7
100
AcDbLine
 10
-78.52053000000002
 20
105.05173
 30
0.0
 11
-78.52053000000002
 21
98.37462999999999
 31
0.0
  0
LINE
  5
5AC
330
1E
100
AcDbEntity
  8
0
  6
CONTINUOUS
 62
     7
100
AcDbLine
 10
-78.84153000000002
 20
99.57399999999999
 30
0.0
 11
-78.52
 21
98.374
 31
0.0
  0
LINE
  5
5AD
330
1E
100
AcDbEntity
  8
0
  6
CONTINUOUS
 62
     7
100
AcDbLine
 10
-78.52
 20
98.374
 30
0.0
 11
-78.19846
 21
99.57399999999999
 31
0.0
  0
LINE
  5
5AE
330
1E
100
AcDbEntity
  8
0
  6
CONTINUOUS
 62
     7
100
AcDbLine
 10
-78.52053000000002
 20
98.38506
 30
0.0
 11
-78.52053000000002
 21
91.70796000000001
 31
0.0
  0
LINE
  5
5AF
330
1E
100
AcDbEntity
  8
0
  6
CONTINUOUS
 62
     7
100
AcDbLine
 10
-78.84153000000002
 20
92.90699999999999
 30
0.0
 11
-78.52
 21
91.70700000000001
 31
0.0
  0
LINE
  5
5B0
330
1E
100
AcDbEntity
  8
0
  6
CONTINUOUS
 62
     7
100
AcDbLine
 10
-78.52
 20
91.70700000000001
 30
0.0
 11
-78.19846
 21
92.90699999999999
 31
0.0
  0
LINE
  5
5B1
330
1E
100
AcDbEntity
  8
0
  6
CONTINUOUS
 62
     7
100
AcDbLine
 10
-78.52053000000002
 20
91.71840000000001
 30
0.0
 11
-78.52053000000002
 21
85.04130000000001
 31
0.0
  0
LINE
  5
5B2
330
1E
100
AcDbEntity
  8
0
  6
CONTINUOUS
 62
     7
100
AcDbLine
 10
-78.52053000000002
 20
85.04130000000001
 30
0.0
 11
-78.52053000000002
 21
82.64129999999999
 31
0.0
  0
LINE
  5
5B3
330
1E
100
AcDbEntity
  8
0
  6
CONTINUOUS
 62
     7
100
AcDbLine
 10
-78.84153000000002
 20
86.241
 30
0.0
 11
-78.52
 21
85.04099999999999
 31
0.0
  0
LINE
  5
5B4
330
1E
100
AcDbEntity
  8
0
  6
CONTINUOUS
 62
     7
100
AcDbLine
 10
-78.52
 20
85.04099999999999
 30
0.0
 11
-78.19846
 21
86.241
 31
0.0
  0
LINE
  5
5B5
330
1E
100
AcDbEntity
  8
0
  6
CONTINUOUS
 62
     7
100
AcDbLine
 10
-78.52053000000002
 20
85.05173
 30
0.0
 11
-78.52053000000002
 21
78.37463000000003
 31
0.0
  0
LINE
  5
5B6
330
1E
100
AcDbEntity
  8
0
  6
CONTINUOUS
 62
     7
100
AcDbLine
 10
-78.84153000000002
 20
79.57399999999998
 30
0.0
 11
-78.52
 21
78.37399999999998
 31
0.0
  0
LINE
  5
5B7
330
1E
100
AcDbEntity
  8
0
  6
CONTINUOUS
 62
     7
100
AcDbLine
 10
-78.52
 20
78.37399999999998
 30
0.0
 11
-78.19846
 21
79.57399999999998
 31
0.0
  0
LINE
  5
5B8
330
1E
100
AcDbEntity
  8
0
  6
CONTINUOUS
 62
     7
100
AcDbLine
 10
-78.52053000000002
 20
78.38505999999998
 30
0.0
 11
-78.52053000000002
 21
71.70796
 31
0.0
  0
LINE
  5
5B9
330
1E
100
AcDbEntity
  8
0
  6
CONTINUOUS
 62
     7
100
AcDbLine
 10
-78.84153000000002
 20
72.907
 30
0.0
 11
-78.52
 21
71.707
 31
0.0
  0
LINE
  5
5BA
330
1E
100
AcDbEntity
  8
0
  6
CONTINUOUS
 62
     7
100
AcDbLine
 10
-78.52
 20
71.707
 30
0.0
 11
-78.19846
 21
72.907
 31
0.0
  0
LINE
  5
5BB
330
1E
100
AcDbEntity
  8
0
  6
CONTINUOUS
 62
     7
100
AcDbLine
 10
-78.52053000000002
 20
71.7184
 30
0.0
 11
-78.52053000000002
 21
65.0413
 31
0.0
  0
LINE
  5
5BC
330
1E
100
AcDbEntity
  8
0
  6
CONTINUOUS
 62
     7
100
AcDbLine
 10
-78.84153000000002
 20
66.241
 30
0.0
 11
-78.52
 21
65.041
 31
0.0
  0
LINE
  5
5BD
330
1E
100
AcDbEntity
  8
0
  6
CONTINUOUS
 62
     7
100
AcDbLine
 10
-78.52
 20
65.041
 30
0.0
 11
-78.19846
 21
66.241
 31
0.0
  0
LINE
  5
5BE
330
1E
100
AcDbEntity
  8
0
  6
CONTINUOUS
 62
     7
100
AcDbLine
 10
-78.52053000000002
 20
65.05173
 30
0.0
 11
-78.52053000000002
 21
58.37463
 31
0.0
  0
LINE
  5
5BF
330
1E
100
AcDbEntity
  8
0
  6
CONTINUOUS
 62
     7
100
AcDbLine
 10
-78.84153000000002
 20
59.57399999999999
 30
0.0
 11
-78.52
 21
58.37399999999998
 31
0.0
  0
LINE
  5
5C0
330
1E
100
AcDbEntity
  8
0
  6
CONTINUOUS
 62
     7
100
AcDbLine
 10
-78.52
 20
58.37399999999998
 30
0.0
 11
-78.19846
 21
59.57399999999999
 31
0.0
  0
CIRCLE
  5
5C1
330
1E
100
AcDbEntity
  8
0
  6
CONTINUOUS
 62
     7
100
AcDbCircle
 10
-74.86683000000002
 20
41.06563
 30
0.0
 40
2.5
  0
TEXT
  5
5C2
330
1E
100
AcDbEntity
  8
0
  6
CONTINUOUS
 62
     7
100
AcDbText
 10
-76.42676
 20
39.23325999999999
 30
0.0
 40
3.2
  1
３
  7
BIGFONT
100
AcDbText
  0
LINE
  5
5C3
330
1E
100
AcDbEntity
  8
0
  6
CONTINUOUS
 62
     7
100
AcDbLine
 10
-78.52053000000002
 20
38.5786
 30
0.0
 11
-62.52053
 21
38.5786
 31
0.0
  0
TEXT
  5
5C4
330
1E
100
AcDbEntity
  8
0
  6
CONTINUOUS
 62
     7
100
AcDbText
 10
-70.94466
 20
39.3203
 30
0.0
 40
3.2
  1
D10
  7
BIGFONT
100
AcDbText
  0
LINE
  5
5C5
330
1E
100
AcDbEntity
  8
0
  6
CONTINUOUS
 62
     7
100
AcDbLine
 10
-78.52053000000002
 20
38.5786
 30
0.0
 11
-78.52053000000002
 21
50.3413
 31
0.0
  0
LINE
  5
5C6
330
1E
100
AcDbEntity
  8
0
  6
CONTINUOUS
 62
     7
100
AcDbLine
 10
-78.19846
 20
49.14100000000001
 30
0.0
 11
-78.52
 21
50.341
 31
0.0
  0
LINE
  5
5C7
330
1E
100
AcDbEntity
  8
0
  6
CONTINUOUS
 62
     7
100
AcDbLine
 10
-78.52
 20
50.341
 30
0.0
 11
-78.84153000000002
 21
49.14100000000001
 31
0.0
  0
LINE
  5
5C8
330
1E
100
AcDbEntity
  8
0
  6
CONTINUOUS
 62
     7
100
AcDbLine
 10
-91.85385999999999
 20
131.8412999999999
 30
0.0
 11
-91.85385999999999
 21
51.70796
 31
0.0
  0
LINE
  5
5C9
330
1E
100
AcDbEntity
  8
0
  6
CONTINUOUS
 62
     7
100
AcDbLine
 10
-92.17453
 20
52.907
 30
0.0
 11
-91.85299999999999
 21
51.707
 31
0.0
  0
LINE
  5
5CA
330
1E
100
AcDbEntity
  8
0
  6
CONTINUOUS
 62
     7
100
AcDbLine
 10
-91.85299999999999
 20
51.707
 30
0.0
 11
-91.53145999999999
 21
52.907
 31
0.0
  0
CIRCLE
  5
5CB
330
1E
100
AcDbEntity
  8
0
  6
CONTINUOUS
 62
     7
100
AcDbCircle
 10
-104.94653
 20
134.316
 30
0.0
 40
2.5
  0
TEXT
  5
5CC
330
1E
100
AcDbEntity
  8
0
  6
CONTINUOUS
 62
     7
100
AcDbText
 10
-106.5455999999999
 20
132.5593
 30
0.0
 40
3.2
  1
２
  7
BIGFONT
100
AcDbText
  0
LINE
  5
5CD
330
1E
100
AcDbEntity
  8
0
  6
CONTINUOUS
 62
     7
100
AcDbLine
 10
-107.85386
 20
131.8412999999999
 30
0.0
 11
-91.85385999999999
 21
131.8412999999999
 31
0.0
  0
TEXT
  5
5CE
330
1E
100
AcDbEntity
  8
0
  6
CONTINUOUS
 62
     7
100
AcDbText
 10
-100.98843
 20
132.56063
 30
0.0
 40
3.2
  1
D16
  7
BIGFONT
100
AcDbText
  0
LINE
  5
5CF
330
1E
100
AcDbEntity
  8
0
  6
CONTINUOUS
 62
     7
100
AcDbLine
 10
-113.6705999999999
 20
51.67136
 30
0.0
 11
-113.6705999999999
 21
118.3656999999999
 31
0.0
  0
LINE
  5
5D0
330
1E
100
AcDbEntity
  8
0
  6
CONTINUOUS
 62
     7
100
AcDbLine
 10
-104.6637599999999
 20
118.3656999999999
 30
0.0
 11
-114.4706
 21
118.3656999999999
 31
0.0
  0
LINE
  5
5D1
330
1E
100
AcDbEntity
  8
0
  6
CONTINUOUS
 62
     7
100
AcDbLine
 10
-104.6637599999999
 20
51.67136
 30
0.0
 11
-114.4706
 21
51.67136
 31
0.0
  0
LINE
  5
5D2
330
1E
100
AcDbEntity
  8
0
  6
CONTINUOUS
 62
     7
100
AcDbLine
 10
-113.34846
 20
117.165
 30
0.0
 11
-113.67
 21
118.3649999999999
 31
0.0
  0
LINE
  5
5D3
330
1E
100
AcDbEntity
  8
0
  6
CONTINUOUS
 62
     7
100
AcDbLine
 10
-113.67
 20
118.3649999999999
 30
0.0
 11
-113.99153
 21
117.165
 31
0.0
  0
LINE
  5
5D4
330
1E
100
AcDbEntity
  8
0
  6
CONTINUOUS
 62
     7
100
AcDbLine
 10
-113.99153
 20
52.871
 30
0.0
 11
-113.67
 21
51.67100000000001
 31
0.0
  0
LINE
  5
5D5
330
1E
100
AcDbEntity
  8
0
  6
CONTINUOUS
 62
     7
100
AcDbLine
 10
-113.67
 20
51.67100000000001
 30
0.0
 11
-113.34846
 21
52.871
 31
0.0
  0
LINE
  5
5D6
330
1E
100
AcDbEntity
  8
0
  6
CONTINUOUS
 62
     7
100
AcDbLine
 10
-113.6705999999999
 20
118.3656999999999
 30
0.0
 11
-113.6705999999999
 21
121.8361
 31
0.0
  0
LINE
  5
5D7
330
1E
100
AcDbEntity
  8
0
  6
CONTINUOUS
 62
     7
100
AcDbLine
 10
-104.6637599999999
 20
121.8361
 30
0.0
 11
-114.4706
 21
121.8361
 31
0.0
  0
LINE
  5
5D8
330
1E
100
AcDbEntity
  8
0
  6
CONTINUOUS
 62
     7
100
AcDbLine
 10
-113.34846
 20
120.6359999999999
 30
0.0
 11
-113.67
 21
121.836
 31
0.0
  0
LINE
  5
5D9
330
1E
100
AcDbEntity
  8
0
  6
CONTINUOUS
 62
     7
100
AcDbLine
 10
-113.67
 20
121.836
 30
0.0
 11
-113.99153
 21
120.6359999999999
 31
0.0
  0
LINE
  5
5DA
330
1E
100
AcDbEntity
  8
0
  6
CONTINUOUS
 62
     7
100
AcDbLine
 10
-113.99153
 20
119.565
 30
0.0
 11
-113.67
 21
118.3649999999999
 31
0.0
  0
LINE
  5
5DB
330
1E
100
AcDbEntity
  8
0
  6
CONTINUOUS
 62
     7
100
AcDbLine
 10
-113.67
 20
118.3649999999999
 30
0.0
 11
-113.34846
 21
119.565
 31
0.0
  0
LINE
  5
5DC
330
1E
100
AcDbEntity
  8
0
  6
CONTINUOUS
 62
     7
100
AcDbLine
 10
-113.6705999999999
 20
118.3656999999999
 30
0.0
 11
-113.6705999999999
 21
115.2457
 31
0.0
  0
TEXT
  5
5DD
330
1E
100
AcDbEntity
  8
0
  6
CONTINUOUS
 62
     7
100
AcDbText
 10
-114.0705999999999
 20
116.7510677386654
 30
0.0
 40
3.2
  1
104
 50
90.0
 41
0.8125
  7
BIGFONT
100
AcDbText
  0
LINE
  5
5DE
330
1E
100
AcDbEntity
  8
0
  6
CONTINUOUS
 62
     7
100
AcDbLine
 10
-113.6705999999999
 20
121.8361
 30
0.0
 11
-113.6705999999999
 21
123.46526
 31
0.0
  0
LINE
  5
5DF
330
1E
100
AcDbEntity
  8
0
  6
CONTINUOUS
 62
     7
100
AcDbLine
 10
-109.4834999999999
 20
123.46526
 30
0.0
 11
-114.4706
 21
123.46526
 31
0.0
  0
LINE
  5
5E0
330
1E
100
AcDbEntity
  8
0
  6
CONTINUOUS
 62
     7
100
AcDbLine
 10
-113.6705999999999
 20
125.86526
 30
0.0
 11
-113.6705999999999
 21
123.46526
 31
0.0
  0
LINE
  5
5E1
330
1E
100
AcDbEntity
  8
0
  6
CONTINUOUS
 62
     7
100
AcDbLine
 10
-113.99153
 20
124.665
 30
0.0
 11
-113.67
 21
123.465
 31
0.0
  0
LINE
  5
5E2
330
1E
100
AcDbEntity
  8
0
  6
CONTINUOUS
 62
     7
100
AcDbLine
 10
-113.67
 20
123.465
 30
0.0
 11
-113.34846
 21
124.665
 31
0.0
  0
LINE
  5
5E3
330
1E
100
AcDbEntity
  8
0
  6
CONTINUOUS
 62
     7
100
AcDbLine
 10
-113.6705999999999
 20
121.8361
 30
0.0
 11
-113.6705999999999
 21
119.4360999999999
 31
0.0
  0
LINE
  5
5E4
330
1E
100
AcDbEntity
  8
0
  6
CONTINUOUS
 62
     7
100
AcDbLine
 10
-113.34846
 20
120.6359999999999
 30
0.0
 11
-113.67
 21
121.836
 31
0.0
  0
LINE
  5
5E5
330
1E
100
AcDbEntity
  8
0
  6
CONTINUOUS
 62
     7
100
AcDbLine
 10
-113.67
 20
121.836
 30
0.0
 11
-113.99153
 21
120.6359999999999
 31
0.0
  0
LINE
  5
5E6
330
1E
100
AcDbEntity
  8
0
  6
CONTINUOUS
 62
     7
100
AcDbLine
 10
-113.6705999999999
 20
125.86526
 30
0.0
 11
-113.6705999999999
 21
131.78526
 31
0.0
  0
TEXT
  5
5E7
330
1E
100
AcDbEntity
  8
0
  6
CONTINUOUS
 62
     7
100
AcDbText
 10
-114.0705999999999
 20
126.58526
 30
0.0
 40
3.2
  1
50
 50
90.0
 41
0.8125
  7
BIGFONT
100
AcDbText
  0
LINE
  5
5E8
330
1E
100
AcDbEntity
  8
0
  6
CONTINUOUS
 62
     7
100
AcDbLine
 10
-114.4633999999999
 20
50.3903
 30
0.0
 11
-104.63046
 21
50.3903
 31
0.0
  0
POINT
  5
5E9
330
1E
100
AcDbEntity
  8
0
  6
CONTINUOUS
 62
     7
100
AcDbPoint
 10
-113.6705999999999
 20
50.3903
 30
0.0
  0
LINE
  5
5EA
330
1E
100
AcDbEntity
  8
0
  6
CONTINUOUS
 62
     7
100
AcDbLine
 10
-113.6705999999999
 20
48.46526
 30
0.0
 11
-113.6705999999999
 21
53.94715999999998
 31
0.0
  0
LINE
  5
5EB
330
1E
100
AcDbEntity
  8
0
  6
CONTINUOUS
 62
     7
100
AcDbLine
 10
-113.6705999999999
 20
41.08509999999998
 30
0.0
 11
-113.6705999999999
 21
48.46526
 31
0.0
  0
LINE
  5
5EC
330
1E
100
AcDbEntity
  8
0
  6
CONTINUOUS
 62
     7
100
AcDbLine
 10
-113.34846
 20
47.265
 30
0.0
 11
-113.67
 21
48.465
 31
0.0
  0
LINE
  5
5ED
330
1E
100
AcDbEntity
  8
0
  6
CONTINUOUS
 62
     7
100
AcDbLine
 10
-113.67
 20
48.465
 30
0.0
 11
-113.99153
 21
47.265
 31
0.0
  0
TEXT
  5
5EE
330
1E
100
AcDbEntity
  8
0
  6
CONTINUOUS
 62
     7
100
AcDbText
 10
-114.05593
 20
40.9173
 30
0.0
 40
3.2
  1
55
 50
90.0
  7
BIGFONT
100
AcDbText
  0
TEXT
  5
5EF
330
1E
100
AcDbEntity
  8
0
  6
CONTINUOUS
 62
     7
100
AcDbText
 10
-113.93166
 20
48.48473
 30
0.0
 40
3.2
  1
41
 50
90.0
  7
BIGFONT
100
AcDbText
  0
LINE
  5
5F0
330
1E
100
AcDbEntity
  8
0
  6
CONTINUOUS
 62
     7
100
AcDbLine
 10
-99.87386
 20
-26.48972999999999
 30
0.0
 11
-95.34136
 21
-26.48972999999999
 31
0.0
  0
LINE
  5
5F1
330
1E
100
AcDbEntity
  8
0
  6
CONTINUOUS
 62
     7
100
AcDbLine
 10
-95.34136
 20
-33.82305999999999
 30
0.0
 11
-95.34136
 21
-25.68972999999999
 31
0.0
  0
LINE
  5
5F2
330
1E
100
AcDbEntity
  8
0
  6
CONTINUOUS
 62
     7
100
AcDbLine
 10
-99.87386
 20
-33.82305999999999
 30
0.0
 11
-99.87386
 21
-25.68972999999999
 31
0.0
  0
LINE
  5
5F3
330
1E
100
AcDbEntity
  8
0
  6
CONTINUOUS
 62
     7
100
AcDbLine
 10
-96.54099999999999
 20
-26.81053
 30
0.0
 11
-95.341
 21
-26.489
 31
0.0
  0
LINE
  5
5F4
330
1E
100
AcDbEntity
  8
0
  6
CONTINUOUS
 62
     7
100
AcDbLine
 10
-95.341
 20
-26.489
 30
0.0
 11
-96.54099999999999
 21
-26.16746
 31
0.0
  0
LINE
  5
5F5
330
1E
100
AcDbEntity
  8
0
  6
CONTINUOUS
 62
     7
100
AcDbLine
 10
-98.673
 20
-26.16746
 30
0.0
 11
-99.87300000000001
 21
-26.489
 31
0.0
  0
LINE
  5
5F6
330
1E
100
AcDbEntity
  8
0
  6
CONTINUOUS
 62
     7
100
AcDbLine
 10
-99.87300000000001
 20
-26.489
 30
0.0
 11
-98.673
 21
-26.81053
 31
0.0
  0
TEXT
  5
5F7
330
1E
100
AcDbEntity
  8
0
  6
CONTINUOUS
 62
     7
100
AcDbText
 10
-100.590895051091
 20
-26.08973
 30
0.0
 40
3.2
  1
136
 41
0.8125
  7
BIGFONT
100
AcDbText
  0
LINE
  5
5F8
330
1E
100
AcDbEntity
  8
0
  6
CONTINUOUS
 62
     7
100
AcDbLine
 10
-95.34136
 20
-26.48972999999999
 30
0.0
 11
-42.03759999999999
 21
-26.48972999999999
 31
0.0
  0
LINE
  5
5F9
330
1E
100
AcDbEntity
  8
0
  6
CONTINUOUS
 62
     7
100
AcDbLine
 10
-42.03759999999999
 20
-33.82305999999999
 30
0.0
 11
-42.03759999999999
 21
-25.68972999999999
 31
0.0
  0
LINE
  5
5FA
330
1E
100
AcDbEntity
  8
0
  6
CONTINUOUS
 62
     7
100
AcDbLine
 10
-43.23699999999997
 20
-26.81053
 30
0.0
 11
-42.037
 21
-26.489
 31
0.0
  0
LINE
  5
5FB
330
1E
100
AcDbEntity
  8
0
  6
CONTINUOUS
 62
     7
100
AcDbLine
 10
-42.037
 20
-26.489
 30
0.0
 11
-43.23699999999997
 21
-26.16746
 31
0.0
  0
LINE
  5
5FC
330
1E
100
AcDbEntity
  8
0
  6
CONTINUOUS
 62
     7
100
AcDbLine
 10
-94.14100000000001
 20
-26.16746
 30
0.0
 11
-95.341
 21
-26.489
 31
0.0
  0
LINE
  5
5FD
330
1E
100
AcDbEntity
  8
0
  6
CONTINUOUS
 62
     7
100
AcDbLine
 10
-95.341
 20
-26.489
 30
0.0
 11
-94.14100000000001
 21
-26.81053
 31
0.0
  0
LINE
  5
5FE
330
1E
100
AcDbEntity
  8
0
  6
CONTINUOUS
 62
     7
100
AcDbLine
 10
-42.03759999999999
 20
-26.48972999999999
 30
0.0
 11
-40.3441
 21
-26.48972999999999
 31
0.0
  0
LINE
  5
5FF
330
1E
100
AcDbEntity
  8
0
  6
CONTINUOUS
 62
     7
100
AcDbLine
 10
-40.3441
 20
-30.314
 30
0.0
 11
-40.3441
 21
-25.68972999999999
 31
0.0
  0
LINE
  5
600
330
1E
100
AcDbEntity
  8
0
  6
CONTINUOUS
 62
     7
100
AcDbLine
 10
-37.9441
 20
-26.48972999999999
 30
0.0
 11
-40.3441
 21
-26.48972999999999
 31
0.0
  0
LINE
  5
601
330
1E
100
AcDbEntity
  8
0
  6
CONTINUOUS
 62
     7
100
AcDbLine
 10
-39.144
 20
-26.16746
 30
0.0
 11
-40.344
 21
-26.489
 31
0.0
  0
LINE
  5
602
330
1E
100
AcDbEntity
  8
0
  6
CONTINUOUS
 62
     7
100
AcDbLine
 10
-40.344
 20
-26.489
 30
0.0
 11
-39.144
 21
-26.81053
 31
0.0
  0
LINE
  5
603
330
1E
100
AcDbEntity
  8
0
  6
CONTINUOUS
 62
     7
100
AcDbLine
 10
-42.03759999999999
 20
-26.48972999999999
 30
0.0
 11
-44.4376
 21
-26.48972999999999
 31
0.0
  0
LINE
  5
604
330
1E
100
AcDbEntity
  8
0
  6
CONTINUOUS
 62
     7
100
AcDbLine
 10
-43.23699999999997
 20
-26.81053
 30
0.0
 11
-42.037
 21
-26.489
 31
0.0
  0
LINE
  5
605
330
1E
100
AcDbEntity
  8
0
  6
CONTINUOUS
 62
     7
100
AcDbLine
 10
-42.037
 20
-26.489
 30
0.0
 11
-43.23699999999997
 21
-26.16746
 31
0.0
  0
LINE
  5
606
330
1E
100
AcDbEntity
  8
0
  6
CONTINUOUS
 62
     7
100
AcDbLine
 10
-37.9441
 20
-26.48972999999999
 30
0.0
 11
-33.5841
 21
-26.48972999999999
 31
0.0
  0
TEXT
  5
607
330
1E
100
AcDbEntity
  8
0
  6
CONTINUOUS
 62
     7
100
AcDbText
 10
-38.7841
 20
-26.08973
 30
0.0
 40
3.2
  1
50
 41
0.8125
  7
BIGFONT
100
AcDbText
  0
POINT
  5
608
330
1E
100
AcDbEntity
  8
0
  6
CONTINUOUS
 62
     1
100
AcDbPoint
 10
35.0722
 20
118.37463
 30
0.0
  0
POINT
  5
609
330
1E
100
AcDbEntity
  8
0
  6
CONTINUOUS
 62
     1
100
AcDbPoint
 10
35.0722
 20
111.70796
 30
0.0
  0
POINT
  5
60A
330
1E
100
AcDbEntity
  8
0
  6
CONTINUOUS
 62
     7
100
AcDbPoint
 10
35.0722
 20
105.0413
 30
0.0
  0
POINT
  5
60B
330
1E
100
AcDbEntity
  8
0
  6
CONTINUOUS
 62
     1
100
AcDbPoint
 10
35.0722
 20
98.37462999999999
 30
0.0
  0
POINT
  5
60C
330
1E
100
AcDbEntity
  8
0
  6
CONTINUOUS
 62
     1
100
AcDbPoint
 10
35.0722
 20
91.70796000000001
 30
0.0
  0
POINT
  5
60D
330
1E
100
AcDbEntity
  8
0
  6
CONTINUOUS
 62
     1
100
AcDbPoint
 10
35.0722
 20
85.04130000000001
 30
0.0
  0
POINT
  5
60E
330
1E
100
AcDbEntity
  8
0
  6
CONTINUOUS
 62
     1
100
AcDbPoint
 10
35.0722
 20
78.37463000000003
 30
0.0
  0
POINT
  5
60F
330
1E
100
AcDbEntity
  8
0
  6
CONTINUOUS
 62
     1
100
AcDbPoint
 10
35.0722
 20
71.70796
 30
0.0
  0
POINT
  5
610
330
1E
100
AcDbEntity
  8
0
  6
CONTINUOUS
 62
     1
100
AcDbPoint
 10
35.0722
 20
65.0413
 30
0.0
  0
POINT
  5
611
330
1E
100
AcDbEntity
  8
0
  6
CONTINUOUS
 62
     1
100
AcDbPoint
 10
35.0722
 20
58.37463
 30
0.0
  0
LINE
  5
612
330
1E
100
AcDbEntity
  8
0
  6
CONTINUOUS
 62
     7
100
AcDbLine
 10
81.23876
 20
48.50795999999998
 30
0.0
 11
81.23876
 21
53.84129999999998
 31
0.0
  0
LINE
  5
613
330
1E
100
AcDbEntity
  8
0
  6
CONTINUOUS
 62
     7
100
AcDbLine
 10
81.23886
 20
48.90795999999999
 30
0.0
 11
81.23886
 21
53.84129999999998
 31
0.0
  0
LINE
  5
614
330
1E
100
AcDbEntity
  8
0
  6
CONTINUOUS
 62
     7
100
AcDbLine
 10
226.26876
 20
-92.07210000000001
 30
0.0
 11
232.3514299999999
 21
-84.82305999999999
 31
0.0
  0
LINE
  5
615
330
1E
100
AcDbEntity
  8
0
  6
CONTINUOUS
 62
     7
100
AcDbLine
 10
219.0180999999999
 20
-98.15640000000001
 30
0.0
 11
226.26876
 21
-92.07210000000001
 31
0.0
  0
LINE
  5
616
330
1E
100
AcDbEntity
  8
0
  6
CONTINUOUS
 62
     7
100
AcDbLine
 10
226.26876
 20
48.50795999999998
 30
0.0
 11
226.26876
 21
53.84129999999998
 31
0.0
  0
LINE
  5
617
330
1E
100
AcDbEntity
  8
0
  6
CONTINUOUS
 62
     7
100
AcDbLine
 10
174.35143
 20
-44.39826
 30
0.0
 11
178.5905999999999
 21
-40.1564
 31
0.0
  0
LINE
  5
618
330
1E
100
AcDbEntity
  8
0
  6
CONTINUOUS
 62
     7
100
AcDbLine
 10
178.5905999999999
 20
-40.1564
 30
0.0
 11
232.3514299999999
 21
-40.1564
 31
0.0
  0
LINE
  5
619
330
1E
100
AcDbEntity
  8
0
  6
CONTINUOUS
 62
     7
100
AcDbLine
 10
174.35143
 20
-98.15640000000001
 30
0.0
 11
174.35143
 21
-44.39826
 31
0.0
  0
LINE
  5
61A
330
1E
100
AcDbEntity
  8
0
  6
CONTINUOUS
 62
     7
100
AcDbLine
 10
180.0394
 20
-50.08423
 30
0.0
 11
184.27916
 21
-45.84297999999999
 31
0.0
  0
LINE
  5
61B
330
1E
100
AcDbEntity
  8
0
  6
CONTINUOUS
 62
     7
100
AcDbLine
 10
179.29783
 20
-40.86338
 30
0.0
 11
184.84495
 21
-46.40857
 31
0.0
  0
LINE
  5
61C
330
1E
100
AcDbEntity
  8
0
  6
CONTINUOUS
 62
     7
100
AcDbLine
 10
175.05866
 20
-45.10524
 30
0.0
 11
180.60518
 21
-50.64980999999999
 31
0.0
  0
LINE
  5
61D
330
1E
100
AcDbEntity
  8
0
  6
CONTINUOUS
 62
     7
100
AcDbLine
 10
183.65802
 20
-46.91799
 30
0.0
 11
184.2789999999999
 21
-45.842
 31
0.0
  0
LINE
  5
61E
330
1E
100
AcDbEntity
  8
0
  6
CONTINUOUS
 62
     7
100
AcDbLine
 10
184.2789999999999
 20
-45.842
 30
0.0
 11
183.20321
 21
-46.46334999999999
 31
0.0
  0
LINE
  5
61F
330
1E
100
AcDbEntity
  8
0
  6
CONTINUOUS
 62
     7
100
AcDbLine
 10
180.6599699999999
 20
-49.008
 30
0.0
 11
180.0389999999999
 21
-50.08399999999999
 31
0.0
  0
LINE
  5
620
330
1E
100
AcDbEntity
  8
0
  6
CONTINUOUS
 62
     7
100
AcDbLine
 10
180.0389999999999
 20
-50.08399999999999
 30
0.0
 11
181.11478
 21
-49.46264
 31
0.0
  0
TEXT
  5
621
330
1E
100
AcDbEntity
  8
0
  6
CONTINUOUS
 62
     7
100
AcDbText
 10
181.9480699999999
 20
-53.26694
 30
0.0
 40
3.2
  1
180
 50
45.0
 41
0.8125
  7
BIGFONT
100
AcDbText
  0
ARC
  5
622
330
1E
100
AcDbEntity
  8
0
  6
CONTINUOUS
 62
     7
100
AcDbCircle
 10
226.268
 20
-92.073
 30
0.0
 40
3.8916
100
AcDbArc
 50
50.0
 51
220.0
  0
ARC
  5
623
330
1E
100
AcDbEntity
  8
0
  6
CONTINUOUS
 62
     7
100
AcDbCircle
 10
227.12501
 20
-92.61869
 30
0.0
 40
3.891949999999998
100
AcDbArc
 50
65.01347700000001
 51
82.679383
  0
ARC
  5
624
330
1E
100
AcDbEntity
  8
0
  6
CONTINUOUS
 62
     7
100
AcDbCircle
 10
225.58142
 20
-91.32407999999999
 30
0.0
 40
3.891949999999998
100
AcDbArc
 50
35.013477
 51
52.67938299999999
  0
ARC
  5
625
330
1E
100
AcDbEntity
  8
0
  6
CONTINUOUS
 62
     7
100
AcDbCircle
 10
225.5190799999999
 20
-91.38642
 30
0.0
 40
3.891949999999998
100
AcDbArc
 50
217.3206099999999
 51
234.9865199999999
  0
ARC
  5
626
330
1E
100
AcDbEntity
  8
0
  6
CONTINUOUS
 62
     7
100
AcDbCircle
 10
226.81369
 20
-92.93001
 30
0.0
 40
3.891949999999998
100
AcDbArc
 50
187.32061
 51
204.9865199999999
  0
TEXT
  5
627
330
1E
100
AcDbEntity
  8
0
  6
CONTINUOUS
 62
     7
100
AcDbText
 10
219.55642
 20
-92.71532999999999
 30
0.0
 40
3.2
  1
170°
 50
45.0
 41
0.8125
  7
BIGFONT
100
AcDbText
  0
LINE
  5
628
330
1E
100
AcDbEntity
  8
0
  6
CONTINUOUS
 62
     7
100
AcDbLine
 10
-171.09343
 20
-92.07210000000001
 30
0.0
 11
-165.01076
 21
-84.82305999999999
 31
0.0
  0
LINE
  5
629
330
1E
100
AcDbEntity
  8
0
  6
CONTINUOUS
 62
     7
100
AcDbLine
 10
-178.3441
 20
-98.15640000000001
 30
0.0
 11
-171.09343
 21
-92.07210000000001
 31
0.0
  0
LINE
  5
62A
330
1E
100
AcDbEntity
  8
0
  6
CONTINUOUS
 62
     7
100
AcDbLine
 10
-46.42675999999998
 20
-92.07210000000001
 30
0.0
 11
-40.3441
 21
-84.82305999999999
 31
0.0
  0
LINE
  5
62B
330
1E
100
AcDbEntity
  8
0
  6
CONTINUOUS
 62
     7
100
AcDbLine
 10
-53.67743
 20
-98.15640000000001
 30
0.0
 11
-46.42675999999998
 21
-92.07210000000001
 31
0.0
  0
LINE
  5
66C
330
1E
100
AcDbEntity
  8
2
  6
CONTINUOUS
 62
     7
100
AcDbLine
 10
67.6074
 20
-144.4930999999999
 30
0.0
 11
135.6074
 21
-144.4930999999999
 31
0.0
  0
LINE
  5
66D
330
1E
100
AcDbEntity
  8
2
  6
CONTINUOUS
 62
     7
100
AcDbLine
 10
135.6074
 20
-169.4930999999999
 30
0.0
 11
135.6074
 21
-144.4930999999999
 31
0.0
  0
LINE
  5
66E
330
1E
100
AcDbEntity
  8
2
  6
CONTINUOUS
 62
     7
100
AcDbLine
 10
67.6074
 20
-169.4930999999999
 30
0.0
 11
135.6074
 21
-169.4930999999999
 31
0.0
  0
LINE
  5
66F
330
1E
100
AcDbEntity
  8
2
  6
CONTINUOUS
 62
     7
100
AcDbLine
 10
67.6074
 20
-169.4930999999999
 30
0.0
 11
67.6074
 21
-144.4930999999999
 31
0.0
  0
LINE
  5
670
330
1E
100
AcDbEntity
  8
2
  6
CONTINUOUS
 62
     7
100
AcDbLine
 10
67.6074
 20
-151.4930999999999
 30
0.0
 11
135.6074
 21
-151.4930999999999
 31
0.0
  0
LINE
  5
671
330
1E
100
AcDbEntity
  8
2
  6
CONTINUOUS
 62
     7
100
AcDbLine
 10
67.6074
 20
-157.4931
 30
0.0
 11
135.6074
 21
-157.4931
 31
0.0
  0
LINE
  5
672
330
1E
100
AcDbEntity
  8
2
  6
CONTINUOUS
 62
     7
100
AcDbLine
 10
67.6074
 20
-163.4930999999999
 30
0.0
 11
135.6074
 21
-163.4930999999999
 31
0.0
  0
LINE
  5
673
330
1E
100
AcDbEntity
  8
2
  6
CONTINUOUS
 62
     7
100
AcDbLine
 10
115.6074
 20
-169.4930999999999
 30
0.0
 11
115.6074
 21
-151.4930999999999
 31
0.0
  0
TEXT
  5
674
330
1E
100
AcDbEntity
  8
2
  6
CONTINUOUS
 62
     7
100
AcDbText
 10
73.4539
 20
-156.4931
 30
0.0
 40
4.0
  1
鉄　　筋
  7
BIGFONT
100
AcDbText
  0
TEXT
  5
675
330
1E
100
AcDbEntity
  8
2
  6
CONTINUOUS
 62
     7
100
AcDbText
 10
73.4539
 20
-162.4931
 30
0.0
 40
4.0
  1
コンクリート容積
  7
BIGFONT
100
AcDbText
  0
TEXT
  5
676
330
1E
100
AcDbEntity
  8
2
  6
CONTINUOUS
 62
     7
100
AcDbText
 10
73.4539
 20
-168.4930999999999
 30
0.0
 40
4.0
  1
総　重　量
  7
BIGFONT
100
AcDbText
  0
TEXT
  5
677
330
1E
100
AcDbEntity
  8
2
  6
CONTINUOUS
 62
     7
100
AcDbText
 10
75.3853
 20
-150.2776
 30
0.0
 40
5.0
  1
重　量　内　訳　表
  7
BIGFONT
100
AcDbText
  0
TEXT
  5
678
330
1E
100
AcDbEntity
  8
2
  6
CONTINUOUS
 62
     7
100
AcDbText
 10
116.3588999999999
 20
-156.4931
 30
0.0
 40
3.2
  1
213.74
  7
BIGFONT
100
AcDbText
  0
TEXT
  5
679
330
1E
100
AcDbEntity
  8
2
  6
CONTINUOUS
 62
     7
100
AcDbText
 10
131.4613452781499
 20
-156.4931
 30
0.0
 40
2.799999999999998
  1
ｋｇ
 41
0.7
  7
BIGFONT
100
AcDbText
  0
TEXT
  5
67A
330
1E
100
AcDbEntity
  8
2
  6
CONTINUOUS
 62
     7
100
AcDbText
 10
117.8589
 20
-162.6217
 30
0.0
 40
3.2
  1
1.796
  7
BIGFONT
100
AcDbText
  0
TEXT
  5
67B
330
1E
100
AcDbEntity
  8
2
  6
CONTINUOUS
 62
     7
100
AcDbText
 10
118.7589
 20
-168.6217
 30
0.0
 40
3.2
  1
4310
  7
BIGFONT
100
AcDbText
  0
TEXT
  5
67C
330
1E
100
AcDbEntity
  8
2
  6
CONTINUOUS
 62
     7
100
AcDbText
 10
131.4102452781501
 20
-168.4930999999999
 30
0.0
 40
2.799999999999998
  1
ｋｇ
 41
0.7
  7
BIGFONT
100
AcDbText
  0
TEXT
  5
67D
330
1E
100
AcDbEntity
  8
2
  6
CONTINUOUS
 62
     7
100
AcDbText
 10
131.6620452781499
 20
-162.4931
 30
0.0
 40
2.799999999999998
  1
ｍ
 41
0.7
  7
BIGFONT
100
AcDbText
  0
TEXT
  5
67E
330
1E
100
AcDbEntity
  8
2
  6
CONTINUOUS
 62
     7
100
AcDbText
 10
133.3291210198022
 20
-161.2898999999998
 30
0.0
 40
1.199999999999999
  1
３
 41
0.8
  7
BIGFONT
100
AcDbText
  0
LINE
  5
704
330
1E
100
AcDbEntity
  8
2
  6
CONTINUOUS
 62
     7
100
AcDbLine
 10
-11.39259999999999
 20
-138.4930999999996
 30
0.0
 11
135.6073999999995
 21
-138.4930999999996
 31
0.0
  0
LINE
  5
705
330
1E
100
AcDbEntity
  8
2
  6
CONTINUOUS
 62
     7
100
AcDbLine
 10
-11.39259999999999
 20
-130.4930999999999
 30
0.0
 11
135.6073999999995
 21
-130.4930999999999
 31
0.0
  0
LINE
  5
706
330
1E
100
AcDbEntity
  8
2
  6
CONTINUOUS
 62
     7
100
AcDbLine
 10
-11.39259999999999
 20
-122.4930999999999
 30
0.0
 11
135.6073999999995
 21
-122.4930999999999
 31
0.0
  0
LINE
  5
707
330
1E
100
AcDbEntity
  8
2
  6
CONTINUOUS
 62
     7
100
AcDbLine
 10
-11.39259999999999
 20
-114.4930999999995
 30
0.0
 11
135.6073999999995
 21
-114.4930999999995
 31
0.0
  0
LINE
  5
708
330
1E
100
AcDbEntity
  8
2
  6
CONTINUOUS
 62
     7
100
AcDbLine
 10
-11.39259999999999
 20
-98.4931
 30
0.0
 11
135.6073999999995
 21
-98.4931
 31
0.0
  0
LINE
  5
709
330
1E
100
AcDbEntity
  8
2
  6
CONTINUOUS
 62
     7
100
AcDbLine
 10
-11.39259999999999
 20
-85.49310000000003
 30
0.0
 11
135.6073999999995
 21
-85.49310000000003
 31
0.0
  0
LINE
  5
70A
330
1E
100
AcDbEntity
  8
2
  6
CONTINUOUS
 62
     7
100
AcDbLine
 10
-11.39259999999999
 20
-106.4930999999996
 30
0.0
 11
135.6073999999995
 21
-106.4930999999996
 31
0.0
  0
LINE
  5
70B
330
1E
100
AcDbEntity
  8
2
  6
CONTINUOUS
 62
     7
100
AcDbLine
 10
-11.39259999999999
 20
-59.4931
 30
0.0
 11
135.6073999999995
 21
-59.4931
 31
0.0
  0
LINE
  5
70C
330
1E
100
AcDbEntity
  8
2
  6
CONTINUOUS
 62
     7
100
AcDbLine
 10
-11.39259999999999
 20
-67.4931
 30
0.0
 11
135.6073999999995
 21
-67.4931
 31
0.0
  0
TEXT
  5
70E
330
1E
100
AcDbEntity
  8
2
  6
CONTINUOUS
 62
     7
100
AcDbText
 10
-4.073700000000028
 20
-48.43610000000001
 30
0.0
 40
5.0
  1
鉄筋表
  7
BIGFONT
100
AcDbText
  0
LINE
  5
70F
330
1E
100
AcDbEntity
  8
2
  6
CONTINUOUS
 62
     7
100
AcDbLine
 10
-11.39259999999999
 20
-138.4930999999996
 30
0.0
 11
-11.39259999999999
 21
-106.4930999999996
 31
0.0
  0
LINE
  5
710
330
1E
100
AcDbEntity
  8
2
  6
CONTINUOUS
 62
     7
100
AcDbLine
 10
-1.392600000000014
 20
-130.4930999999999
 30
0.0
 11
-1.392600000000014
 21
-51.49309999999999
 31
0.0
  0
LINE
  5
711
330
1E
100
AcDbEntity
  8
2
  6
CONTINUOUS
 62
     7
100
AcDbLine
 10
-11.39259999999999
 20
-106.4930999999996
 30
0.0
 11
-11.39259999999999
 21
-67.4931
 31
0.0
  0
TEXT
  5
712
330
1E
100
AcDbEntity
  8
2
  6
CONTINUOUS
 62
     7
100
AcDbText
 10
-7.946500000000012
 20
-119.9787999999996
 30
0.0
 40
3.5
  1
６
  7
BIGFONT
100
AcDbText
  0
TEXT
  5
713
330
1E
100
AcDbEntity
  8
2
  6
CONTINUOUS
 62
     7
100
AcDbText
 10
-7.946500000000012
 20
-127.9787999999999
 30
0.0
 40
3.5
  1
７
  7
BIGFONT
100
AcDbText
  0
TEXT
  5
714
330
1E
100
AcDbEntity
  8
2
  6
CONTINUOUS
 62
     7
100
AcDbText
 10
-7.946500000000012
 20
-111.9787999999999
 30
0.0
 40
3.5
  1
５
  7
BIGFONT
100
AcDbText
  0
TEXT
  5
715
330
1E
100
AcDbEntity
  8
2
  6
CONTINUOUS
 62
     7
100
AcDbText
 10
-7.946500000000012
 20
-103.9787999999999
 30
0.0
 40
3.5
  1
４
  7
BIGFONT
100
AcDbText
  0
TEXT
  5
716
330
1E
100
AcDbEntity
  8
2
  6
CONTINUOUS
 62
     7
100
AcDbText
 10
-7.911200000000008
 20
-90.86020000000001
 30
0.0
 40
3.5
  1
３
  7
BIGFONT
100
AcDbText
  0
TEXT
  5
717
330
1E
100
AcDbEntity
  8
2
  6
CONTINUOUS
 62
     7
100
AcDbText
 10
-7.911200000000008
 20
-73.36019999999995
 30
0.0
 40
3.5
  1
２
  7
BIGFONT
100
AcDbText
  0
TEXT
  5
718
330
1E
100
AcDbEntity
  8
2
  6
CONTINUOUS
 62
     7
100
AcDbText
 10
-10.6698
 20
-57.82230000000001
 30
0.0
 40
4.0
  1
番号
  7
BIGFONT
100
AcDbText
  0
LINE
  5
719
330
1E
100
AcDbEntity
  8
2
  6
CONTINUOUS
 62
     7
100
AcDbLine
 10
-11.39259999999999
 20
-67.4931
 30
0.0
 11
-11.39259999999999
 21
-51.49309999999999
 31
0.0
  0
TEXT
  5
71A
330
1E
100
AcDbEntity
  8
2
  6
CONTINUOUS
 62
     7
100
AcDbText
 10
-7.946500000000012
 20
-64.97880000000001
 30
0.0
 40
3.5
  1
１
  7
BIGFONT
100
AcDbText
  0
LINE
  5
71B
330
1E
100
AcDbEntity
  8
2
  6
CONTINUOUS
 62
     7
100
AcDbLine
 10
135.6073999999995
 20
-138.4930999999996
 30
0.0
 11
135.6073999999995
 21
-106.4930999999996
 31
0.0
  0
LINE
  5
71C
330
1E
100
AcDbEntity
  8
2
  6
CONTINUOUS
 62
     7
100
AcDbLine
 10
100.6073999999997
 20
-138.4930999999996
 30
0.0
 11
100.6073999999997
 21
-51.49309999999999
 31
0.0
  0
TEXT
  5
71D
330
1E
100
AcDbEntity
  8
2
  6
CONTINUOUS
 62
     7
100
AcDbText
 10
83.34219999999993
 20
-136.7505999999999
 30
0.0
 40
4.0
  1
合計
  7
BIGFONT
100
AcDbText
  0
TEXT
  5
71E
330
1E
100
AcDbEntity
  8
2
  6
CONTINUOUS
 62
     7
100
AcDbText
 10
113.1527999999996
 20
-136.7505999999999
 30
0.0
 40
3.2
  1
213.74
  7
BIGFONT
100
AcDbText
  0
TEXT
  5
71F
330
1E
100
AcDbEntity
  8
2
  6
CONTINUOUS
 62
     7
100
AcDbText
 10
129.2573727605088
 20
-136.7505999999999
 30
0.0
 40
3.2
  1
ｋｇ
 41
0.8
  7
BIGFONT
100
AcDbText
  0
TEXT
  5
720
330
1E
100
AcDbEntity
  8
2
  6
CONTINUOUS
 62
     7
100
AcDbText
 10
85.11798355856502
 20
-112.0166999999999
 30
0.0
 40
3.5
  1
3477
  7
BIGFONT
100
AcDbText
  0
TEXT
  5
721
330
1E
100
AcDbEntity
  8
2
  6
CONTINUOUS
 62
     7
100
AcDbText
 10
85.36008794011387
 20
-120.0166999999999
 30
0.0
 40
3.5
  1
3595
  7
BIGFONT
100
AcDbText
  0
TEXT
  5
722
330
1E
100
AcDbEntity
  8
2
  6
CONTINUOUS
 62
     7
100
AcDbText
 10
88.68830644163748
 20
-128.0166999999995
 30
0.0
 40
3.5
  1
553
  7
BIGFONT
100
AcDbText
  0
TEXT
  5
723
330
1E
100
AcDbEntity
  8
2
  6
CONTINUOUS
 62
     7
100
AcDbText
 10
88.6775715492487
 20
-104.0166999999996
 30
0.0
 40
3.5
  1
577
  7
BIGFONT
100
AcDbText
  0
TEXT
  5
724
330
1E
100
AcDbEntity
  8
2
  6
CONTINUOUS
 62
     7
100
AcDbText
 10
86.37546550422724
 20
-78.71528950402725
 30
0.0
 40
3.5
  1
1809
  7
BIGFONT
100
AcDbText
  0
TEXT
  5
725
330
1E
100
AcDbEntity
  8
2
  6
CONTINUOUS
 62
     7
100
AcDbText
 10
87.1008502760293
 20
-96.71528950402731
 30
0.0
 40
3.5
  1
3105
  7
BIGFONT
100
AcDbText
  0
TEXT
  5
726
330
1E
100
AcDbEntity
  8
2
  6
CONTINUOUS
 62
     7
100
AcDbText
 10
86.37546550422724
 20
-90.20472932312744
 30
0.0
 40
3.5
  1
2145
  7
BIGFONT
100
AcDbText
  0
TEXT
  5
727
330
1E
100
AcDbEntity
  8
2
  6
CONTINUOUS
 62
     7
100
AcDbText
 10
86.37546550422724
 20
-72.20472932312745
 30
0.0
 40
3.5
  1
1609
  7
BIGFONT
100
AcDbText
  0
TEXT
  5
728
330
1E
100
AcDbEntity
  8
2
  6
CONTINUOUS
 62
     7
100
AcDbText
 10
86.72633276430053
 20
-65.01669999999998
 30
0.0
 40
3.5
  1
2297
  7
BIGFONT
100
AcDbText
  0
TEXT
  5
729
330
1E
100
AcDbEntity
  8
2
  6
CONTINUOUS
 62
     7
100
AcDbText
 10
86.37546550422724
 20
-84.03180440334489
 30
0.0
 40
3.5
  1
1967
  7
BIGFONT
100
AcDbText
  0
LINE
  5
72A
330
1E
100
AcDbEntity
  8
2
  6
CONTINUOUS
 62
     7
100
AcDbLine
 10
31.60739999999998
 20
-130.4930999999999
 30
0.0
 11
31.60739999999998
 21
-51.49309999999999
 31
0.0
  0
LINE
  5
72B
330
1E
100
AcDbEntity
  8
2
  6
CONTINUOUS
 62
     7
100
AcDbLine
 10
49.60739999999998
 20
-130.4930999999999
 30
0.0
 11
49.60739999999998
 21
-51.49309999999999
 31
0.0
  0
LINE
  5
72C
330
1E
100
AcDbEntity
  8
2
  6
CONTINUOUS
 62
     7
100
AcDbLine
 10
67.60739999999998
 20
-130.4930999999999
 30
0.0
 11
67.60739999999998
 21
-51.49309999999999
 31
0.0
  0
LINE
  5
72D
330
1E
100
AcDbEntity
  8
2
  6
CONTINUOUS
 62
     7
100
AcDbLine
 10
82.60739999999998
 20
-130.4930999999999
 30
0.0
 11
82.60739999999998
 21
-51.49309999999999
 31
0.0
  0
LINE
  5
72E
330
1E
100
AcDbEntity
  8
2
  6
CONTINUOUS
 62
     7
100
AcDbLine
 10
13.60739999999998
 20
-130.4930999999999
 30
0.0
 11
13.60739999999998
 21
-51.49309999999999
 31
0.0
  0
TEXT
  5
72F
330
1E
100
AcDbEntity
  8
2
  6
CONTINUOUS
 62
     7
100
AcDbText
 10
2.053499999999985
 20
-103.9787999999999
 30
0.0
 40
3.5
  1
D13
  7
BIGFONT
100
AcDbText
  0
TEXT
  5
730
330
1E
100
AcDbEntity
  8
2
  6
CONTINUOUS
 62
     7
100
AcDbText
 10
22.45722941860786
 20
-104.0166999999996
 30
0.0
 40
3.5
  1
104
  7
BIGFONT
100
AcDbText
  0
TEXT
  5
731
330
1E
100
AcDbEntity
  8
2
  6
CONTINUOUS
 62
     7
100
AcDbText
 10
37.13095106170624
 20
-104.0166999999996
 30
0.0
 40
3.5
  1
369
  7
BIGFONT
100
AcDbText
  0
TEXT
  5
732
330
1E
100
AcDbEntity
  8
2
  6
CONTINUOUS
 62
     7
100
AcDbText
 10
20.42158071736645
 20
-128.0166999999995
 30
0.0
 40
3.5
  1
553
  7
BIGFONT
100
AcDbText
  0
TEXT
  5
733
330
1E
100
AcDbEntity
  8
2
  6
CONTINUOUS
 62
     7
100
AcDbText
 10
18.71846492347787
 20
-120.0166999999999
 30
0.0
 40
3.5
  1
1770
  7
BIGFONT
100
AcDbText
  0
TEXT
  5
734
330
1E
100
AcDbEntity
  8
2
  6
CONTINUOUS
 62
     7
100
AcDbText
 10
19.79928872418724
 20
-112.0166999999999
 30
0.0
 40
3.5
  1
1710
  7
BIGFONT
100
AcDbText
  0
TEXT
  5
735
330
1E
100
AcDbEntity
  8
2
  6
CONTINUOUS
 62
     7
100
AcDbText
 10
2.053499999999985
 20
-119.9787999999996
 30
0.0
 40
3.5
  1
D10
  7
BIGFONT
100
AcDbText
  0
TEXT
  5
736
330
1E
100
AcDbEntity
  8
2
  6
CONTINUOUS
 62
     7
100
AcDbText
 10
2.053499999999985
 20
-127.9787999999999
 30
0.0
 40
3.5
  1
D10
  7
BIGFONT
100
AcDbText
  0
TEXT
  5
737
330
1E
100
AcDbEntity
  8
2
  6
CONTINUOUS
 62
     7
100
AcDbText
 10
2.053499999999985
 20
-111.9787999999999
 30
0.0
 40
3.5
  1
D13
  7
BIGFONT
100
AcDbText
  0
TEXT
  5
738
330
1E
100
AcDbEntity
  8
2
  6
CONTINUOUS
 62
     7
100
AcDbText
 10
40.6589968156178
 20
-120.0166999999999
 30
0.0
 40
3.5
  1
55
  7
BIGFONT
100
AcDbText
  0
TEXT
  5
739
330
1E
100
AcDbEntity
  8
2
  6
CONTINUOUS
 62
     7
100
AcDbText
 10
44.64784321453374
 20
-128.0166999999995
 30
0.0
 40
3.5
  1
0
  7
BIGFONT
100
AcDbText
  0
TEXT
  5
73A
330
1E
100
AcDbEntity
  8
2
  6
CONTINUOUS
 62
     7
100
AcDbText
 10
40.6589968156178
 20
-112.0166999999999
 30
0.0
 40
3.5
  1
57
  7
BIGFONT
100
AcDbText
  0
TEXT
  5
73B
330
1E
100
AcDbEntity
  8
2
  6
CONTINUOUS
 62
     7
100
AcDbText
 10
18.50050381723951
 20
-72.63465091359839
 30
0.0
 40
3.5
  1
1405
  7
BIGFONT
100
AcDbText
  0
TEXT
  5
73C
330
1E
100
AcDbEntity
  8
2
  6
CONTINUOUS
 62
     7
100
AcDbText
 10
18.49803125710296
 20
-78.51320954686215
 30
0.0
 40
3.5
  1
1605
  7
BIGFONT
100
AcDbText
  0
TEXT
  5
73D
330
1E
100
AcDbEntity
  8
2
  6
CONTINUOUS
 62
     7
100
AcDbText
 10
18.72126492573909
 20
-96.51320954686216
 30
0.0
 40
3.5
  1
1780
  7
BIGFONT
100
AcDbText
  0
TEXT
  5
73E
330
1E
100
AcDbEntity
  8
2
  6
CONTINUOUS
 62
     7
100
AcDbText
 10
20.97496162934351
 20
-90.63465091359844
 30
0.0
 40
3.5
  1
820
  7
BIGFONT
100
AcDbText
  0
TEXT
  5
73F
330
1E
100
AcDbEntity
  8
2
  6
CONTINUOUS
 62
     7
100
AcDbText
 10
18.22169056883882
 20
-83.82972444617982
 30
0.0
 40
3.5
  1
1764
  7
BIGFONT
100
AcDbText
  0
TEXT
  5
740
330
1E
100
AcDbEntity
  8
2
  6
CONTINUOUS
 62
     7
100
AcDbText
 10
2.088799999999991
 20
-95.55349999999998
 30
0.0
 40
3.5
  1
D10
  7
BIGFONT
100
AcDbText
  0
TEXT
  5
741
330
1E
100
AcDbEntity
  8
2
  6
CONTINUOUS
 62
     7
100
AcDbText
 10
2.088799999999991
 20
-90.86020000000001
 30
0.0
 40
3.5
  1
D10
  7
BIGFONT
100
AcDbText
  0
TEXT
  5
742
330
1E
100
AcDbEntity
  8
2
  6
CONTINUOUS
 62
     7
100
AcDbText
 10
2.088799999999991
 20
-78.05350000000001
 30
0.0
 40
3.5
  1
D16
  7
BIGFONT
100
AcDbText
  0
TEXT
  5
743
330
1E
100
AcDbEntity
  8
2
  6
CONTINUOUS
 62
     7
100
AcDbText
 10
2.088799999999991
 20
-83.37001489931768
 30
0.0
 40
3.5
  1
D16
  7
BIGFONT
100
AcDbText
  0
TEXT
  5
744
330
1E
100
AcDbEntity
  8
2
  6
CONTINUOUS
 62
     7
100
AcDbText
 10
2.088799999999991
 20
-73.36019999999995
 30
0.0
 40
3.5
  1
D16
  7
BIGFONT
100
AcDbText
  0
TEXT
  5
745
330
1E
100
AcDbEntity
  8
2
  6
CONTINUOUS
 62
     7
100
AcDbText
 10
40.6589968156178
 20
-96.51320954686216
 30
0.0
 40
3.5
  1
55
  7
BIGFONT
100
AcDbText
  0
TEXT
  5
746
330
1E
100
AcDbEntity
  8
2
  6
CONTINUOUS
 62
     7
100
AcDbText
 10
40.6589968156178
 20
-90.63465091359844
 30
0.0
 40
3.5
  1
55
  7
BIGFONT
100
AcDbText
  0
TEXT
  5
747
330
1E
100
AcDbEntity
  8
2
  6
CONTINUOUS
 62
     7
100
AcDbText
 10
40.6589968156178
 20
-78.51320954686215
 30
0.0
 40
3.5
  1
75
  7
BIGFONT
100
AcDbText
  0
TEXT
  5
748
330
1E
100
AcDbEntity
  8
2
  6
CONTINUOUS
 62
     7
100
AcDbText
 10
40.6589968156178
 20
-83.82972444617982
 30
0.0
 40
3.5
  1
75
  7
BIGFONT
100
AcDbText
  0
TEXT
  5
749
330
1E
100
AcDbEntity
  8
2
  6
CONTINUOUS
 62
     7
100
AcDbText
 10
40.6589968156178
 20
-72.63465091359839
 30
0.0
 40
3.5
  1
75
  7
BIGFONT
100
AcDbText
  0
TEXT
  5
74A
330
1E
100
AcDbEntity
  8
2
  6
CONTINUOUS
 62
     7
100
AcDbText
 10
56.2459920545158
 20
-104.0166999999996
 30
0.0
 40
3.5
  1
104
  7
BIGFONT
100
AcDbText
  0
TEXT
  5
74B
330
1E
100
AcDbEntity
  8
2
  6
CONTINUOUS
 62
     7
100
AcDbText
 10
75.59347511317048
 20
-104.0166999999996
 30
0.0
 40
3.5
  1
0
  7
BIGFONT
100
AcDbText
  0
TEXT
  5
74C
330
1E
100
AcDbEntity
  8
2
  6
CONTINUOUS
 62
     7
100
AcDbText
 10
53.39072822305035
 20
-120.0166999999999
 30
0.0
 40
3.5
  1
1770
  7
BIGFONT
100
AcDbText
  0
TEXT
  5
74D
330
1E
100
AcDbEntity
  8
2
  6
CONTINUOUS
 62
     7
100
AcDbText
 10
62.74966108596493
 20
-128.0166999999995
 30
0.0
 40
3.5
  1
0
  7
BIGFONT
100
AcDbText
  0
TEXT
  5
74E
330
1E
100
AcDbEntity
  8
2
  6
CONTINUOUS
 62
     7
100
AcDbText
 10
54.47424165613814
 20
-112.0166999999999
 30
0.0
 40
3.5
  1
1710
  7
BIGFONT
100
AcDbText
  0
TEXT
  5
74F
330
1E
100
AcDbEntity
  8
2
  6
CONTINUOUS
 62
     7
100
AcDbText
 10
72.06748515869151
 20
-120.0166999999999
 30
0.0
 40
3.5
  1
30
  7
BIGFONT
100
AcDbText
  0
TEXT
  5
750
330
1E
100
AcDbEntity
  8
2
  6
CONTINUOUS
 62
     7
100
AcDbText
 10
75.59347511317037
 20
-128.0166999999995
 30
0.0
 40
3.5
  1
0
  7
BIGFONT
100
AcDbText
  0
TEXT
  5
751
330
1E
100
AcDbEntity
  8
2
  6
CONTINUOUS
 62
     7
100
AcDbText
 10
72.06748515869151
 20
-112.0166999999999
 30
0.0
 40
3.5
  1
30
  7
BIGFONT
100
AcDbText
  0
TEXT
  5
752
330
1E
100
AcDbEntity
  8
2
  6
CONTINUOUS
 62
     7
100
AcDbText
 10
53.33546678307687
 20
-96.51320954686216
 30
0.0
 40
3.5
  1
1270
  7
BIGFONT
100
AcDbText
  0
TEXT
  5
753
330
1E
100
AcDbEntity
  8
2
  6
CONTINUOUS
 62
     7
100
AcDbText
 10
53.33546678307687
 20
-90.63465091359844
 30
0.0
 40
3.5
  1
1270
  7
BIGFONT
100
AcDbText
  0
TEXT
  5
754
330
1E
100
AcDbEntity
  8
2
  6
CONTINUOUS
 62
     7
100
AcDbText
 10
56.2272106440006
 20
-78.51320954686215
 30
0.0
 40
3.5
  1
128
  7
BIGFONT
100
AcDbText
  0
TEXT
  5
755
330
1E
100
AcDbEntity
  8
2
  6
CONTINUOUS
 62
     7
100
AcDbText
 10
56.2272106440006
 20
-72.63465091359839
 30
0.0
 40
3.5
  1
128
  7
BIGFONT
100
AcDbText
  0
TEXT
  5
756
330
1E
100
AcDbEntity
  8
2
  6
CONTINUOUS
 62
     7
100
AcDbText
 10
56.2272106440006
 20
-83.82972444617982
 30
0.0
 40
3.5
  1
128
  7
BIGFONT
100
AcDbText
  0
TEXT
  5
757
330
1E
100
AcDbEntity
  8
2
  6
CONTINUOUS
 62
     7
100
AcDbText
 10
72.06748515869151
 20
-96.71528950402731
 30
0.0
 40
3.5
  1
30
  7
BIGFONT
100
AcDbText
  0
TEXT
  5
758
330
1E
100
AcDbEntity
  8
2
  6
CONTINUOUS
 62
     7
100
AcDbText
 10
72.06748515869151
 20
-90.20472932312744
 30
0.0
 40
3.5
  1
30
  7
BIGFONT
100
AcDbText
  0
TEXT
  5
759
330
1E
100
AcDbEntity
  8
2
  6
CONTINUOUS
 62
     7
100
AcDbText
 10
72.06748515869151
 20
-78.71528950402725
 30
0.0
 40
3.5
  1
40
  7
BIGFONT
100
AcDbText
  0
TEXT
  5
75A
330
1E
100
AcDbEntity
  8
2
  6
CONTINUOUS
 62
     7
100
AcDbText
 10
72.06748515869151
 20
-84.03180440334489
 30
0.0
 40
3.5
  1
40
  7
BIGFONT
100
AcDbText
  0
TEXT
  5
75B
330
1E
100
AcDbEntity
  8
2
  6
CONTINUOUS
 62
     7
100
AcDbText
 10
72.06748515869151
 20
-72.20472932312745
 30
0.0
 40
3.5
  1
40
  7
BIGFONT
100
AcDbText
  0
TEXT
  5
75C
330
1E
100
AcDbEntity
  8
2
  6
CONTINUOUS
 62
     7
100
AcDbText
 10
17.64626453291941
 20
-65.01669999999998
 30
0.0
 40
3.5
  1
2094
  7
BIGFONT
100
AcDbText
  0
TEXT
  5
75D
330
1E
100
AcDbEntity
  8
2
  6
CONTINUOUS
 62
     7
100
AcDbText
 10
19.35119999999995
 20
-58.00109999999998
 30
0.0
 40
4.0
  1
Ｌ１
  7
BIGFONT
100
AcDbText
  0
TEXT
  5
75E
330
1E
100
AcDbEntity
  8
2
  6
CONTINUOUS
 62
     7
100
AcDbText
 10
2.053499999999985
 20
-64.97880000000001
 30
0.0
 40
3.5
  1
D16
  7
BIGFONT
100
AcDbText
  0
TEXT
  5
75F
330
1E
100
AcDbEntity
  8
2
  6
CONTINUOUS
 62
     7
100
AcDbText
 10
4.370199999999951
 20
-57.99800000000002
 30
0.0
 40
4.0
  1
径
  7
BIGFONT
100
AcDbText
  0
TEXT
  5
760
330
1E
100
AcDbEntity
  8
2
  6
CONTINUOUS
 62
     7
100
AcDbText
 10
40.6589968156178
 20
-65.01669999999998
 30
0.0
 40
3.5
  1
75
  7
BIGFONT
100
AcDbText
  0
TEXT
  5
761
330
1E
100
AcDbEntity
  8
2
  6
CONTINUOUS
 62
     7
100
AcDbText
 10
37.04999999999995
 20
-58.03649999999999
 30
0.0
 40
4.0
  1
Ｌ２
  7
BIGFONT
100
AcDbText
  0
TEXT
  5
762
330
1E
100
AcDbEntity
  8
2
  6
CONTINUOUS
 62
     7
100
AcDbText
 10
56.2272106440006
 20
-65.01669999999998
 30
0.0
 40
3.5
  1
128
  7
BIGFONT
100
AcDbText
  0
TEXT
  5
763
330
1E
100
AcDbEntity
  8
2
  6
CONTINUOUS
 62
     7
100
AcDbText
 10
54.23950000000002
 20
-57.96559999999999
 30
0.0
 40
4.0
  1
Ｌ３
  7
BIGFONT
100
AcDbText
  0
TEXT
  5
764
330
1E
100
AcDbEntity
  8
2
  6
CONTINUOUS
 62
     7
100
AcDbText
 10
72.06748515869151
 20
-65.01669999999998
 30
0.0
 40
3.5
  1
40
  7
BIGFONT
100
AcDbText
  0
TEXT
  5
765
330
1E
100
AcDbEntity
  8
2
  6
CONTINUOUS
 62
     7
100
AcDbText
 10
73.40970000000004
 20
-58.00109999999998
 30
0.0
 40
4.0
  1
Ｒ
  7
BIGFONT
100
AcDbText
  0
TEXT
  5
766
330
1E
100
AcDbEntity
  8
2
  6
CONTINUOUS
 62
     7
100
AcDbText
 10
89.31079999999996
 20
-58.03649999999999
 30
0.0
 40
4.0
  1
Ｌ
  7
BIGFONT
100
AcDbText
  0
LINE
  5
767
330
1E
100
AcDbEntity
  8
2
  6
CONTINUOUS
 62
     7
100
AcDbLine
 10
115.6073999999996
 20
-130.4930999999999
 30
0.0
 11
115.6073999999996
 21
-51.49309999999999
 31
0.0
  0
LINE
  5
768
330
1E
100
AcDbEntity
  8
2
  6
CONTINUOUS
 62
     7
100
AcDbLine
 10
135.6073999999995
 20
-106.4930999999996
 30
0.0
 11
135.6073999999995
 21
-67.4931
 31
0.0
  0
TEXT
  5
769
330
1E
100
AcDbEntity
  8
2
  6
CONTINUOUS
 62
     7
100
AcDbText
 10
105.0471192694682
 20
-104.0166999999996
 30
0.0
 40
3.5
  1
14
  7
BIGFONT
100
AcDbText
  0
TEXT
  5
76A
330
1E
100
AcDbEntity
  8
2
  6
CONTINUOUS
 62
     7
100
AcDbText
 10
121.8702680854636
 20
-104.0166999999996
 30
0.0
 40
3.5
  1
8.04
  7
BIGFONT
100
AcDbText
  0
TEXT
  5
76B
330
1E
100
AcDbEntity
  8
2
  6
CONTINUOUS
 62
     7
100
AcDbText
 10
106.9916492117893
 20
-120.0166999999999
 30
0.0
 40
3.5
  1
5
  7
BIGFONT
100
AcDbText
  0
TEXT
  5
76C
330
1E
100
AcDbEntity
  8
2
  6
CONTINUOUS
 62
     7
100
AcDbText
 10
107.8688182922059
 20
-128.0166999999995
 30
0.0
 40
3.5
  1
1
  7
BIGFONT
100
AcDbText
  0
TEXT
  5
76D
330
1E
100
AcDbEntity
  8
2
  6
CONTINUOUS
 62
     7
100
AcDbText
 10
106.0570549687225
 20
-112.0166999999999
 30
0.0
 40
3.5
  1
11
  7
BIGFONT
100
AcDbText
  0
TEXT
  5
76E
330
1E
100
AcDbEntity
  8
2
  6
CONTINUOUS
 62
     7
100
AcDbText
 10
120.2460230529387
 20
-120.0166999999999
 30
0.0
 40
3.5
  1
10.07
  7
BIGFONT
100
AcDbText
  0
TEXT
  5
76F
330
1E
100
AcDbEntity
  8
2
  6
CONTINUOUS
 62
     7
100
AcDbText
 10
122.561792364806
 20
-128.0166999999995
 30
0.0
 40
3.5
  1
0.31
  7
BIGFONT
100
AcDbText
  0
TEXT
  5
770
330
1E
100
AcDbEntity
  8
2
  6
CONTINUOUS
 62
     7
100
AcDbText
 10
118.3710857249534
 20
-112.0166999999999
 30
0.0
 40
3.5
  1
38.06
  7
BIGFONT
100
AcDbText
  0
TEXT
  5
771
330
1E
100
AcDbEntity
  8
2
  6
CONTINUOUS
 62
     7
100
AcDbText
 10
105.617491823073
 20
-96.71528950402731
 30
0.0
 40
3.5
  1
10
  7
BIGFONT
100
AcDbText
  0
TEXT
  5
772
330
1E
100
AcDbEntity
  8
2
  6
CONTINUOUS
 62
     7
100
AcDbText
 10
105.6026099505909
 20
-90.20472932312744
 30
0.0
 40
3.5
  1
10
  7
BIGFONT
100
AcDbText
  0
TEXT
  5
773
330
1E
100
AcDbEntity
  8
2
  6
CONTINUOUS
 62
     7
100
AcDbText
 10
105.0471192694682
 20
-84.03180440334489
 30
0.0
 40
3.5
  1
16
  7
BIGFONT
100
AcDbText
  0
TEXT
  5
774
330
1E
100
AcDbEntity
  8
2
  6
CONTINUOUS
 62
     7
100
AcDbText
 10
106.9916492117893
 20
-78.71528950402725
 30
0.0
 40
3.5
  1
2
  7
BIGFONT
100
AcDbText
  0
TEXT
  5
775
330
1E
100
AcDbEntity
  8
2
  6
CONTINUOUS
 62
     7
100
AcDbText
 10
106.9916492117893
 20
-72.20472932312745
 30
0.0
 40
3.5
  1
2
  7
BIGFONT
100
AcDbText
  0
TEXT
  5
776
330
1E
100
AcDbEntity
  8
2
  6
CONTINUOUS
 62
     7
100
AcDbText
 10
119.4855387179094
 20
-96.71528950402731
 30
0.0
 40
3.5
  1
17.39
  7
BIGFONT
100
AcDbText
  0
TEXT
  5
777
330
1E
100
AcDbEntity
  8
2
  6
CONTINUOUS
 62
     7
100
AcDbText
 10
119.4338996064425
 20
-90.20472932312744
 30
0.0
 40
3.5
  1
12.01
  7
BIGFONT
100
AcDbText
  0
TEXT
  5
778
330
1E
100
AcDbEntity
  8
2
  6
CONTINUOUS
 62
     7
100
AcDbText
 10
121.8702680854636
 20
-78.71528950402725
 30
0.0
 40
3.5
  1
5.64
  7
BIGFONT
100
AcDbText
  0
TEXT
  5
779
330
1E
100
AcDbEntity
  8
2
  6
CONTINUOUS
 62
     7
100
AcDbText
 10
121.8702680854636
 20
-72.20472932312745
 30
0.0
 40
3.5
  1
5.02
  7
BIGFONT
100
AcDbText
  0
TEXT
  5
77A
330
1E
100
AcDbEntity
  8
2
  6
CONTINUOUS
 62
     7
100
AcDbText
 10
118.3840010842199
 20
-84.03180440334489
 30
0.0
 40
3.5
  1
49.11
  7
BIGFONT
100
AcDbText
  0
TEXT
  5
77B
330
1E
100
AcDbEntity
  8
2
  6
CONTINUOUS
 62
     7
100
AcDbText
 10
103.2633999999999
 20
-57.89799999999999
 30
0.0
 40
4.0
  1
本数
  7
BIGFONT
100
AcDbText
  0
TEXT
  5
77C
330
1E
100
AcDbEntity
  8
2
  6
CONTINUOUS
 62
     7
100
AcDbText
 10
105.0471192694682
 20
-65.01669999999998
 30
0.0
 40
3.5
  1
19
  7
BIGFONT
100
AcDbText
  0
TEXT
  5
77D
330
1E
100
AcDbEntity
  8
2
  6
CONTINUOUS
 62
     7
100
AcDbText
 10
118.4284941434041
 20
-65.01669999999998
 30
0.0
 40
3.5
  1
68.09
  7
BIGFONT
100
AcDbText
  0
TEXT
  5
77E
330
1E
100
AcDbEntity
  8
2
  6
CONTINUOUS
 62
     7
100
AcDbText
 10
119.7063999999999
 20
-57.8981
 30
0.0
 40
4.0
  1
重量
  7
BIGFONT
100
AcDbText
  0
LINE
  5
77F
330
1E
100
AcDbEntity
  8
2
  6
CONTINUOUS
 62
     7
100
AcDbLine
 10
135.6073999999995
 20
-67.4931
 30
0.0
 11
135.6073999999995
 21
-51.49309999999999
 31
0.0
  0
LINE
  5
791
330
1E
100
AcDbEntity
  8
2
  6
CONTINUOUS
 62
     7
100
AcDbLine
 10
-11.39259999999999
 20
-51.49309999999999
 30
0.0
 11
135.6073999999999
 21
-51.49309999999999
 31
0.0
  0
ENDSEC
  0
SECTION
  2
OBJECTS
  0
DICTIONARY
  5
C
330
0
100
AcDbDictionary
  3
ACAD_GROUP
350
D
  3
ACAD_LAYOUT
350
19
  3
ACAD_MLINESTYLE
350
16
  3
ACAD_PLOTSETTINGS
350
18
1001
ACAD
1000
TREAT_AS_HARD
1070
     0
1000
TREAT_AS_HARD
1070
     0
1000
TREAT_AS_HARD
1070
     0
1000
TREAT_AS_HARD
1070
     0
  0
DICTIONARY
  5
7C9
330
1E
100
AcDbDictionary
  3
ACAD_LAYOUTSELFREF
350
7F0
1001
ACAD
1000
TREAT_AS_HARD
1070
     1
1000
TREAT_AS_HARD
1070
     0
1000
TREAT_AS_HARD
1070
     0
  0
DICTIONARY
  5
7C7
330
1A
100
AcDbDictionary
  3
ACAD_LAYOUTSELFREF
350
7EF
1001
ACAD
1000
TREAT_AS_HARD
1070
     1
1000
TREAT_AS_HARD
1070
     0
1000
TREAT_AS_HARD
1070
     0
  0
DICTIONARY
  5
D
102
{ACAD_REACTORS
330
C
102
}
330
C
100
AcDbDictionary
1001
ACAD
1000
TREAT_AS_HARD
1070
     0
1000
TREAT_AS_HARD
1070
     0
1000
TREAT_AS_HARD
1070
     0
1000
TREAT_AS_HARD
1070
     0
  0
DICTIONARY
  5
19
102
{ACAD_REACTORS
330
C
102
}
330
C
100
AcDbDictionary
1001
ACAD
1000
TREAT_AS_HARD
1070
     0
1000
TREAT_AS_HARD
1070
     0
1000
TREAT_AS_HARD
1070
     0
1000
TREAT_AS_HARD
1070
     0
  0
DICTIONARY
  5
16
102
{ACAD_REACTORS
330
C
102
}
330
C
100
AcDbDictionary
  3
STANDARD
350
17
1001
ACAD
1000
TREAT_AS_HARD
1070
     0
1000
TREAT_AS_HARD
1070
     0
1000
TREAT_AS_HARD
1070
     0
1000
TREAT_AS_HARD
1070
     0
  0
DICTIONARY
  5
18
102
{ACAD_REACTORS
330
C
102
}
330
C
100
AcDbDictionary
1001
ACAD
1000
TREAT_AS_HARD
1070
     0
1000
TREAT_AS_HARD
1070
     0
1000
TREAT_AS_HARD
1070
     0
1000
TREAT_AS_HARD
1070
     0
  0
XRECORD
  5
7F0
102
{ACAD_REACTORS
330
7C9
102
}
330
7C9
100
AcDbXrecord
340
1E
  0
XRECORD
  5
7EF
102
{ACAD_REACTORS
330
7C7
102
}
330
7C7
100
AcDbXrecord
340
1A
  0
MLINESTYLE
  5
17
102
{ACAD_REACTORS
330
16
102
}
330
16
100
AcDbMlineStyle
  2
STANDARD
 70
     0
  3

 62
   256
 51
90.0
 52
90.0
 71
     2
 49
0.5
 62
   256
  6
BYLAYER
 49
-0.5
 62
   256
  6
BYLAYER
  0
ENDSEC
  0
EOF
