  0
SECTION
  2
HEADER
  9
$ACADVER
  1
AC1012
  9
$DWGCODEPAGE
  3
dos932
  9
$INSBASE
 10
0.0
 20
0.0
 30
0.0
  9
$EXTMIN
 10
-270.3254685566357
 20
-193.3181752722223
 30
-0.0000000000000058
  9
$EXTMAX
 10
270.3254713226638
 20
193.3502206850682
 30
0.0000000000000104
  9
$LIMMIN
 10
-297.0
 20
-210.0
  9
$LIMMAX
 10
297.0
 20
210.0
  9
$ORTHOMODE
 70
     1
  9
$REGENMODE
 70
     1
  9
$FILLMODE
 70
     1
  9
$QTEXTMODE
 70
     0
  9
$MIRRTEXT
 70
     1
  9
$DRAGMODE
 70
     2
  9
$LTSCALE
 40
1.0
  9
$OSMODE
 70
  2471
  9
$ATTMODE
 70
     1
  9
$TEXTSIZE
 40
1.0
  9
$TRACEWID
 40
0.05
  9
$TEXTSTYLE
  7
BIGFONT
  9
$CLAYER
  8
0
  9
$CELTYPE
  6
CONTINUOUS
  9
$CECOLOR
 62
   256
  9
$CELTSCALE
 40
1.0
  9
$DELOBJ
 70
     1
  9
$DISPSILH
 70
     0
  9
$DIMSCALE
 40
1.0
  9
$DIMASZ
 40
0.18
  9
$DIMEXO
 40
0.0625
  9
$DIMDLI
 40
0.38
  9
$DIMRND
 40
0.0
  9
$DIMDLE
 40
0.0
  9
$DIMEXE
 40
0.18
  9
$DIMTP
 40
0.0
  9
$DIMTM
 40
0.0
  9
$DIMTXT
 40
0.18
  9
$DIMCEN
 40
0.09
  9
$DIMTSZ
 40
0.0
  9
$DIMTOL
 70
     0
  9
$DIMLIM
 70
     0
  9
$DIMTIH
 70
     1
  9
$DIMTOH
 70
     1
  9
$DIMSE1
 70
     0
  9
$DIMSE2
 70
     0
  9
$DIMTAD
 70
     0
  9
$DIMZIN
 70
     0
  9
$DIMBLK
  1

  9
$DIMASO
 70
     1
  9
$DIMSHO
 70
     1
  9
$DIMPOST
  1

  9
$DIMAPOST
  1

  9
$DIMALT
 70
     0
  9
$DIMALTD
 70
     2
  9
$DIMALTF
 40
25.4
  9
$DIMLFAC
 40
1.0
  9
$DIMTOFL
 70
     0
  9
$DIMTVP
 40
0.0
  9
$DIMTIX
 70
     0
  9
$DIMSOXD
 70
     0
  9
$DIMSAH
 70
     0
  9
$DIMBLK1
  1

  9
$DIMBLK2
  1

  9
$DIMSTYLE
  2
STANDARD
  9
$DIMCLRD
 70
     0
  9
$DIMCLRE
 70
     0
  9
$DIMCLRT
 70
     0
  9
$DIMTFAC
 40
1.0
  9
$DIMGAP
 40
0.09
  9
$DIMJUST
 70
     0
  9
$DIMSD1
 70
     0
  9
$DIMSD2
 70
     0
  9
$DIMTOLJ
 70
     1
  9
$DIMTZIN
 70
     0
  9
$DIMALTZ
 70
     0
  9
$DIMALTTZ
 70
     0
  9
$DIMFIT
 70
     3
  9
$DIMUPT
 70
     0
  9
$DIMUNIT
 70
     2
  9
$DIMDEC
 70
     4
  9
$DIMTDEC
 70
     4
  9
$DIMALTU
 70
     2
  9
$DIMALTTD
 70
     2
  9
$DIMTXSTY
  7
STANDARD
  9
$DIMAUNIT
 70
     0
  9
$LUNITS
 70
     2
  9
$LUPREC
 70
     4
  9
$SKETCHINC
 40
0.1
  9
$FILLETRAD
 40
0.0
  9
$AUNITS
 70
     0
  9
$AUPREC
 70
     0
  9
$MENU
  1
.
  9
$ELEVATION
 40
0.0
  9
$PELEVATION
 40
0.0
  9
$THICKNESS
 40
0.0
  9
$LIMCHECK
 70
     0
  9
$BLIPMODE
 70
     0
  9
$CHAMFERA
 40
0.0
  9
$CHAMFERB
 40
0.0
  9
$CHAMFERC
 40
0.0
  9
$CHAMFERD
 40
0.0
  9
$SKPOLY
 70
     0
  9
$TDCREATE
 40
2452139.460088657
  9
$TDUPDATE
 40
2453203.392976620
  9
$TDINDWG
 40
0.3705925926
  9
$TDUSRTIMER
 40
0.3705887731
  9
$USRTIMER
 70
     1
  9
$ANGBASE
 50
0.0
  9
$ANGDIR
 70
     0
  9
$PDMODE
 70
     0
  9
$PDSIZE
 40
0.0
  9
$PLINEWID
 40
0.0
  9
$COORDS
 70
     1
  9
$SPLFRAME
 70
     0
  9
$SPLINETYPE
 70
     6
  9
$SPLINESEGS
 70
     8
  9
$ATTDIA
 70
     0
  9
$ATTREQ
 70
     1
  9
$HANDLING
 70
-16383
  9
$HANDSEED
  5
7BF
  9
$SURFTAB1
 70
     6
  9
$SURFTAB2
 70
     6
  9
$SURFTYPE
 70
     6
  9
$SURFU
 70
     6
  9
$SURFV
 70
     6
  9
$UCSNAME
  2

  9
$UCSORG
 10
0.0
 20
0.0
 30
0.0
  9
$UCSXDIR
 10
1.0
 20
0.0
 30
0.0
  9
$UCSYDIR
 10
0.0
 20
1.0
 30
0.0
  9
$PUCSNAME
  2

  9
$PUCSORG
 10
0.0
 20
0.0
 30
0.0
  9
$PUCSXDIR
 10
1.0
 20
0.0
 30
0.0
  9
$PUCSYDIR
 10
0.0
 20
1.0
 30
0.0
  9
$USERI1
 70
     0
  9
$USERI2
 70
     0
  9
$USERI3
 70
     0
  9
$USERI4
 70
     0
  9
$USERI5
 70
     0
  9
$USERR1
 40
0.0
  9
$USERR2
 40
0.0
  9
$USERR3
 40
0.0
  9
$USERR4
 40
0.0
  9
$USERR5
 40
0.0
  9
$WORLDVIEW
 70
     1
  9
$SHADEDGE
 70
     3
  9
$SHADEDIF
 70
    70
  9
$TILEMODE
 70
     1
  9
$MAXACTVP
 70
    64
  9
$PINSBASE
 10
0.0
 20
0.0
 30
0.0
  9
$PLIMCHECK
 70
     0
  9
$PEXTMIN
 10
1.000000000000000E+20
 20
1.000000000000000E+20
 30
1.000000000000000E+20
  9
$PEXTMAX
 10
-1.000000000000000E+20
 20
-1.000000000000000E+20
 30
-1.000000000000000E+20
  9
$PLIMMIN
 10
0.0
 20
0.0
  9
$PLIMMAX
 10
12.0
 20
9.0
  9
$UNITMODE
 70
     0
  9
$VISRETAIN
 70
     1
  9
$PLINEGEN
 70
     0
  9
$PSLTSCALE
 70
     1
  9
$TREEDEPTH
 70
  3020
  9
$PICKSTYLE
 70
     3
  9
$CMLSTYLE
  2
STANDARD
  9
$CMLJUST
 70
     0
  9
$CMLSCALE
 40
1.0
  9
$SAVEIMAGES
 70
     1
  0
ENDSEC
  0
SECTION
  2
CLASSES
  0
CLASS
  1
ACDBDICTIONARYWDFLT
  2
AcDbDictionaryWithDefault
  3
AutoCAD 2000
 90
    32768
280
     0
281
     0
  0
CLASS
  1
ACDBPLACEHOLDER
  2
AcDbPlaceHolder
  3
AutoCAD 2000
 90
    32768
280
     0
281
     0
  0
CLASS
  1
LAYOUT
  2
AcDbLayout
  3
AutoCAD 2000
 90
    32768
280
     0
281
     0
  0
CLASS
  1
LONG_TRANSACTION
  2
AcDbLongTransaction
  3
AutoCAD 2000
 90
    32768
280
     0
281
     0
  0
CLASS
  1
LWPOLYLINE
  2
AcDbPolyline
  3
AutoCAD 2000
 90
    32768
280
     0
281
     1
  0
CLASS
  1
HATCH
  2
AcDbHatch
  3
AutoCAD 2000
 90
    32768
280
     0
281
     1
  0
CLASS
  1
XRECORD
  2
AcDbXrecord
  3
AutoCAD 2000
 90
    32768
280
     0
281
     0
  0
CLASS
  1
LONG_TRANSACTION
  2
AcDbLongTransaction
  3
AutoCAD 2000
 90
    32768
280
     0
281
     0
  0
CLASS
  1
LWPOLYLINE
  2
AcDbPolyline
  3
AutoCAD 2000
 90
    32768
280
     0
281
     1
  0
CLASS
  1
HATCH
  2
AcDbHatch
  3
AutoCAD 2000
 90
    32768
280
     0
281
     1
  0
CLASS
  1
XRECORD
  2
AcDbXrecord
  3
AutoCAD 2000
 90
    32768
280
     0
281
     0
  0
CLASS
  1
LONG_TRANSACTION
  2
AcDbLongTransaction
  3
AutoCAD 2000
 90
    32768
280
     0
281
     0
  0
CLASS
  1
LWPOLYLINE
  2
AcDbPolyline
  3
AutoCAD 2000
 90
    32768
280
     0
281
     1
  0
CLASS
  1
HATCH
  2
AcDbHatch
  3
AutoCAD 2000
 90
    32768
280
     0
281
     1
  0
CLASS
  1
XRECORD
  2
AcDbXrecord
  3
AutoCAD 2000
 90
    32768
280
     0
281
     0
  0
CLASS
  1
LONG_TRANSACTION
  2
AcDbLongTransaction
  3
AutoCAD 2000
 90
    32768
280
     0
281
     0
  0
CLASS
  1
LWPOLYLINE
  2
AcDbPolyline
  3
AutoCAD 2000
 90
    32768
280
     0
281
     1
  0
CLASS
  1
HATCH
  2
AcDbHatch
  3
AutoCAD 2000
 90
    32768
280
     0
281
     1
  0
CLASS
  1
XRECORD
  2
AcDbXrecord
  3
AutoCAD 2000
 90
    32768
280
     0
281
     0
  0
CLASS
  1
LONG_TRANSACTION
  2
AcDbLongTransaction
  3
AutoCAD 2000
 90
    32768
280
     0
281
     0
  0
CLASS
  1
LWPOLYLINE
  2
AcDbPolyline
  3
AutoCAD 2000
 90
    32768
280
     0
281
     1
  0
CLASS
  1
HATCH
  2
AcDbHatch
  3
AutoCAD 2000
 90
    32768
280
     0
281
     1
  0
CLASS
  1
XRECORD
  2
AcDbXrecord
  3
AutoCAD 2000
 90
    32768
280
     0
281
     0
  0
CLASS
  1
LONG_TRANSACTION
  2
AcDbLongTransaction
  3
AutoCAD 2000
 90
    32768
280
     0
281
     0
  0
CLASS
  1
LWPOLYLINE
  2
AcDbPolyline
  3
AutoCAD 2000
 90
    32768
280
     0
281
     1
  0
CLASS
  1
HATCH
  2
AcDbHatch
  3
AutoCAD 2000
 90
    32768
280
     0
281
     1
  0
CLASS
  1
XRECORD
  2
AcDbXrecord
  3
AutoCAD 2000
 90
    32768
280
     0
281
     0
  0
ENDSEC
  0
SECTION
  2
TABLES
  0
TABLE
  2
VPORT
  5
8
330
0
100
AcDbSymbolTable
 70
     2
  0
VPORT
  5
7BC
330
8
100
AcDbSymbolTableRecord
100
AcDbViewportTableRecord
  2
*ACTIVE
 70
     0
 10
0.0
 20
0.0
 11
1.0
 21
1.0
 12
0.0000013830140455
 22
0.016022706422973
 13
0.0
 23
0.0
 14
1.0
 24
1.0
 15
0.0
 25
0.0
 16
0.0
 26
0.0
 36
1.0
 17
0.0
 27
0.0
 37
0.0
 40
391.1820348206052
 41
1.432748538011695
 42
50.0
 43
0.0
 44
0.0
 50
0.0
 51
0.0
 71
     0
 72
   100
 73
     1
 74
     1
 75
     0
 76
     0
 77
     0
 78
     0
  0
ENDTAB
  0
TABLE
  2
LTYPE
  5
5
330
0
100
AcDbSymbolTable
 70
     5
  0
LTYPE
  5
13
330
5
100
AcDbSymbolTableRecord
100
AcDbLinetypeTableRecord
  2
BYBLOCK
 70
     0
  3

 72
    65
 73
     0
 40
0.0
  0
LTYPE
  5
14
330
5
100
AcDbSymbolTableRecord
100
AcDbLinetypeTableRecord
  2
BYLAYER
 70
     0
  3

 72
    65
 73
     0
 40
0.0
  0
LTYPE
  5
15
330
5
100
AcDbSymbolTableRecord
100
AcDbLinetypeTableRecord
  2
CONTINUOUS
 70
     0
  3
実線
 72
    65
 73
     0
 40
0.0
  0
LTYPE
  5
23
330
5
100
AcDbSymbolTableRecord
100
AcDbLinetypeTableRecord
  2
HIDDEN
 70
     0
  3
_ _ _ _ _ _ _ _ _ _ _ _ _ _ _ _ _ _ _ _ _ _ _
 72
    65
 73
     2
 40
0.375
 49
0.25
 74
     0
 49
-0.125
 74
     0
  0
LTYPE
  5
24
330
5
100
AcDbSymbolTableRecord
100
AcDbLinetypeTableRecord
  2
DASHED
 70
     0
  3
__ __ __ __ __ __ __ __ __ __ __ __ __ __ __
 72
    65
 73
     2
 40
0.75
 49
0.5
 74
     0
 49
-0.25
 74
     0
  0
LTYPE
  5
25
330
5
100
AcDbSymbolTableRecord
100
AcDbLinetypeTableRecord
  2
CENTER
 70
     0
  3
____ _ ____ _ ____ _ ____ _ ____ _ ____ _ ____
 72
    65
 73
     4
 40
2.0
 49
1.25
 74
     0
 49
-0.25
 74
     0
 49
0.25
 74
     0
 49
-0.25
 74
     0
  0
LTYPE
  5
26
330
5
100
AcDbSymbolTableRecord
100
AcDbLinetypeTableRecord
  2
PHANTOM
 70
     0
  3
_____ _ _ _____ _ _ _____ _ _ _____ _ _ ____
 72
    65
 73
     6
 40
2.5
 49
1.25
 74
     0
 49
-0.25
 74
     0
 49
0.25
 74
     0
 49
-0.25
 74
     0
 49
0.25
 74
     0
 49
-0.25
 74
     0
  0
ENDTAB
  0
TABLE
  2
LAYER
  5
2
330
0
100
AcDbSymbolTable
 70
     4
  0
LAYER
  5
10
330
2
100
AcDbSymbolTableRecord
100
AcDbLayerTableRecord
  2
0
 70
     0
 62
     7
  6
CONTINUOUS
  0
LAYER
  5
27
330
2
100
AcDbSymbolTableRecord
100
AcDbLayerTableRecord
  2
1
 70
     0
 62
     7
  6
CONTINUOUS
  0
LAYER
  5
28
330
2
100
AcDbSymbolTableRecord
100
AcDbLayerTableRecord
  2
2
 70
     0
 62
     7
  6
CONTINUOUS
  0
LAYER
  5
29
330
2
100
AcDbSymbolTableRecord
100
AcDbLayerTableRecord
  2
3
 70
     0
 62
     7
  6
CONTINUOUS
  0
ENDTAB
  0
TABLE
  2
STYLE
  5
3
330
0
100
AcDbSymbolTable
 70
     2
  0
STYLE
  5
11
330
3
100
AcDbSymbolTableRecord
100
AcDbTextStyleTableRecord
  2
STANDARD
 70
     0
 40
0.0
 41
1.0
 50
0.0
 71
     0
 42
0.2
  3
txt
  4

  0
STYLE
  5
22
330
3
100
AcDbSymbolTableRecord
100
AcDbTextStyleTableRecord
  2
BIGFONT
 70
     0
 40
0.0
 41
1.0
 50
0.0
 71
     0
 42
1.0
  3

  4
bigfont
  0
ENDTAB
  0
TABLE
  2
VIEW
  5
6
330
0
100
AcDbSymbolTable
 70
     0
  0
ENDTAB
  0
TABLE
  2
UCS
  5
7
330
0
100
AcDbSymbolTable
 70
     0
  0
ENDTAB
  0
TABLE
  2
APPID
  5
9
330
0
100
AcDbSymbolTable
 70
     2
  0
APPID
  5
12
330
9
100
AcDbSymbolTableRecord
100
AcDbRegAppTableRecord
  2
ACAD
 70
     0
  0
APPID
  5
77A
330
9
100
AcDbSymbolTableRecord
100
AcDbRegAppTableRecord
  2
DCO15
 70
     0
  0
ENDTAB
  0
TABLE
  2
DIMSTYLE
  5
A
330
0
100
AcDbSymbolTable
 70
     1
  0
DIMSTYLE
105
634
330
A
100
AcDbSymbolTableRecord
100
AcDbDimStyleTableRecord
  2
STANDARD
 70
     0
  3

  4

  5

  6

  7

 40
1.0
 41
0.18
 42
0.0625
 43
0.38
 44
0.18
 45
0.0
 46
0.0
 47
0.0
 48
0.0
140
0.18
141
0.09
142
0.0
143
25.4
144
1.0
145
0.0
146
1.0
147
0.09
 71
     0
 72
     0
 73
     1
 74
     1
 75
     0
 76
     0
 77
     0
 78
     0
170
     0
171
     2
172
     0
173
     0
174
     0
175
     0
176
     0
177
     0
178
     0
270
     2
271
     4
272
     4
273
     2
274
     2
340
11
275
     0
280
     0
281
     0
282
     0
283
     1
284
     0
285
     0
286
     0
287
     3
288
     0
  0
ENDTAB
  0
TABLE
  2
BLOCK_RECORD
  5
1
330
0
100
AcDbSymbolTable
 70
     0
  0
BLOCK_RECORD
  5
1E
102
{ACAD_XDICTIONARY
360
781
102
}
330
1
100
AcDbSymbolTableRecord
100
AcDbBlockTableRecord
  2
*MODEL_SPACE
  0
BLOCK_RECORD
  5
1A
102
{ACAD_XDICTIONARY
360
77F
102
}
330
1
100
AcDbSymbolTableRecord
100
AcDbBlockTableRecord
  2
*PAPER_SPACE
  0
ENDTAB
  0
ENDSEC
  0
SECTION
  2
BLOCKS
  0
BLOCK
  5
1F
330
1E
100
AcDbEntity
  8
0
100
AcDbBlockBegin
  2
*MODEL_SPACE
 70
     0
 10
0.0
 20
0.0
 30
0.0
  3
*MODEL_SPACE
  1

  0
ENDBLK
  5
20
330
1E
100
AcDbEntity
  8
0
100
AcDbBlockEnd
  0
BLOCK
  5
1B
330
1A
100
AcDbEntity
 67
     1
  8
0
100
AcDbBlockBegin
  2
*PAPER_SPACE
 70
     0
 10
0.0
 20
0.0
 30
0.0
  3
*PAPER_SPACE
  1

  0
ENDBLK
  5
1C
330
1A
100
AcDbEntity
 67
     1
  8
0
100
AcDbBlockEnd
  0
ENDSEC
  0
SECTION
  2
ENTITIES
  0
LINE
  5
2D
330
1E
100
AcDbEntity
  8
0
  6
CONTINUOUS
 62
     7
100
AcDbLine
 10
236.22
 20
116.01032
 30
0.0
 11
236.22
 21
132.01032
 31
0.0
  0
LINE
  5
2E
330
1E
100
AcDbEntity
  8
0
  6
CONTINUOUS
 62
     7
100
AcDbLine
 10
236.1
 20
115.8903199999999
 30
0.0
 11
236.22
 21
116.01032
 31
0.0
  0
LINE
  5
2F
330
1E
100
AcDbEntity
  8
0
  6
CONTINUOUS
 62
     7
100
AcDbLine
 10
236.1
 20
64.53031999999999
 30
0.0
 11
236.1
 21
115.8903199999999
 31
0.0
  0
LINE
  5
30
330
1E
100
AcDbEntity
  8
0
  6
CONTINUOUS
 62
     7
100
AcDbLine
 10
236.1
 20
64.53031999999999
 30
0.0
 11
236.22
 21
64.41031999999998
 31
0.0
  0
LINE
  5
31
330
1E
100
AcDbEntity
  8
0
  6
CONTINUOUS
 62
     7
100
AcDbLine
 10
236.22
 20
52.49031999999999
 30
0.0
 11
236.22
 21
64.41031999999998
 31
0.0
  0
LINE
  5
32
330
1E
100
AcDbEntity
  8
0
  6
CONTINUOUS
 62
     7
100
AcDbLine
 10
-106.6116399999999
 20
52.49031999999999
 30
0.0
 11
-106.6116399999999
 21
64.41031999999998
 31
0.0
  0
LINE
  5
33
330
1E
100
AcDbEntity
  8
0
  6
CONTINUOUS
 62
     7
100
AcDbLine
 10
-106.6116399999999
 20
64.41031999999998
 30
0.0
 11
-106.4916399999999
 21
64.53031999999999
 31
0.0
  0
LINE
  5
34
330
1E
100
AcDbEntity
  8
0
  6
CONTINUOUS
 62
     7
100
AcDbLine
 10
-106.4916399999999
 20
64.53031999999999
 30
0.0
 11
-106.4916399999999
 21
115.8903199999999
 31
0.0
  0
LINE
  5
35
330
1E
100
AcDbEntity
  8
0
  6
CONTINUOUS
 62
     7
100
AcDbLine
 10
-106.6116399999999
 20
116.01032
 30
0.0
 11
-106.4916399999999
 21
115.8903199999999
 31
0.0
  0
LINE
  5
36
330
1E
100
AcDbEntity
  8
0
  6
CONTINUOUS
 62
     7
100
AcDbLine
 10
-106.6116399999999
 20
116.01032
 30
0.0
 11
-106.6116399999999
 21
132.01032
 31
0.0
  0
LINE
  5
37
330
1E
100
AcDbEntity
  8
0
  6
CONTINUOUS
 62
     7
100
AcDbLine
 10
-106.6116399999999
 20
132.01032
 30
0.0
 11
-38.64524
 21
132.01032
 31
0.0
  0
LINE
  5
38
330
1E
100
AcDbEntity
  8
0
  6
CONTINUOUS
 62
     7
100
AcDbLine
 10
-38.64524
 20
58.81032
 30
0.0
 11
-38.64524
 21
132.01032
 31
0.0
  0
LINE
  5
39
330
1E
100
AcDbEntity
  8
0
  6
CONTINUOUS
 62
     7
100
AcDbLine
 10
-38.64524
 20
52.49031999999999
 30
0.0
 11
-38.64524
 21
64.41031999999998
 31
0.0
  0
LINE
  5
3A
330
1E
100
AcDbEntity
  8
0
  6
CONTINUOUS
 62
     7
100
AcDbLine
 10
-106.6116399999999
 20
52.49031999999999
 30
0.0
 11
-106.1316399999999
 21
52.01032
 31
0.0
  0
LINE
  5
3B
330
1E
100
AcDbEntity
  8
0
  6
CONTINUOUS
 62
     7
100
AcDbLine
 10
-39.12524
 20
52.01032
 30
0.0
 11
-38.64524
 21
52.49031999999999
 31
0.0
  0
LINE
  5
3C
330
1E
100
AcDbEntity
  8
0
  6
CONTINUOUS
 62
     7
100
AcDbLine
 10
168.2199999999999
 20
52.01032
 30
0.0
 11
168.2199999999999
 21
131.6503199999999
 31
0.0
  0
LINE
  5
3D
330
1E
100
AcDbEntity
  8
0
  6
CONTINUOUS
 62
     7
100
AcDbLine
 10
168.58
 20
132.01032
 30
0.0
 11
173.86
 21
132.01032
 31
0.0
  0
LINE
  5
3E
330
1E
100
AcDbEntity
  8
0
  6
CONTINUOUS
 62
     7
100
AcDbLine
 10
168.2199999999999
 20
52.01032
 30
0.0
 11
236.22
 21
52.01032
 31
0.0
  0
LINE
  5
3F
330
1E
100
AcDbEntity
  8
0
  6
CONTINUOUS
 62
     7
100
AcDbLine
 10
142.2199999999999
 20
52.01032
 30
0.0
 11
142.2199999999999
 21
132.01032
 31
0.0
  0
LINE
  5
40
330
1E
100
AcDbEntity
  8
0
  6
CONTINUOUS
 62
     7
100
AcDbLine
 10
167.22
 20
132.01032
 30
0.0
 11
141.4199999999999
 21
132.01032
 31
0.0
  0
LINE
  5
41
330
1E
100
AcDbEntity
  8
0
  6
CONTINUOUS
 62
     7
100
AcDbLine
 10
167.22
 20
52.01032
 30
0.0
 11
141.4199999999999
 21
52.01032
 31
0.0
  0
LINE
  5
42
330
1E
100
AcDbEntity
  8
0
  6
CONTINUOUS
 62
     7
100
AcDbLine
 10
142.54153
 20
130.81
 30
0.0
 11
142.2199999999999
 21
132.0099999999999
 31
0.0
  0
LINE
  5
43
330
1E
100
AcDbEntity
  8
0
  6
CONTINUOUS
 62
     7
100
AcDbLine
 10
142.2199999999999
 20
132.0099999999999
 30
0.0
 11
141.8984599999999
 21
130.81
 31
0.0
  0
LINE
  5
44
330
1E
100
AcDbEntity
  8
0
  6
CONTINUOUS
 62
     7
100
AcDbLine
 10
141.8984599999999
 20
53.21
 30
0.0
 11
142.2199999999999
 21
52.01
 31
0.0
  0
LINE
  5
45
330
1E
100
AcDbEntity
  8
0
  6
CONTINUOUS
 62
     7
100
AcDbLine
 10
142.2199999999999
 20
52.01
 30
0.0
 11
142.54153
 21
53.21
 31
0.0
  0
TEXT
  5
46
330
1E
100
AcDbEntity
  8
0
  6
CONTINUOUS
 62
     7
100
AcDbText
 10
141.8199999999998
 20
86.81032
 30
0.0
 40
3.2
  1
2000
 50
90.0
 41
0.8125
  7
BIGFONT
100
AcDbText
  0
LINE
  5
47
330
1E
100
AcDbEntity
  8
0
  6
CONTINUOUS
 62
     7
100
AcDbLine
 10
154.22
 20
52.01032
 30
0.0
 11
154.22
 21
64.41031999999998
 31
0.0
  0
LINE
  5
48
330
1E
100
AcDbEntity
  8
0
  6
CONTINUOUS
 62
     7
100
AcDbLine
 10
167.22
 20
64.41031999999998
 30
0.0
 11
153.42
 21
64.41031999999998
 31
0.0
  0
LINE
  5
49
330
1E
100
AcDbEntity
  8
0
  6
CONTINUOUS
 62
     7
100
AcDbLine
 10
154.22
 20
52.01032
 30
0.0
 11
154.22
 21
52.01032
 31
0.0
  0
LINE
  5
4A
330
1E
100
AcDbEntity
  8
0
  6
CONTINUOUS
 62
     7
100
AcDbLine
 10
154.5415299999999
 20
63.21
 30
0.0
 11
154.22
 21
64.40999999999999
 31
0.0
  0
LINE
  5
4B
330
1E
100
AcDbEntity
  8
0
  6
CONTINUOUS
 62
     7
100
AcDbLine
 10
154.22
 20
64.40999999999999
 30
0.0
 11
153.89846
 21
63.21
 31
0.0
  0
LINE
  5
4C
330
1E
100
AcDbEntity
  8
0
  6
CONTINUOUS
 62
     7
100
AcDbLine
 10
153.89846
 20
53.21
 30
0.0
 11
154.22
 21
52.01
 31
0.0
  0
LINE
  5
4D
330
1E
100
AcDbEntity
  8
0
  6
CONTINUOUS
 62
     7
100
AcDbLine
 10
154.22
 20
52.01
 30
0.0
 11
154.5415299999999
 21
53.21
 31
0.0
  0
TEXT
  5
4E
330
1E
100
AcDbEntity
  8
0
  6
CONTINUOUS
 62
     7
100
AcDbText
 10
153.8199999999999
 20
54.31032
 30
0.0
 40
3.2
  1
310
 50
90.0
 41
0.8125
  7
BIGFONT
100
AcDbText
  0
LINE
  5
4F
330
1E
100
AcDbEntity
  8
0
  6
CONTINUOUS
 62
     7
100
AcDbLine
 10
154.22
 20
64.41031999999998
 30
0.0
 11
154.22
 21
116.01032
 31
0.0
  0
LINE
  5
50
330
1E
100
AcDbEntity
  8
0
  6
CONTINUOUS
 62
     7
100
AcDbLine
 10
167.22
 20
116.01032
 30
0.0
 11
153.42
 21
116.01032
 31
0.0
  0
LINE
  5
51
330
1E
100
AcDbEntity
  8
0
  6
CONTINUOUS
 62
     7
100
AcDbLine
 10
154.5415299999999
 20
114.81
 30
0.0
 11
154.22
 21
116.01
 31
0.0
  0
LINE
  5
52
330
1E
100
AcDbEntity
  8
0
  6
CONTINUOUS
 62
     7
100
AcDbLine
 10
154.22
 20
116.01
 30
0.0
 11
153.89846
 21
114.81
 31
0.0
  0
LINE
  5
53
330
1E
100
AcDbEntity
  8
0
  6
CONTINUOUS
 62
     7
100
AcDbLine
 10
153.89846
 20
65.60999999999999
 30
0.0
 11
154.22
 21
64.40999999999999
 31
0.0
  0
LINE
  5
54
330
1E
100
AcDbEntity
  8
0
  6
CONTINUOUS
 62
     7
100
AcDbLine
 10
154.22
 20
64.40999999999999
 30
0.0
 11
154.5415299999999
 21
65.60999999999999
 31
0.0
  0
TEXT
  5
55
330
1E
100
AcDbEntity
  8
0
  6
CONTINUOUS
 62
     7
100
AcDbText
 10
153.8199999999999
 20
85.01032
 30
0.0
 40
3.2
  1
1290
 50
90.0
 41
0.8125
  7
BIGFONT
100
AcDbText
  0
LINE
  5
56
330
1E
100
AcDbEntity
  8
0
  6
CONTINUOUS
 62
     7
100
AcDbLine
 10
154.22
 20
116.01032
 30
0.0
 11
154.22
 21
132.01032
 31
0.0
  0
LINE
  5
57
330
1E
100
AcDbEntity
  8
0
  6
CONTINUOUS
 62
     7
100
AcDbLine
 10
154.22
 20
132.01032
 30
0.0
 11
154.22
 21
132.01032
 31
0.0
  0
LINE
  5
58
330
1E
100
AcDbEntity
  8
0
  6
CONTINUOUS
 62
     7
100
AcDbLine
 10
154.5415299999999
 20
130.81
 30
0.0
 11
154.22
 21
132.0099999999999
 31
0.0
  0
LINE
  5
59
330
1E
100
AcDbEntity
  8
0
  6
CONTINUOUS
 62
     7
100
AcDbLine
 10
154.22
 20
132.0099999999999
 30
0.0
 11
153.89846
 21
130.81
 31
0.0
  0
LINE
  5
5A
330
1E
100
AcDbEntity
  8
0
  6
CONTINUOUS
 62
     7
100
AcDbLine
 10
153.89846
 20
117.2099999999999
 30
0.0
 11
154.22
 21
116.01
 31
0.0
  0
LINE
  5
5B
330
1E
100
AcDbEntity
  8
0
  6
CONTINUOUS
 62
     7
100
AcDbLine
 10
154.22
 20
116.01
 30
0.0
 11
154.5415299999999
 21
117.2099999999999
 31
0.0
  0
TEXT
  5
5C
330
1E
100
AcDbEntity
  8
0
  6
CONTINUOUS
 62
     7
100
AcDbText
 10
153.8199999999999
 20
120.11032
 30
0.0
 40
3.2
  1
400
 50
90.0
 41
0.8125
  7
BIGFONT
100
AcDbText
  0
LINE
  5
5D
330
1E
100
AcDbEntity
  8
0
  6
CONTINUOUS
 62
     7
100
AcDbLine
 10
168.2199999999999
 20
131.6503199999999
 30
0.0
 11
168.58
 21
132.01032
 31
0.0
  0
LINE
  5
5E
330
1E
100
AcDbEntity
  8
0
  6
CONTINUOUS
 62
     7
100
AcDbLine
 10
173.86
 20
132.01032
 30
0.0
 11
174.2199999999999
 21
131.6503199999999
 31
0.0
  0
LINE
  5
5F
330
1E
100
AcDbEntity
  8
0
  6
CONTINUOUS
 62
     7
100
AcDbLine
 10
165.54676
 20
91.01032
 30
0.0
 11
170.47828
 21
91.01032
 31
0.0
  0
LINE
  5
60
330
1E
100
AcDbEntity
  8
0
  6
CONTINUOUS
 62
     7
100
AcDbLine
 10
171.00752
 20
91.01032
 30
0.0
 11
171.1759199999999
 21
91.01032
 31
0.0
  0
LINE
  5
61
330
1E
100
AcDbEntity
  8
0
  6
CONTINUOUS
 62
     7
100
AcDbLine
 10
171.6570399999999
 20
91.01032
 30
0.0
 11
176.2518
 21
91.01032
 31
0.0
  0
ARC
  5
62
330
1E
100
AcDbEntity
  8
0
  6
CONTINUOUS
 62
     1
100
AcDbCircle
 10
30.08088
 20
55.01031999999999
 30
0.0
 40
1.199999999999999
100
AcDbArc
 50
180.0
 51
270.0
  0
LINE
  5
63
330
1E
100
AcDbEntity
  8
0
  6
CONTINUOUS
 62
     1
100
AcDbLine
 10
29.07764
 20
63.46796
 30
0.0
 11
29.07764
 21
67.6172
 31
0.0
  0
LINE
  5
64
330
1E
100
AcDbEntity
  8
0
  6
CONTINUOUS
 62
     7
100
AcDbLine
 10
155.6244399999999
 20
58.01031999999999
 30
0.0
 11
167.3658
 21
58.01031999999999
 31
0.0
  0
LINE
  5
65
330
1E
100
AcDbEntity
  8
0
  6
CONTINUOUS
 62
     7
100
AcDbLine
 10
182.8181199999999
 20
91.01032
 30
0.0
 11
190.3591199999999
 21
91.01032
 31
0.0
  0
LINE
  5
66
330
1E
100
AcDbEntity
  8
0
  6
CONTINUOUS
 62
     7
100
AcDbLine
 10
186.28956
 20
87.25032
 30
0.0
 11
186.28956
 21
94.77031999999999
 31
0.0
  0
CIRCLE
  5
67
330
1E
100
AcDbEntity
  8
0
  6
CONTINUOUS
 62
     7
100
AcDbCircle
 10
186.28956
 20
91.01032
 30
0.0
 40
1.5
  0
LINE
  5
68
330
1E
100
AcDbEntity
  8
0
  6
CONTINUOUS
 62
     7
100
AcDbLine
 10
160.22
 20
118.76324
 30
0.0
 11
160.22
 21
132.01032
 31
0.0
  0
LINE
  5
69
330
1E
100
AcDbEntity
  8
0
  6
CONTINUOUS
 62
     7
100
AcDbLine
 10
160.91088
 20
132.01032
 30
0.0
 11
159.4199999999998
 21
132.01032
 31
0.0
  0
LINE
  5
6A
330
1E
100
AcDbEntity
  8
0
  6
CONTINUOUS
 62
     7
100
AcDbLine
 10
167.22
 20
118.76324
 30
0.0
 11
159.4199999999998
 21
118.76324
 31
0.0
  0
LINE
  5
6B
330
1E
100
AcDbEntity
  8
0
  6
CONTINUOUS
 62
     7
100
AcDbLine
 10
160.5415299999999
 20
130.81
 30
0.0
 11
160.22
 21
132.0099999999999
 31
0.0
  0
LINE
  5
6C
330
1E
100
AcDbEntity
  8
0
  6
CONTINUOUS
 62
     7
100
AcDbLine
 10
160.22
 20
132.0099999999999
 30
0.0
 11
159.89846
 21
130.81
 31
0.0
  0
LINE
  5
6D
330
1E
100
AcDbEntity
  8
0
  6
CONTINUOUS
 62
     7
100
AcDbLine
 10
159.89846
 20
119.9629999999999
 30
0.0
 11
160.22
 21
118.7629999999999
 31
0.0
  0
LINE
  5
6E
330
1E
100
AcDbEntity
  8
0
  6
CONTINUOUS
 62
     7
100
AcDbLine
 10
160.22
 20
118.7629999999999
 30
0.0
 11
160.5415299999999
 21
119.9629999999999
 31
0.0
  0
TEXT
  5
6F
330
1E
100
AcDbEntity
  8
0
  6
CONTINUOUS
 62
     7
100
AcDbText
 10
159.82
 20
121.48678
 30
0.0
 40
3.2
  1
330
 50
90.0
 41
0.8125
  7
BIGFONT
100
AcDbText
  0
LINE
  5
70
330
1E
100
AcDbEntity
  8
0
  6
HIDDEN
 62
     7
100
AcDbLine
 10
168.2199999999999
 20
92.51032
 30
0.0
 11
173.8429199999999
 21
92.51032
 31
0.0
  0
LINE
  5
71
330
1E
100
AcDbEntity
  8
0
  6
HIDDEN
 62
     7
100
AcDbLine
 10
168.2199999999999
 20
89.51031999999996
 30
0.0
 11
173.96624
 21
89.51024
 31
0.0
  0
LINE
  5
72
330
1E
100
AcDbEntity
  8
0
  6
CONTINUOUS
 62
     1
100
AcDbLine
 10
28.88087999999999
 20
57.41032
 30
0.0
 11
28.88087999999999
 21
100.0103199999999
 31
0.0
  0
LINE
  5
73
330
1E
100
AcDbEntity
  8
0
  6
CONTINUOUS
 62
     7
100
AcDbLine
 10
-106.1316399999999
 20
52.01032
 30
0.0
 11
-92.30679999999999
 21
52.01032
 31
0.0
  0
LINE
  5
74
330
1E
100
AcDbEntity
  8
0
  6
CONTINUOUS
 62
     7
100
AcDbLine
 10
-92.30679999999999
 20
52.01032
 30
0.0
 11
-80.11000000000001
 21
52.01032
 31
0.0
  0
LINE
  5
75
330
1E
100
AcDbEntity
  8
0
  6
CONTINUOUS
 62
     7
100
AcDbLine
 10
-80.11000000000001
 20
52.01032
 30
0.0
 11
-39.12524
 21
52.01032
 31
0.0
  0
LINE
  5
76
330
1E
100
AcDbEntity
  8
0
  6
CONTINUOUS
 62
     1
100
AcDbLine
 10
38.5388
 20
54.0068
 30
0.0
 11
42.64488
 21
54.0068
 31
0.0
  0
POINT
  5
77
330
1E
100
AcDbEntity
  8
0
  6
CONTINUOUS
 62
     1
100
AcDbPoint
 10
31.26527999999999
 20
54.41031999999999
 30
0.0
  0
POINT
  5
78
330
1E
100
AcDbEntity
  8
0
  6
CONTINUOUS
 62
     7
100
AcDbPoint
 10
29.26088
 20
92.61032
 30
0.0
  0
LINE
  5
79
330
1E
100
AcDbEntity
  8
3
  6
CONTINUOUS
 62
     7
100
AcDbLine
 10
168.6159999999999
 20
-191.6469999999999
 30
0.0
 11
168.6159999999999
 21
-141.6469999999999
 31
0.0
  0
LINE
  5
7A
330
1E
100
AcDbEntity
  8
3
  6
CONTINUOUS
 62
     7
100
AcDbLine
 10
168.6159999999999
 20
-191.6469999999999
 30
0.0
 11
168.6159999999999
 21
-141.6469999999999
 31
0.0
  0
LINE
  5
7B
330
1E
100
AcDbEntity
  8
3
  6
CONTINUOUS
 62
     7
100
AcDbLine
 10
168.6159999999999
 20
-191.6469999999999
 30
0.0
 11
168.6159999999999
 21
-141.6469999999999
 31
0.0
  0
LINE
  5
7C
330
1E
100
AcDbEntity
  8
3
  6
CONTINUOUS
 62
     7
100
AcDbLine
 10
168.6159999999999
 20
-191.6469999999999
 30
0.0
 11
168.6159999999999
 21
-141.6469999999999
 31
0.0
  0
LINE
  5
7D
330
1E
100
AcDbEntity
  8
3
  6
CONTINUOUS
 62
     7
100
AcDbLine
 10
168.6159999999999
 20
-191.6469999999999
 30
0.0
 11
168.6159999999999
 21
-141.6469999999999
 31
0.0
  0
LINE
  5
7E
330
1E
100
AcDbEntity
  8
3
  6
CONTINUOUS
 62
     7
100
AcDbLine
 10
168.6159999999999
 20
-191.6469999999999
 30
0.0
 11
168.6159999999999
 21
-141.6469999999999
 31
0.0
  0
LINE
  5
7F
330
1E
100
AcDbEntity
  8
3
  6
CONTINUOUS
 62
     7
100
AcDbLine
 10
168.6159999999999
 20
-141.6469999999999
 30
0.0
 11
268.616
 21
-141.6469999999999
 31
0.0
  0
LINE
  5
80
330
1E
100
AcDbEntity
  8
3
  6
CONTINUOUS
 62
     7
100
AcDbLine
 10
268.616
 20
-191.6469999999999
 30
0.0
 11
268.616
 21
-141.6469999999999
 31
0.0
  0
LINE
  5
81
330
1E
100
AcDbEntity
  8
3
  6
CONTINUOUS
 62
     7
100
AcDbLine
 10
168.6159999999999
 20
-191.6469999999999
 30
0.0
 11
268.616
 21
-191.6469999999999
 31
0.0
  0
LINE
  5
82
330
1E
100
AcDbEntity
  8
3
  6
CONTINUOUS
 62
     7
100
AcDbLine
 10
168.6159999999999
 20
-191.6469999999999
 30
0.0
 11
168.6159999999999
 21
-141.6469999999999
 31
0.0
  0
LINE
  5
83
330
1E
100
AcDbEntity
  8
3
  6
CONTINUOUS
 62
     7
100
AcDbLine
 10
168.6159999999999
 20
-191.6469999999999
 30
0.0
 11
268.616
 21
-191.6469999999999
 31
0.0
  0
LINE
  5
84
330
1E
100
AcDbEntity
  8
3
  6
CONTINUOUS
 62
     7
100
AcDbLine
 10
168.6159999999999
 20
-191.6469999999999
 30
0.0
 11
168.6159999999999
 21
-141.6469999999999
 31
0.0
  0
LINE
  5
85
330
1E
100
AcDbEntity
  8
3
  6
CONTINUOUS
 62
     7
100
AcDbLine
 10
168.6159999999999
 20
-151.6469999999999
 30
0.0
 11
268.616
 21
-151.6469999999999
 31
0.0
  0
LINE
  5
86
330
1E
100
AcDbEntity
  8
3
  6
CONTINUOUS
 62
     7
100
AcDbLine
 10
168.6159999999999
 20
-159.647
 30
0.0
 11
268.616
 21
-159.647
 31
0.0
  0
LINE
  5
87
330
1E
100
AcDbEntity
  8
3
  6
CONTINUOUS
 62
     7
100
AcDbLine
 10
168.6159999999999
 20
-167.6469999999999
 30
0.0
 11
268.616
 21
-167.6469999999999
 31
0.0
  0
LINE
  5
88
330
1E
100
AcDbEntity
  8
3
  6
CONTINUOUS
 62
     7
100
AcDbLine
 10
168.6159999999999
 20
-180.647
 30
0.0
 11
268.616
 21
-180.647
 31
0.0
  0
LINE
  5
89
330
1E
100
AcDbEntity
  8
3
  6
CONTINUOUS
 62
     7
100
AcDbLine
 10
195.6159999999999
 20
-180.647
 30
0.0
 11
195.6159999999999
 21
-141.6469999999999
 31
0.0
  0
LINE
  5
8A
330
1E
100
AcDbEntity
  8
3
  6
CONTINUOUS
 62
     7
100
AcDbLine
 10
188.6159999999999
 20
-180.647
 30
0.0
 11
188.6159999999999
 21
-167.6469999999999
 31
0.0
  0
LINE
  5
8B
330
1E
100
AcDbEntity
  8
3
  6
CONTINUOUS
 62
     7
100
AcDbLine
 10
175.6159999999999
 20
-180.647
 30
0.0
 11
175.6159999999999
 21
-167.6469999999999
 31
0.0
  0
LINE
  5
8C
330
1E
100
AcDbEntity
  8
3
  6
CONTINUOUS
 62
     7
100
AcDbLine
 10
208.616
 20
-180.647
 30
0.0
 11
208.616
 21
-167.6469999999999
 31
0.0
  0
LINE
  5
8D
330
1E
100
AcDbEntity
  8
3
  6
CONTINUOUS
 62
     7
100
AcDbLine
 10
215.6159999999999
 20
-180.647
 30
0.0
 11
215.6159999999999
 21
-167.6469999999999
 31
0.0
  0
LINE
  5
8E
330
1E
100
AcDbEntity
  8
3
  6
CONTINUOUS
 62
     7
100
AcDbLine
 10
228.6159999999999
 20
-180.647
 30
0.0
 11
228.6159999999999
 21
-167.6469999999999
 31
0.0
  0
LINE
  5
8F
330
1E
100
AcDbEntity
  8
3
  6
CONTINUOUS
 62
     7
100
AcDbLine
 10
235.616
 20
-180.647
 30
0.0
 11
235.616
 21
-167.6469999999999
 31
0.0
  0
LINE
  5
90
330
1E
100
AcDbEntity
  8
3
  6
CONTINUOUS
 62
     7
100
AcDbLine
 10
248.6159999999999
 20
-180.647
 30
0.0
 11
248.6159999999999
 21
-167.6469999999999
 31
0.0
  0
LINE
  5
91
330
1E
100
AcDbEntity
  8
3
  6
CONTINUOUS
 62
     7
100
AcDbLine
 10
255.6159999999999
 20
-180.647
 30
0.0
 11
255.6159999999999
 21
-167.6469999999999
 31
0.0
  0
LINE
  5
92
330
1E
100
AcDbEntity
  8
3
  6
CONTINUOUS
 62
     7
100
AcDbLine
 10
220.616
 20
-159.647
 30
0.0
 11
220.616
 21
-151.6469999999999
 31
0.0
  0
LINE
  5
93
330
1E
100
AcDbEntity
  8
3
  6
CONTINUOUS
 62
     7
100
AcDbLine
 10
243.616
 20
-159.647
 30
0.0
 11
243.616
 21
-151.6469999999999
 31
0.0
  0
TEXT
  5
94
330
1E
100
AcDbEntity
  8
3
  6
CONTINUOUS
 62
     7
100
AcDbText
 10
171.9309999999999
 20
-149.5109999999999
 30
0.0
 40
5.0
  1
図面名
  7
BIGFONT
100
AcDbText
  0
TEXT
  5
95
330
1E
100
AcDbEntity
  8
3
  6
CONTINUOUS
 62
     7
100
AcDbText
 10
172.4109999999999
 20
-157.873
 30
0.0
 40
4.0
  1
縮尺
  7
BIGFONT
100
AcDbText
  0
TEXT
  5
96
330
1E
100
AcDbEntity
  8
3
  6
CONTINUOUS
 62
     7
100
AcDbText
 10
222.847
 20
-157.7769999999999
 30
0.0
 40
4.0
  1
図面番号
  7
BIGFONT
100
AcDbText
  0
TEXT
  5
97
330
1E
100
AcDbEntity
  8
3
  6
CONTINUOUS
 62
     7
100
AcDbText
 10
172.2189999999999
 20
-165.8509999999999
 30
0.0
 40
4.0
  1
設計年月日
  7
BIGFONT
100
AcDbText
  0
TEXT
  5
98
330
1E
100
AcDbEntity
  8
3
  6
CONTINUOUS
 62
     7
100
AcDbText
 10
204.3059999999999
 20
-165.8509999999999
 30
0.0
 40
4.0
  1
平成　　年　　月　　日
  7
BIGFONT
100
AcDbText
  0
TEXT
  5
99
330
1E
100
AcDbEntity
  8
3
  6
CONTINUOUS
 62
     7
100
AcDbText
 10
190.5107511862416
 20
-189.5809999999999
 30
0.0
 40
6.0
  1
千葉窯業株式会社
  7
BIGFONT
100
AcDbText
  0
TEXT
  5
9A
330
1E
100
AcDbEntity
  8
3
  6
CONTINUOUS
 62
     7
100
AcDbText
 10
170.298
 20
-169.4079999999999
 30
0.0
 40
4.0
  1
部長
 50
270.0
  7
BIGFONT
100
AcDbText
  0
TEXT
  5
9B
330
1E
100
AcDbEntity
  8
3
  6
CONTINUOUS
 62
     7
100
AcDbText
 10
190.28
 20
-169.4079999999999
 30
0.0
 40
4.0
  1
課長
 50
270.0
  7
BIGFONT
100
AcDbText
  0
TEXT
  5
9C
330
1E
100
AcDbEntity
  8
3
  6
CONTINUOUS
 62
     7
100
AcDbText
 10
210.2619999999999
 20
-169.4079999999999
 30
0.0
 40
4.0
  1
検図
 50
270.0
  7
BIGFONT
100
AcDbText
  0
TEXT
  5
9D
330
1E
100
AcDbEntity
  8
3
  6
CONTINUOUS
 62
     7
100
AcDbText
 10
230.437
 20
-169.4079999999999
 30
0.0
 40
4.0
  1
設計
 50
270.0
  7
BIGFONT
100
AcDbText
  0
TEXT
  5
9E
330
1E
100
AcDbEntity
  8
3
  6
CONTINUOUS
 62
     7
100
AcDbText
 10
250.3229999999999
 20
-169.312
 30
0.0
 40
4.0
  1
製図
 50
270.0
  7
BIGFONT
100
AcDbText
  0
LINE
  5
9F
330
1E
100
AcDbEntity
  8
3
  6
CONTINUOUS
 62
     7
100
AcDbLine
 10
168.6159999999999
 20
-191.6469999999999
 30
0.0
 11
268.616
 21
-191.6469999999999
 31
0.0
  0
LINE
  5
A0
330
1E
100
AcDbEntity
  8
3
  6
CONTINUOUS
 62
     7
100
AcDbLine
 10
168.6159999999999
 20
-191.6469999999999
 30
0.0
 11
168.6159999999999
 21
-141.6469999999999
 31
0.0
  0
TEXT
  5
B0
330
1E
100
AcDbEntity
  8
3
  6
CONTINUOUS
 62
     7
100
AcDbText
 10
218.7509999999999
 20
-165.8779999999999
 30
0.0
 40
3.799999999999998
  1
３
  7
BIGFONT
100
AcDbText
  0
TEXT
  5
B1
330
1E
100
AcDbEntity
  8
3
  6
CONTINUOUS
 62
     7
100
AcDbText
 10
234.0489999999999
 20
-165.8789999999999
 30
0.0
 40
3.799999999999998
  1
６
  7
BIGFONT
100
AcDbText
  0
TEXT
  5
B2
330
1E
100
AcDbEntity
  8
3
  6
CONTINUOUS
 62
     7
100
AcDbText
 10
249.3809999999999
 20
-165.894
 30
0.0
 40
3.799999999999998
  1
１
  7
BIGFONT
100
AcDbText
  0
TEXT
  5
B3
330
1E
100
AcDbEntity
  8
3
  6
CONTINUOUS
 62
     7
100
AcDbText
 10
201.4899999999999
 20
-158.0529999999999
 30
0.0
 40
4.0
  1
１：２５
  7
BIGFONT
100
AcDbText
  0
LINE
  5
B4
330
1E
100
AcDbEntity
  8
0
  6
CONTINUOUS
 62
     1
100
AcDbLine
 10
-104.61164
 20
53.81032
 30
0.0
 11
-104.61164
 21
130.01032
 31
0.0
  0
LINE
  5
B5
330
1E
100
AcDbEntity
  8
0
  6
CONTINUOUS
 62
     7
100
AcDbLine
 10
-270.30444
 20
-193.3169199999999
 30
0.0
 11
-270.30444
 21
193.3489199999999
 31
0.0
  0
LINE
  5
B6
330
1E
100
AcDbEntity
  8
0
  6
CONTINUOUS
 62
     7
100
AcDbLine
 10
-270.30444
 20
-193.3169199999999
 30
0.0
 11
270.2874799999999
 21
-193.3169199999999
 31
0.0
  0
LINE
  5
B7
330
1E
100
AcDbEntity
  8
0
  6
CONTINUOUS
 62
     7
100
AcDbLine
 10
270.2874799999999
 20
-193.3169199999999
 30
0.0
 11
270.2874799999999
 21
193.3489199999999
 31
0.0
  0
LINE
  5
B8
330
1E
100
AcDbEntity
  8
0
  6
CONTINUOUS
 62
     7
100
AcDbLine
 10
-270.30444
 20
193.3489199999999
 30
0.0
 11
270.2874799999999
 21
193.3489199999999
 31
0.0
  0
LINE
  5
B9
330
1E
100
AcDbEntity
  8
0
  6
CONTINUOUS
 62
     7
100
AcDbLine
 10
-158.7314
 20
169.8625199999999
 30
0.0
 11
158.80596
 21
169.8625199999999
 31
0.0
  0
TEXT
  5
BA
330
1E
100
AcDbEntity
  8
0
  6
CONTINUOUS
 62
     7
100
AcDbText
 10
-154.35696
 20
172.10164
 30
0.0
 40
10.0
  1
ＫＬウォール３型．コーナー部構造図
  7
BIGFONT
100
AcDbText
  0
TEXT
  5
BB
330
1E
100
AcDbEntity
  8
0
  6
CONTINUOUS
 62
     7
100
AcDbText
 10
121.8710799999999
 20
172.8917199999999
 30
0.0
 40
5.5
  1
Ｓ＝１：２５
  7
BIGFONT
100
AcDbText
  0
TEXT
  5
BC
330
1E
100
AcDbEntity
  8
0
  6
CONTINUOUS
 62
     7
100
AcDbText
 10
50.02695872614914
 20
172.663430999108
 30
0.0
 40
6.5
  1
(H=2000-90°)
  7
BIGFONT
100
AcDbText
  0
LINE
  5
BD
330
1E
100
AcDbEntity
  8
0
  6
CONTINUOUS
 62
     7
100
AcDbLine
 10
-98.61164000000002
 20
153.6246
 30
0.0
 11
-46.04988
 21
153.6246
 31
0.0
  0
LINE
  5
BE
330
1E
100
AcDbEntity
  8
0
  6
CONTINUOUS
 62
     7
100
AcDbLine
 10
-220.9764799999999
 20
153.6246
 30
0.0
 11
-168.54536
 21
153.6246
 31
0.0
  0
TEXT
  5
BF
330
1E
100
AcDbEntity
  8
0
  6
CONTINUOUS
 62
     7
100
AcDbText
 10
-218.2130799999999
 20
154.50696
 30
0.0
 40
6.0
  1
Ａ－Ａ
 41
0.8666665999999999
  7
BIGFONT
100
AcDbText
  0
TEXT
  5
C0
330
1E
100
AcDbEntity
  8
0
  6
CONTINUOUS
 62
     7
100
AcDbText
 10
-95.84596000000001
 20
154.2564
 30
0.0
 40
6.0
  1
Ｂ－Ｂ
 41
0.8666665999999999
  7
BIGFONT
100
AcDbText
  0
TEXT
  5
C1
330
1E
100
AcDbEntity
  8
0
  6
CONTINUOUS
 62
     7
100
AcDbText
 10
-194.55024
 20
154.54488
 30
0.0
 40
6.0
  1
断面図
  7
BIGFONT
100
AcDbText
  0
TEXT
  5
C2
330
1E
100
AcDbEntity
  8
0
  6
CONTINUOUS
 62
     7
100
AcDbText
 10
-72.36983999999998
 20
154.46128
 30
0.0
 40
6.0
  1
断面図
  7
BIGFONT
100
AcDbText
  0
LINE
  5
C3
330
1E
100
AcDbEntity
  8
0
  6
CONTINUOUS
 62
     7
100
AcDbLine
 10
-98.61164000000002
 20
-4.248159999999998
 30
0.0
 11
-46.26508
 21
-4.248159999999998
 31
0.0
  0
LINE
  5
C4
330
1E
100
AcDbEntity
  8
0
  6
CONTINUOUS
 62
     7
100
AcDbLine
 10
-220.9764799999999
 20
-4.248159999999998
 30
0.0
 11
-168.62576
 21
-4.248159999999998
 31
0.0
  0
TEXT
  5
C5
330
1E
100
AcDbEntity
  8
0
  6
CONTINUOUS
 62
     7
100
AcDbText
 10
-218.1916399999999
 20
-3.40084
 30
0.0
 40
6.0
  1
Ｃ－Ｃ
 41
0.8666665999999999
  7
BIGFONT
100
AcDbText
  0
TEXT
  5
C6
330
1E
100
AcDbEntity
  8
0
  6
CONTINUOUS
 62
     7
100
AcDbText
 10
-95.78575999999999
 20
-3.407
 30
0.0
 40
6.0
  1
Ｄ－Ｄ
 41
0.8666665999999999
  7
BIGFONT
100
AcDbText
  0
TEXT
  5
C7
330
1E
100
AcDbEntity
  8
0
  6
CONTINUOUS
 62
     7
100
AcDbText
 10
-72.0398
 20
-3.339359999999998
 30
0.0
 40
6.0
  1
断面図
  7
BIGFONT
100
AcDbText
  0
TEXT
  5
C8
330
1E
100
AcDbEntity
  8
0
  6
CONTINUOUS
 62
     7
100
AcDbText
 10
-194.58428
 20
-3.275079999999998
 30
0.0
 40
6.0
  1
断面図
  7
BIGFONT
100
AcDbText
  0
LINE
  5
C9
330
1E
100
AcDbEntity
  8
0
  6
CONTINUOUS
 62
     7
100
AcDbLine
 10
188.94056
 20
153.6151999999999
 30
0.0
 11
215.6348799999999
 21
153.6151999999999
 31
0.0
  0
LINE
  5
CA
330
1E
100
AcDbEntity
  8
0
  6
CONTINUOUS
 62
     7
100
AcDbLine
 10
188.94056
 20
-4.248159999999998
 30
0.0
 11
215.4544
 21
-4.248159999999998
 31
0.0
  0
TEXT
  5
CB
330
1E
100
AcDbEntity
  8
0
  6
CONTINUOUS
 62
     7
100
AcDbText
 10
190.43576
 20
154.6324
 30
0.0
 40
6.2
  1
側面図
  7
BIGFONT
100
AcDbText
  0
TEXT
  5
CC
330
1E
100
AcDbEntity
  8
0
  6
CONTINUOUS
 62
     7
100
AcDbText
 10
190.09736
 20
-3.31424
 30
0.0
 40
6.2
  1
平面図
  7
BIGFONT
100
AcDbText
  0
LINE
  5
CD
330
1E
100
AcDbEntity
  8
0
  6
CONTINUOUS
 62
     7
100
AcDbLine
 10
168.2199999999999
 20
-98.64964
 30
0.0
 11
168.2199999999999
 21
-30.64964
 31
0.0
  0
LINE
  5
CE
330
1E
100
AcDbEntity
  8
0
  6
CONTINUOUS
 62
     7
100
AcDbLine
 10
168.2199999999999
 20
-30.64964
 30
0.0
 11
236.22
 21
-30.64964
 31
0.0
  0
LINE
  5
CF
330
1E
100
AcDbEntity
  8
0
  6
CONTINUOUS
 62
     7
100
AcDbLine
 10
168.2199999999999
 20
-98.64964
 30
0.0
 11
222.2199999999999
 21
-98.64964
 31
0.0
  0
LINE
  5
D0
330
1E
100
AcDbEntity
  8
0
  6
CONTINUOUS
 62
     7
100
AcDbLine
 10
184.22
 20
-40.64964
 30
0.0
 11
184.22
 21
-36.64964
 31
0.0
  0
LINE
  5
D1
330
1E
100
AcDbEntity
  8
0
  6
CONTINUOUS
 62
     7
100
AcDbLine
 10
184.22
 20
-40.64964
 30
0.0
 11
236.22
 21
-40.64964
 31
0.0
  0
LINE
  5
D2
330
1E
100
AcDbEntity
  8
0
  6
CONTINUOUS
 62
     7
100
AcDbLine
 10
178.22
 20
-98.64964
 30
0.0
 11
178.22
 21
-46.64964
 31
0.0
  0
LINE
  5
D3
330
1E
100
AcDbEntity
  8
0
  6
CONTINUOUS
 62
     7
100
AcDbLine
 10
174.2199999999999
 20
-46.64964
 30
0.0
 11
178.22
 21
-46.64964
 31
0.0
  0
LINE
  5
D4
330
1E
100
AcDbEntity
  8
0
  6
CONTINUOUS
 62
     7
100
AcDbLine
 10
160.22
 20
-98.64964
 30
0.0
 11
160.22
 21
-46.61184
 31
0.0
  0
LINE
  5
D5
330
1E
100
AcDbEntity
  8
0
  6
CONTINUOUS
 62
     7
100
AcDbLine
 10
167.22
 20
-46.61184
 30
0.0
 11
159.4199999999998
 21
-46.61184
 31
0.0
  0
LINE
  5
D6
330
1E
100
AcDbEntity
  8
0
  6
CONTINUOUS
 62
     7
100
AcDbLine
 10
161.81808
 20
-98.64964
 30
0.0
 11
159.4199999999998
 21
-98.64964
 31
0.0
  0
LINE
  5
D7
330
1E
100
AcDbEntity
  8
0
  6
CONTINUOUS
 62
     7
100
AcDbLine
 10
160.5415299999999
 20
-47.81100000000001
 30
0.0
 11
160.22
 21
-46.611
 31
0.0
  0
LINE
  5
D8
330
1E
100
AcDbEntity
  8
0
  6
CONTINUOUS
 62
     7
100
AcDbLine
 10
160.22
 20
-46.611
 30
0.0
 11
159.89846
 21
-47.81100000000001
 31
0.0
  0
LINE
  5
D9
330
1E
100
AcDbEntity
  8
0
  6
CONTINUOUS
 62
     7
100
AcDbLine
 10
159.89846
 20
-97.44900000000001
 30
0.0
 11
160.22
 21
-98.649
 31
0.0
  0
LINE
  5
DA
330
1E
100
AcDbEntity
  8
0
  6
CONTINUOUS
 62
     7
100
AcDbLine
 10
160.22
 20
-98.649
 30
0.0
 11
160.5415299999999
 21
-97.44900000000001
 31
0.0
  0
TEXT
  5
DB
330
1E
100
AcDbEntity
  8
0
  6
CONTINUOUS
 62
     7
100
AcDbText
 10
159.82
 20
-77.83074
 30
0.0
 40
3.2
  1
1300
 50
90.0
 41
0.8125
  7
BIGFONT
100
AcDbText
  0
LINE
  5
DC
330
1E
100
AcDbEntity
  8
0
  6
CONTINUOUS
 62
     7
100
AcDbLine
 10
168.2199999999999
 20
-112.6496399999999
 30
0.0
 11
222.2199999999999
 21
-112.6496399999999
 31
0.0
  0
LINE
  5
DD
330
1E
100
AcDbEntity
  8
0
  6
CONTINUOUS
 62
     7
100
AcDbLine
 10
222.2199999999999
 20
-99.64964000000001
 30
0.0
 11
222.2199999999999
 21
-113.4496399999999
 31
0.0
  0
LINE
  5
DE
330
1E
100
AcDbEntity
  8
0
  6
CONTINUOUS
 62
     7
100
AcDbLine
 10
168.2199999999999
 20
-99.64964000000001
 30
0.0
 11
168.2199999999999
 21
-113.4496399999999
 31
0.0
  0
LINE
  5
DF
330
1E
100
AcDbEntity
  8
0
  6
CONTINUOUS
 62
     7
100
AcDbLine
 10
221.0199999999999
 20
-112.97053
 30
0.0
 11
222.2199999999999
 21
-112.6489999999999
 31
0.0
  0
LINE
  5
E0
330
1E
100
AcDbEntity
  8
0
  6
CONTINUOUS
 62
     7
100
AcDbLine
 10
222.2199999999999
 20
-112.6489999999999
 30
0.0
 11
221.0199999999999
 21
-112.32746
 31
0.0
  0
LINE
  5
E1
330
1E
100
AcDbEntity
  8
0
  6
CONTINUOUS
 62
     7
100
AcDbLine
 10
169.4199999999999
 20
-112.32746
 30
0.0
 11
168.2199999999999
 21
-112.6489999999999
 31
0.0
  0
LINE
  5
E2
330
1E
100
AcDbEntity
  8
0
  6
CONTINUOUS
 62
     7
100
AcDbLine
 10
168.2199999999999
 20
-112.6489999999999
 30
0.0
 11
169.4199999999999
 21
-112.97053
 31
0.0
  0
TEXT
  5
E3
330
1E
100
AcDbEntity
  8
0
  6
CONTINUOUS
 62
     7
100
AcDbText
 10
190.02
 20
-112.2496399999999
 30
0.0
 40
3.2
  1
1350
 41
0.8125
  7
BIGFONT
100
AcDbText
  0
LINE
  5
E4
330
1E
100
AcDbEntity
  8
0
  6
CONTINUOUS
 62
     7
100
AcDbLine
 10
168.2199999999999
 20
-106.6496399999999
 30
0.0
 11
174.2199999999999
 21
-106.6496399999999
 31
0.0
  0
LINE
  5
E5
330
1E
100
AcDbEntity
  8
0
  6
CONTINUOUS
 62
     7
100
AcDbLine
 10
174.2199999999999
 20
-99.64964000000001
 30
0.0
 11
174.2199999999999
 21
-107.4496399999999
 31
0.0
  0
LINE
  5
E6
330
1E
100
AcDbEntity
  8
0
  6
CONTINUOUS
 62
     7
100
AcDbLine
 10
168.2199999999999
 20
-103.34204
 30
0.0
 11
168.2199999999999
 21
-107.4496399999999
 31
0.0
  0
LINE
  5
E7
330
1E
100
AcDbEntity
  8
0
  6
CONTINUOUS
 62
     7
100
AcDbLine
 10
173.02
 20
-106.97053
 30
0.0
 11
174.2199999999999
 21
-106.6489999999999
 31
0.0
  0
LINE
  5
E8
330
1E
100
AcDbEntity
  8
0
  6
CONTINUOUS
 62
     7
100
AcDbLine
 10
174.2199999999999
 20
-106.6489999999999
 30
0.0
 11
173.02
 21
-106.32746
 31
0.0
  0
LINE
  5
E9
330
1E
100
AcDbEntity
  8
0
  6
CONTINUOUS
 62
     7
100
AcDbLine
 10
169.4199999999999
 20
-106.32746
 30
0.0
 11
168.2199999999999
 21
-106.6489999999999
 31
0.0
  0
LINE
  5
EA
330
1E
100
AcDbEntity
  8
0
  6
CONTINUOUS
 62
     7
100
AcDbLine
 10
168.2199999999999
 20
-106.6489999999999
 30
0.0
 11
169.4199999999999
 21
-106.97053
 31
0.0
  0
TEXT
  5
EB
330
1E
100
AcDbEntity
  8
0
  6
CONTINUOUS
 62
     7
100
AcDbText
 10
168.5154800351299
 20
-106.2496399999999
 30
0.0
 40
3.2
  1
150
 41
0.8125
  7
BIGFONT
100
AcDbText
  0
LINE
  5
EC
330
1E
100
AcDbEntity
  8
0
  6
CONTINUOUS
 62
     7
100
AcDbLine
 10
174.2199999999999
 20
-106.6496399999999
 30
0.0
 11
178.22
 21
-106.6496399999999
 31
0.0
  0
LINE
  5
ED
330
1E
100
AcDbEntity
  8
0
  6
CONTINUOUS
 62
     7
100
AcDbLine
 10
178.22
 20
-99.64964000000001
 30
0.0
 11
178.22
 21
-107.4496399999999
 31
0.0
  0
LINE
  5
EE
330
1E
100
AcDbEntity
  8
0
  6
CONTINUOUS
 62
     7
100
AcDbLine
 10
180.62
 20
-106.6496399999999
 30
0.0
 11
178.22
 21
-106.6496399999999
 31
0.0
  0
LINE
  5
EF
330
1E
100
AcDbEntity
  8
0
  6
CONTINUOUS
 62
     7
100
AcDbLine
 10
179.42
 20
-106.32746
 30
0.0
 11
178.22
 21
-106.6489999999999
 31
0.0
  0
LINE
  5
F0
330
1E
100
AcDbEntity
  8
0
  6
CONTINUOUS
 62
     7
100
AcDbLine
 10
178.22
 20
-106.6489999999999
 30
0.0
 11
179.42
 21
-106.97053
 31
0.0
  0
LINE
  5
F1
330
1E
100
AcDbEntity
  8
0
  6
CONTINUOUS
 62
     7
100
AcDbLine
 10
174.2199999999999
 20
-106.6496399999999
 30
0.0
 11
171.8199999999999
 21
-106.6496399999999
 31
0.0
  0
LINE
  5
F2
330
1E
100
AcDbEntity
  8
0
  6
CONTINUOUS
 62
     7
100
AcDbLine
 10
173.02
 20
-106.97053
 30
0.0
 11
174.2199999999999
 21
-106.6489999999999
 31
0.0
  0
LINE
  5
F3
330
1E
100
AcDbEntity
  8
0
  6
CONTINUOUS
 62
     7
100
AcDbLine
 10
174.2199999999999
 20
-106.6489999999999
 30
0.0
 11
173.02
 21
-106.32746
 31
0.0
  0
LINE
  5
F4
330
1E
100
AcDbEntity
  8
0
  6
CONTINUOUS
 62
     7
100
AcDbLine
 10
180.62
 20
-106.6496399999999
 30
0.0
 11
186.5399999999999
 21
-106.6496399999999
 31
0.0
  0
TEXT
  5
F5
330
1E
100
AcDbEntity
  8
0
  6
CONTINUOUS
 62
     7
100
AcDbText
 10
179.5676415985615
 20
-106.2496399999999
 30
0.0
 40
3.2
  1
100
 41
0.8125
  7
BIGFONT
100
AcDbText
  0
LINE
  5
F6
330
1E
100
AcDbEntity
  8
0
  6
CONTINUOUS
 62
     7
100
AcDbLine
 10
236.22
 20
52.01032
 30
0.0
 11
236.22
 21
58.01031999999999
 31
0.0
  0
LINE
  5
F7
330
1E
100
AcDbEntity
  8
0
  6
CONTINUOUS
 62
     7
100
AcDbLine
 10
174.2199999999999
 20
62.01031999999999
 30
0.0
 11
178.22
 21
58.01031999999999
 31
0.0
  0
LINE
  5
F8
330
1E
100
AcDbEntity
  8
0
  6
CONTINUOUS
 62
     7
100
AcDbLine
 10
168.2199999999999
 20
64.41031999999998
 30
0.0
 11
174.2199999999999
 21
64.41016000000001
 31
0.0
  0
LINE
  5
F9
330
1E
100
AcDbEntity
  8
0
  6
CONTINUOUS
 62
     7
100
AcDbLine
 10
174.2199999999999
 20
62.01031999999999
 30
0.0
 11
174.2199999999999
 21
131.6503199999999
 31
0.0
  0
LINE
  5
FA
330
1E
100
AcDbEntity
  8
0
  6
CONTINUOUS
 62
     7
100
AcDbLine
 10
178.22
 20
58.01031999999999
 30
0.0
 11
236.22
 21
58.01031999999999
 31
0.0
  0
LINE
  5
FB
330
1E
100
AcDbEntity
  8
0
  6
CONTINUOUS
 62
     7
100
AcDbLine
 10
246.22
 20
52.01032
 30
0.0
 11
246.22
 21
58.01031999999999
 31
0.0
  0
LINE
  5
FC
330
1E
100
AcDbEntity
  8
0
  6
CONTINUOUS
 62
     7
100
AcDbLine
 10
237.2199999999998
 20
58.01031999999999
 30
0.0
 11
247.02
 21
58.01031999999999
 31
0.0
  0
LINE
  5
FD
330
1E
100
AcDbEntity
  8
0
  6
CONTINUOUS
 62
     7
100
AcDbLine
 10
237.2199999999998
 20
52.01032
 30
0.0
 11
247.02
 21
52.01032
 31
0.0
  0
LINE
  5
FE
330
1E
100
AcDbEntity
  8
0
  6
CONTINUOUS
 62
     7
100
AcDbLine
 10
246.54153
 20
56.81
 30
0.0
 11
246.22
 21
58.01
 31
0.0
  0
LINE
  5
FF
330
1E
100
AcDbEntity
  8
0
  6
CONTINUOUS
 62
     7
100
AcDbLine
 10
246.22
 20
58.01
 30
0.0
 11
245.8984599999999
 21
56.81
 31
0.0
  0
LINE
  5
100
330
1E
100
AcDbEntity
  8
0
  6
CONTINUOUS
 62
     7
100
AcDbLine
 10
245.8984599999999
 20
53.21
 30
0.0
 11
246.22
 21
52.01
 31
0.0
  0
LINE
  5
101
330
1E
100
AcDbEntity
  8
0
  6
CONTINUOUS
 62
     7
100
AcDbLine
 10
246.22
 20
52.01
 30
0.0
 11
246.54153
 21
53.21
 31
0.0
  0
TEXT
  5
102
330
1E
100
AcDbEntity
  8
0
  6
CONTINUOUS
 62
     7
100
AcDbText
 10
245.82
 20
52.99231337855349
 30
0.0
 40
3.2
  1
150
 50
90.0
 41
0.8125
  7
BIGFONT
100
AcDbText
  0
LINE
  5
103
330
1E
100
AcDbEntity
  8
0
  6
CONTINUOUS
 62
     7
100
AcDbLine
 10
222.2199999999999
 20
52.01032
 30
0.0
 11
222.2199999999999
 21
58.01031999999999
 31
0.0
  0
LINE
  5
104
330
1E
100
AcDbEntity
  8
0
  6
CONTINUOUS
 62
     7
100
AcDbLine
 10
168.2199999999999
 20
32.01032
 30
0.0
 11
222.2199999999999
 21
32.01032
 31
0.0
  0
LINE
  5
105
330
1E
100
AcDbEntity
  8
0
  6
CONTINUOUS
 62
     7
100
AcDbLine
 10
222.2199999999999
 20
51.01032
 30
0.0
 11
222.2199999999999
 21
31.21032
 31
0.0
  0
LINE
  5
106
330
1E
100
AcDbEntity
  8
0
  6
CONTINUOUS
 62
     7
100
AcDbLine
 10
168.2199999999999
 20
51.01032
 30
0.0
 11
168.2199999999999
 21
31.21032
 31
0.0
  0
LINE
  5
107
330
1E
100
AcDbEntity
  8
0
  6
CONTINUOUS
 62
     7
100
AcDbLine
 10
221.0199999999999
 20
31.68846
 30
0.0
 11
222.2199999999999
 21
32.01
 31
0.0
  0
LINE
  5
108
330
1E
100
AcDbEntity
  8
0
  6
CONTINUOUS
 62
     7
100
AcDbLine
 10
222.2199999999999
 20
32.01
 30
0.0
 11
221.0199999999999
 21
32.33153
 31
0.0
  0
LINE
  5
109
330
1E
100
AcDbEntity
  8
0
  6
CONTINUOUS
 62
     7
100
AcDbLine
 10
169.4199999999999
 20
32.33153
 30
0.0
 11
168.2199999999999
 21
32.01
 31
0.0
  0
LINE
  5
10A
330
1E
100
AcDbEntity
  8
0
  6
CONTINUOUS
 62
     7
100
AcDbLine
 10
168.2199999999999
 20
32.01
 30
0.0
 11
169.4199999999999
 21
31.68846
 31
0.0
  0
TEXT
  5
10B
330
1E
100
AcDbEntity
  8
0
  6
CONTINUOUS
 62
     7
100
AcDbText
 10
190.02
 20
32.41032
 30
0.0
 40
3.2
  1
1350
 41
0.8125
  7
BIGFONT
100
AcDbText
  0
LINE
  5
10C
330
1E
100
AcDbEntity
  8
0
  6
CONTINUOUS
 62
     7
100
AcDbLine
 10
168.2199999999999
 20
44.01031999999999
 30
0.0
 11
200.22
 21
44.01031999999999
 31
0.0
  0
LINE
  5
10D
330
1E
100
AcDbEntity
  8
0
  6
CONTINUOUS
 62
     7
100
AcDbLine
 10
200.22
 20
51.01032
 30
0.0
 11
200.22
 21
43.21032
 31
0.0
  0
LINE
  5
10E
330
1E
100
AcDbEntity
  8
0
  6
CONTINUOUS
 62
     7
100
AcDbLine
 10
168.2199999999999
 20
44.8986
 30
0.0
 11
168.2199999999999
 21
43.21032
 31
0.0
  0
LINE
  5
10F
330
1E
100
AcDbEntity
  8
0
  6
CONTINUOUS
 62
     7
100
AcDbLine
 10
199.02
 20
43.68846
 30
0.0
 11
200.22
 21
44.00999999999998
 31
0.0
  0
LINE
  5
110
330
1E
100
AcDbEntity
  8
0
  6
CONTINUOUS
 62
     7
100
AcDbLine
 10
200.22
 20
44.00999999999998
 30
0.0
 11
199.02
 21
44.33152999999999
 31
0.0
  0
LINE
  5
111
330
1E
100
AcDbEntity
  8
0
  6
CONTINUOUS
 62
     7
100
AcDbLine
 10
169.4199999999999
 20
44.33152999999999
 30
0.0
 11
168.2199999999999
 21
44.00999999999998
 31
0.0
  0
LINE
  5
112
330
1E
100
AcDbEntity
  8
0
  6
CONTINUOUS
 62
     7
100
AcDbLine
 10
168.2199999999999
 20
44.00999999999998
 30
0.0
 11
169.4199999999999
 21
43.68846
 31
0.0
  0
TEXT
  5
113
330
1E
100
AcDbEntity
  8
0
  6
CONTINUOUS
 62
     7
100
AcDbText
 10
180.32
 20
44.41031999999998
 30
0.0
 40
3.2
  1
800
 41
0.8125
  7
BIGFONT
100
AcDbText
  0
LINE
  5
114
330
1E
100
AcDbEntity
  8
0
  6
CONTINUOUS
 62
     7
100
AcDbLine
 10
200.22
 20
44.01031999999999
 30
0.0
 11
222.2199999999999
 21
44.01031999999999
 31
0.0
  0
LINE
  5
115
330
1E
100
AcDbEntity
  8
0
  6
CONTINUOUS
 62
     7
100
AcDbLine
 10
222.2199999999999
 20
45.498
 30
0.0
 11
222.2199999999999
 21
43.21032
 31
0.0
  0
LINE
  5
116
330
1E
100
AcDbEntity
  8
0
  6
CONTINUOUS
 62
     7
100
AcDbLine
 10
221.0199999999999
 20
43.68846
 30
0.0
 11
222.2199999999999
 21
44.00999999999998
 31
0.0
  0
LINE
  5
117
330
1E
100
AcDbEntity
  8
0
  6
CONTINUOUS
 62
     7
100
AcDbLine
 10
222.2199999999999
 20
44.00999999999998
 30
0.0
 11
221.0199999999999
 21
44.33152999999999
 31
0.0
  0
LINE
  5
118
330
1E
100
AcDbEntity
  8
0
  6
CONTINUOUS
 62
     7
100
AcDbLine
 10
201.4199999999999
 20
44.33152999999999
 30
0.0
 11
200.22
 21
44.00999999999998
 31
0.0
  0
LINE
  5
119
330
1E
100
AcDbEntity
  8
0
  6
CONTINUOUS
 62
     7
100
AcDbLine
 10
200.22
 20
44.00999999999998
 30
0.0
 11
201.4199999999999
 21
43.68846
 31
0.0
  0
TEXT
  5
11A
330
1E
100
AcDbEntity
  8
0
  6
CONTINUOUS
 62
     7
100
AcDbText
 10
207.3199999999999
 20
44.41031999999998
 30
0.0
 40
3.2
  1
550
 41
0.8125
  7
BIGFONT
100
AcDbText
  0
LINE
  5
11B
330
1E
100
AcDbEntity
  8
0
  6
CONTINUOUS
 62
     7
100
AcDbLine
 10
168.2199999999999
 20
38.01032
 30
0.0
 11
174.2199999999999
 21
38.01032
 31
0.0
  0
LINE
  5
11C
330
1E
100
AcDbEntity
  8
0
  6
CONTINUOUS
 62
     7
100
AcDbLine
 10
174.2199999999999
 20
43.01032
 30
0.0
 11
174.2199999999999
 21
37.21032
 31
0.0
  0
LINE
  5
11D
330
1E
100
AcDbEntity
  8
0
  6
CONTINUOUS
 62
     7
100
AcDbLine
 10
168.2199999999999
 20
40.12264
 30
0.0
 11
168.2199999999999
 21
37.21032
 31
0.0
  0
LINE
  5
11E
330
1E
100
AcDbEntity
  8
0
  6
CONTINUOUS
 62
     7
100
AcDbLine
 10
173.02
 20
37.68845999999999
 30
0.0
 11
174.2199999999999
 21
38.01
 31
0.0
  0
LINE
  5
11F
330
1E
100
AcDbEntity
  8
0
  6
CONTINUOUS
 62
     7
100
AcDbLine
 10
174.2199999999999
 20
38.01
 30
0.0
 11
173.02
 21
38.33153
 31
0.0
  0
LINE
  5
120
330
1E
100
AcDbEntity
  8
0
  6
CONTINUOUS
 62
     7
100
AcDbLine
 10
169.4199999999999
 20
38.33153
 30
0.0
 11
168.2199999999999
 21
38.01
 31
0.0
  0
LINE
  5
121
330
1E
100
AcDbEntity
  8
0
  6
CONTINUOUS
 62
     7
100
AcDbLine
 10
168.2199999999999
 20
38.01
 30
0.0
 11
169.4199999999999
 21
37.68845999999999
 31
0.0
  0
TEXT
  5
122
330
1E
100
AcDbEntity
  8
0
  6
CONTINUOUS
 62
     7
100
AcDbText
 10
168.8293019394645
 20
38.41032
 30
0.0
 40
3.2
  1
150
 41
0.8125
  7
BIGFONT
100
AcDbText
  0
LINE
  5
123
330
1E
100
AcDbEntity
  8
0
  6
CONTINUOUS
 62
     7
100
AcDbLine
 10
174.2199999999999
 20
38.01032
 30
0.0
 11
222.2199999999999
 21
38.01032
 31
0.0
  0
LINE
  5
124
330
1E
100
AcDbEntity
  8
0
  6
CONTINUOUS
 62
     7
100
AcDbLine
 10
222.2199999999999
 20
39.2608
 30
0.0
 11
222.2199999999999
 21
37.21032
 31
0.0
  0
LINE
  5
125
330
1E
100
AcDbEntity
  8
0
  6
CONTINUOUS
 62
     7
100
AcDbLine
 10
221.0199999999999
 20
37.68845999999999
 30
0.0
 11
222.2199999999999
 21
38.01
 31
0.0
  0
LINE
  5
126
330
1E
100
AcDbEntity
  8
0
  6
CONTINUOUS
 62
     7
100
AcDbLine
 10
222.2199999999999
 20
38.01
 30
0.0
 11
221.0199999999999
 21
38.33153
 31
0.0
  0
LINE
  5
127
330
1E
100
AcDbEntity
  8
0
  6
CONTINUOUS
 62
     7
100
AcDbLine
 10
175.4199999999999
 20
38.33153
 30
0.0
 11
174.2199999999999
 21
38.01
 31
0.0
  0
LINE
  5
128
330
1E
100
AcDbEntity
  8
0
  6
CONTINUOUS
 62
     7
100
AcDbLine
 10
174.2199999999999
 20
38.01
 30
0.0
 11
175.4199999999999
 21
37.68845999999999
 31
0.0
  0
TEXT
  5
129
330
1E
100
AcDbEntity
  8
0
  6
CONTINUOUS
 62
     7
100
AcDbText
 10
193.02
 20
38.41032
 30
0.0
 40
3.2
  1
1200
 41
0.8125
  7
BIGFONT
100
AcDbText
  0
LINE
  5
12A
330
1E
100
AcDbEntity
  8
0
  6
CONTINUOUS
 62
     7
100
AcDbLine
 10
174.2199999999999
 20
44.97164
 30
0.0
 11
174.2199999999999
 21
51.043
 31
0.0
  0
ARC
  5
12B
330
1E
100
AcDbEntity
  8
0
  6
CONTINUOUS
 62
     7
100
AcDbCircle
 10
168.2199999999999
 20
-30.64964
 30
0.0
 40
6.50448
100
AcDbArc
 50
270.0
 51
0.0
  0
ARC
  5
12C
330
1E
100
AcDbEntity
  8
0
  6
CONTINUOUS
 62
     7
100
AcDbCircle
 10
166.53638
 20
-30.87065
 30
0.0
 40
6.504999999999999
100
AcDbArc
 50
285.0
 51
295.56955
  0
ARC
  5
12D
330
1E
100
AcDbEntity
  8
0
  6
CONTINUOUS
 62
     7
100
AcDbCircle
 10
169.90361
 20
-30.87065
 30
0.0
 40
6.504999999999999
100
AcDbArc
 50
255.0
 51
265.56955
  0
ARC
  5
12E
330
1E
100
AcDbEntity
  8
0
  6
CONTINUOUS
 62
     7
100
AcDbCircle
 10
168.4416099999999
 20
-32.33235
 30
0.0
 40
6.503999999999997
100
AcDbArc
 50
4.428822900000001
 51
15.0
  0
ARC
  5
12F
330
1E
100
AcDbEntity
  8
0
  6
CONTINUOUS
 62
     7
100
AcDbCircle
 10
168.4416099999999
 20
-28.96564
 30
0.0
 40
6.503999999999997
100
AcDbArc
 50
334.42882
 51
345.0
  0
TEXT
  5
130
330
1E
100
AcDbEntity
  8
0
  6
CONTINUOUS
 62
     7
100
AcDbText
 10
173.1209199999999
 20
-39.77167999999997
 30
0.0
 40
3.2
  1
90゜
 50
45.0
  7
BIGFONT
100
AcDbText
  0
LINE
  5
131
330
1E
100
AcDbEntity
  8
0
  6
CONTINUOUS
 62
     7
100
AcDbLine
 10
148.2199999999999
 20
52.01032
 30
0.0
 11
148.2199999999999
 21
58.01031999999999
 31
0.0
  0
LINE
  5
132
330
1E
100
AcDbEntity
  8
0
  6
CONTINUOUS
 62
     7
100
AcDbLine
 10
149.24892
 20
58.01031999999999
 30
0.0
 11
147.4199999999999
 21
58.01031999999999
 31
0.0
  0
LINE
  5
133
330
1E
100
AcDbEntity
  8
0
  6
CONTINUOUS
 62
     7
100
AcDbLine
 10
148.2199999999999
 20
52.01032
 30
0.0
 11
147.4199999999999
 21
52.01032
 31
0.0
  0
LINE
  5
134
330
1E
100
AcDbEntity
  8
0
  6
CONTINUOUS
 62
     7
100
AcDbLine
 10
148.5415299999999
 20
56.81
 30
0.0
 11
148.2199999999999
 21
58.01
 31
0.0
  0
LINE
  5
135
330
1E
100
AcDbEntity
  8
0
  6
CONTINUOUS
 62
     7
100
AcDbLine
 10
148.2199999999999
 20
58.01
 30
0.0
 11
147.8984599999999
 21
56.81
 31
0.0
  0
LINE
  5
136
330
1E
100
AcDbEntity
  8
0
  6
CONTINUOUS
 62
     7
100
AcDbLine
 10
147.8984599999999
 20
53.21
 30
0.0
 11
148.2199999999999
 21
52.01
 31
0.0
  0
LINE
  5
137
330
1E
100
AcDbEntity
  8
0
  6
CONTINUOUS
 62
     7
100
AcDbLine
 10
148.2199999999999
 20
52.01
 30
0.0
 11
148.5415299999999
 21
53.21
 31
0.0
  0
TEXT
  5
138
330
1E
100
AcDbEntity
  8
0
  6
CONTINUOUS
 62
     7
100
AcDbText
 10
147.82
 20
51.11032
 30
0.0
 40
3.2
  1
150
 50
90.0
 41
0.8125
  7
BIGFONT
100
AcDbText
  0
LINE
  5
139
330
1E
100
AcDbEntity
  8
0
  6
CONTINUOUS
 62
     7
100
AcDbLine
 10
148.2199999999999
 20
58.01031999999999
 30
0.0
 11
148.2199999999999
 21
132.01032
 31
0.0
  0
LINE
  5
13A
330
1E
100
AcDbEntity
  8
0
  6
CONTINUOUS
 62
     7
100
AcDbLine
 10
148.48976
 20
132.01032
 30
0.0
 11
147.4199999999999
 21
132.01032
 31
0.0
  0
LINE
  5
13B
330
1E
100
AcDbEntity
  8
0
  6
CONTINUOUS
 62
     7
100
AcDbLine
 10
148.5415299999999
 20
130.81
 30
0.0
 11
148.2199999999999
 21
132.0099999999999
 31
0.0
  0
LINE
  5
13C
330
1E
100
AcDbEntity
  8
0
  6
CONTINUOUS
 62
     7
100
AcDbLine
 10
148.2199999999999
 20
132.0099999999999
 30
0.0
 11
147.8984599999999
 21
130.81
 31
0.0
  0
LINE
  5
13D
330
1E
100
AcDbEntity
  8
0
  6
CONTINUOUS
 62
     7
100
AcDbLine
 10
147.8984599999999
 20
59.21
 30
0.0
 11
148.2199999999999
 21
58.01
 31
0.0
  0
LINE
  5
13E
330
1E
100
AcDbEntity
  8
0
  6
CONTINUOUS
 62
     7
100
AcDbLine
 10
148.2199999999999
 20
58.01
 30
0.0
 11
148.5415299999999
 21
59.21
 31
0.0
  0
TEXT
  5
13F
330
1E
100
AcDbEntity
  8
0
  6
CONTINUOUS
 62
     7
100
AcDbText
 10
147.82
 20
89.81031999999997
 30
0.0
 40
3.2
  1
1850
 50
90.0
 41
0.8125
  7
BIGFONT
100
AcDbText
  0
LINE
  5
140
330
1E
100
AcDbEntity
  8
0
  6
CONTINUOUS
 62
     7
100
AcDbLine
 10
184.22
 20
58.01031999999999
 30
0.0
 11
184.22
 21
62.01031999999999
 31
0.0
  0
LINE
  5
141
330
1E
100
AcDbEntity
  8
0
  6
CONTINUOUS
 62
     7
100
AcDbLine
 10
236.22
 20
58.01031999999999
 30
0.0
 11
236.22
 21
62.01031999999999
 31
0.0
  0
LINE
  5
142
330
1E
100
AcDbEntity
  8
0
  6
CONTINUOUS
 62
     7
100
AcDbLine
 10
171.9812799999999
 20
132.01032
 30
0.0
 11
236.22
 21
132.01032
 31
0.0
  0
LINE
  5
143
330
1E
100
AcDbEntity
  8
0
  6
CONTINUOUS
 62
     7
100
AcDbLine
 10
184.22
 20
62.01031999999999
 30
0.0
 11
236.22
 21
62.01031999999999
 31
0.0
  0
LINE
  5
144
330
1E
100
AcDbEntity
  8
0
  6
CONTINUOUS
 62
     7
100
AcDbLine
 10
95.08088
 20
116.01032
 30
0.0
 11
95.08088
 21
132.01032
 31
0.0
  0
LINE
  5
145
330
1E
100
AcDbEntity
  8
0
  6
CONTINUOUS
 62
     7
100
AcDbLine
 10
94.96088
 20
115.8903199999999
 30
0.0
 11
95.08088
 21
116.01032
 31
0.0
  0
LINE
  5
146
330
1E
100
AcDbEntity
  8
0
  6
CONTINUOUS
 62
     7
100
AcDbLine
 10
94.96088
 20
64.53031999999999
 30
0.0
 11
94.96088
 21
115.8903199999999
 31
0.0
  0
LINE
  5
147
330
1E
100
AcDbEntity
  8
0
  6
CONTINUOUS
 62
     7
100
AcDbLine
 10
94.96088
 20
64.53031999999999
 30
0.0
 11
95.08088
 21
64.41031999999998
 31
0.0
  0
LINE
  5
148
330
1E
100
AcDbEntity
  8
0
  6
CONTINUOUS
 62
     7
100
AcDbLine
 10
95.08088
 20
52.49031999999999
 30
0.0
 11
95.08088
 21
64.41031999999998
 31
0.0
  0
LINE
  5
149
330
1E
100
AcDbEntity
  8
0
  6
CONTINUOUS
 62
     7
100
AcDbLine
 10
27.08088
 20
52.01032
 30
0.0
 11
27.08088
 21
131.6503199999999
 31
0.0
  0
LINE
  5
14A
330
1E
100
AcDbEntity
  8
0
  6
CONTINUOUS
 62
     7
100
AcDbLine
 10
27.44088
 20
132.01032
 30
0.0
 11
32.72088
 21
132.01032
 31
0.0
  0
LINE
  5
14B
330
1E
100
AcDbEntity
  8
0
  6
CONTINUOUS
 62
     7
100
AcDbLine
 10
27.08088
 20
52.01032
 30
0.0
 11
95.08088
 21
52.01032
 31
0.0
  0
LINE
  5
14C
330
1E
100
AcDbEntity
  8
0
  6
CONTINUOUS
 62
     7
100
AcDbLine
 10
27.08088
 20
131.6503199999999
 30
0.0
 11
27.44088
 21
132.01032
 31
0.0
  0
LINE
  5
14D
330
1E
100
AcDbEntity
  8
0
  6
CONTINUOUS
 62
     7
100
AcDbLine
 10
32.72088
 20
132.01032
 30
0.0
 11
33.08088
 21
131.6503199999999
 31
0.0
  0
LINE
  5
14E
330
1E
100
AcDbEntity
  8
0
  6
CONTINUOUS
 62
     7
100
AcDbLine
 10
95.08088
 20
52.01032
 30
0.0
 11
95.08088
 21
58.01031999999999
 31
0.0
  0
LINE
  5
14F
330
1E
100
AcDbEntity
  8
0
  6
CONTINUOUS
 62
     7
100
AcDbLine
 10
33.08088
 20
62.01031999999999
 30
0.0
 11
37.08088
 21
58.01031999999999
 31
0.0
  0
LINE
  5
150
330
1E
100
AcDbEntity
  8
0
  6
CONTINUOUS
 62
     7
100
AcDbLine
 10
33.08088
 20
62.01031999999999
 30
0.0
 11
33.08088
 21
131.6503199999999
 31
0.0
  0
LINE
  5
151
330
1E
100
AcDbEntity
  8
0
  6
CONTINUOUS
 62
     7
100
AcDbLine
 10
37.08088
 20
58.01031999999999
 30
0.0
 11
95.08088
 21
58.01031999999999
 31
0.0
  0
LINE
  5
152
330
1E
100
AcDbEntity
  8
0
  6
CONTINUOUS
 62
     7
100
AcDbLine
 10
81.08088
 20
52.01032
 30
0.0
 11
81.08088
 21
58.01031999999999
 31
0.0
  0
LINE
  5
153
330
1E
100
AcDbEntity
  8
0
  6
CONTINUOUS
 62
     7
100
AcDbLine
 10
95.08088
 20
58.01031999999999
 30
0.0
 11
95.08088
 21
62.01031999999999
 31
0.0
  0
LINE
  5
154
330
1E
100
AcDbEntity
  8
0
  6
CONTINUOUS
 62
     7
100
AcDbLine
 10
30.84215999999999
 20
132.01032
 30
0.0
 11
95.08088
 21
132.01032
 31
0.0
  0
LINE
  5
155
330
1E
100
AcDbEntity
  8
0
  6
CONTINUOUS
 62
     7
100
AcDbLine
 10
-106.6116399999999
 20
-98.64964
 30
0.0
 11
-106.6116399999999
 21
-30.64964
 31
0.0
  0
LINE
  5
156
330
1E
100
AcDbEntity
  8
0
  6
CONTINUOUS
 62
     7
100
AcDbLine
 10
-106.6116399999999
 20
-30.64964
 30
0.0
 11
-38.61164
 21
-30.64964
 31
0.0
  0
LINE
  5
157
330
1E
100
AcDbEntity
  8
0
  6
CONTINUOUS
 62
     7
100
AcDbLine
 10
-228.77648
 20
-98.64964
 30
0.0
 11
-228.77648
 21
-30.64964
 31
0.0
  0
LINE
  5
158
330
1E
100
AcDbEntity
  8
0
  6
CONTINUOUS
 62
     7
100
AcDbLine
 10
-228.77648
 20
-30.64964
 30
0.0
 11
-160.7764799999999
 21
-30.64964
 31
0.0
  0
LINE
  5
159
330
1E
100
AcDbEntity
  8
0
  6
CONTINUOUS
 62
     7
100
AcDbLine
 10
-228.77648
 20
52.49031999999999
 30
0.0
 11
-228.77648
 21
64.41031999999998
 31
0.0
  0
LINE
  5
15A
330
1E
100
AcDbEntity
  8
0
  6
CONTINUOUS
 62
     7
100
AcDbLine
 10
-228.77648
 20
64.41031999999998
 30
0.0
 11
-228.6564799999999
 21
64.53031999999999
 31
0.0
  0
LINE
  5
15B
330
1E
100
AcDbEntity
  8
0
  6
CONTINUOUS
 62
     7
100
AcDbLine
 10
-228.6564799999999
 20
64.53031999999999
 30
0.0
 11
-228.6564799999999
 21
115.8903199999999
 31
0.0
  0
LINE
  5
15C
330
1E
100
AcDbEntity
  8
0
  6
CONTINUOUS
 62
     7
100
AcDbLine
 10
-228.77648
 20
116.01032
 30
0.0
 11
-228.6564799999999
 21
115.8903199999999
 31
0.0
  0
LINE
  5
15D
330
1E
100
AcDbEntity
  8
0
  6
CONTINUOUS
 62
     7
100
AcDbLine
 10
-228.77648
 20
116.01032
 30
0.0
 11
-228.77648
 21
132.01032
 31
0.0
  0
LINE
  5
15E
330
1E
100
AcDbEntity
  8
0
  6
CONTINUOUS
 62
     7
100
AcDbLine
 10
-228.77648
 20
132.01032
 30
0.0
 11
-160.81008
 21
132.01032
 31
0.0
  0
LINE
  5
15F
330
1E
100
AcDbEntity
  8
0
  6
CONTINUOUS
 62
     7
100
AcDbLine
 10
-160.81008
 20
58.81032
 30
0.0
 11
-160.81008
 21
132.01032
 31
0.0
  0
LINE
  5
160
330
1E
100
AcDbEntity
  8
0
  6
CONTINUOUS
 62
     7
100
AcDbLine
 10
-160.81008
 20
52.49031999999999
 30
0.0
 11
-160.81008
 21
64.41031999999998
 31
0.0
  0
LINE
  5
161
330
1E
100
AcDbEntity
  8
0
  6
CONTINUOUS
 62
     7
100
AcDbLine
 10
-228.77648
 20
52.49031999999999
 30
0.0
 11
-228.2964799999999
 21
52.01032
 31
0.0
  0
LINE
  5
162
330
1E
100
AcDbEntity
  8
0
  6
CONTINUOUS
 62
     7
100
AcDbLine
 10
-161.29008
 20
52.01032
 30
0.0
 11
-160.81008
 21
52.49031999999999
 31
0.0
  0
LINE
  5
163
330
1E
100
AcDbEntity
  8
0
  6
CONTINUOUS
 62
     1
100
AcDbLine
 10
-226.7796799999999
 20
53.81032
 30
0.0
 11
-226.7796799999999
 21
100.0103199999999
 31
0.0
  0
LINE
  5
164
330
1E
100
AcDbEntity
  8
0
  6
CONTINUOUS
 62
     7
100
AcDbLine
 10
-228.2964799999999
 20
52.01032
 30
0.0
 11
-161.29008
 21
52.01032
 31
0.0
  0
LINE
  5
165
330
1E
100
AcDbEntity
  8
0
  6
CONTINUOUS
 62
     7
100
AcDbLine
 10
246.22
 20
58.01031999999999
 30
0.0
 11
246.22
 21
62.01031999999999
 31
0.0
  0
LINE
  5
166
330
1E
100
AcDbEntity
  8
0
  6
CONTINUOUS
 62
     7
100
AcDbLine
 10
237.2199999999998
 20
62.01031999999999
 30
0.0
 11
247.02
 21
62.01031999999999
 31
0.0
  0
LINE
  5
167
330
1E
100
AcDbEntity
  8
0
  6
CONTINUOUS
 62
     7
100
AcDbLine
 10
244.4114799999999
 20
58.01031999999999
 30
0.0
 11
247.02
 21
58.01031999999999
 31
0.0
  0
LINE
  5
168
330
1E
100
AcDbEntity
  8
0
  6
CONTINUOUS
 62
     7
100
AcDbLine
 10
246.22
 20
64.41031999999998
 30
0.0
 11
246.22
 21
62.01031999999999
 31
0.0
  0
LINE
  5
169
330
1E
100
AcDbEntity
  8
0
  6
CONTINUOUS
 62
     7
100
AcDbLine
 10
245.8984599999999
 20
63.21
 30
0.0
 11
246.22
 21
62.01
 31
0.0
  0
LINE
  5
16A
330
1E
100
AcDbEntity
  8
0
  6
CONTINUOUS
 62
     7
100
AcDbLine
 10
246.22
 20
62.01
 30
0.0
 11
246.54153
 21
63.21
 31
0.0
  0
LINE
  5
16B
330
1E
100
AcDbEntity
  8
0
  6
CONTINUOUS
 62
     7
100
AcDbLine
 10
246.22
 20
58.01031999999999
 30
0.0
 11
246.22
 21
55.61031999999999
 31
0.0
  0
LINE
  5
16C
330
1E
100
AcDbEntity
  8
0
  6
CONTINUOUS
 62
     7
100
AcDbLine
 10
246.54153
 20
56.81
 30
0.0
 11
246.22
 21
58.01
 31
0.0
  0
LINE
  5
16D
330
1E
100
AcDbEntity
  8
0
  6
CONTINUOUS
 62
     7
100
AcDbLine
 10
246.22
 20
58.01
 30
0.0
 11
245.8984599999999
 21
56.81
 31
0.0
  0
LINE
  5
16E
330
1E
100
AcDbEntity
  8
0
  6
CONTINUOUS
 62
     7
100
AcDbLine
 10
246.22
 20
64.41031999999998
 30
0.0
 11
246.22
 21
70.33032
 31
0.0
  0
TEXT
  5
16F
330
1E
100
AcDbEntity
  8
0
  6
CONTINUOUS
 62
     7
100
AcDbText
 10
245.82
 20
64.24122389940444
 30
0.0
 40
3.2
  1
100
 50
90.0
 41
0.8125
  7
BIGFONT
100
AcDbText
  0
LINE
  5
170
330
1E
100
AcDbEntity
  8
0
  6
CONTINUOUS
 62
     7
100
AcDbLine
 10
168.2199999999999
 20
145.61032
 30
0.0
 11
174.2472
 21
145.61032
 31
0.0
  0
LINE
  5
171
330
1E
100
AcDbEntity
  8
0
  6
CONTINUOUS
 62
     7
100
AcDbLine
 10
174.2472
 20
133.01032
 30
0.0
 11
174.2472
 21
146.4103199999998
 31
0.0
  0
LINE
  5
172
330
1E
100
AcDbEntity
  8
0
  6
CONTINUOUS
 62
     7
100
AcDbLine
 10
168.2199999999999
 20
133.01032
 30
0.0
 11
168.2199999999999
 21
146.4103199999998
 31
0.0
  0
LINE
  5
173
330
1E
100
AcDbEntity
  8
0
  6
CONTINUOUS
 62
     7
100
AcDbLine
 10
173.0469999999999
 20
145.28846
 30
0.0
 11
174.247
 21
145.61
 31
0.0
  0
LINE
  5
174
330
1E
100
AcDbEntity
  8
0
  6
CONTINUOUS
 62
     7
100
AcDbLine
 10
174.247
 20
145.61
 30
0.0
 11
173.0469999999999
 21
145.93153
 31
0.0
  0
LINE
  5
175
330
1E
100
AcDbEntity
  8
0
  6
CONTINUOUS
 62
     7
100
AcDbLine
 10
169.4199999999999
 20
145.93153
 30
0.0
 11
168.2199999999999
 21
145.61
 31
0.0
  0
LINE
  5
176
330
1E
100
AcDbEntity
  8
0
  6
CONTINUOUS
 62
     7
100
AcDbLine
 10
168.2199999999999
 20
145.61
 30
0.0
 11
169.4199999999999
 21
145.28846
 31
0.0
  0
TEXT
  5
177
330
1E
100
AcDbEntity
  8
0
  6
CONTINUOUS
 62
     7
100
AcDbText
 10
168.293515208694
 20
146.01032
 30
0.0
 40
3.2
  1
150
 41
0.8125
  7
BIGFONT
100
AcDbText
  0
LINE
  5
178
330
1E
100
AcDbEntity
  8
0
  6
CONTINUOUS
 62
     7
100
AcDbLine
 10
174.2472
 20
145.61032
 30
0.0
 11
178.22
 21
145.61032
 31
0.0
  0
LINE
  5
179
330
1E
100
AcDbEntity
  8
0
  6
CONTINUOUS
 62
     7
100
AcDbLine
 10
178.22
 20
133.01032
 30
0.0
 11
178.22
 21
146.4103199999998
 31
0.0
  0
LINE
  5
17A
330
1E
100
AcDbEntity
  8
0
  6
CONTINUOUS
 62
     7
100
AcDbLine
 10
180.62
 20
145.61032
 30
0.0
 11
178.22
 21
145.61032
 31
0.0
  0
LINE
  5
17B
330
1E
100
AcDbEntity
  8
0
  6
CONTINUOUS
 62
     7
100
AcDbLine
 10
179.42
 20
145.93153
 30
0.0
 11
178.22
 21
145.61
 31
0.0
  0
LINE
  5
17C
330
1E
100
AcDbEntity
  8
0
  6
CONTINUOUS
 62
     7
100
AcDbLine
 10
178.22
 20
145.61
 30
0.0
 11
179.42
 21
145.28846
 31
0.0
  0
LINE
  5
17D
330
1E
100
AcDbEntity
  8
0
  6
CONTINUOUS
 62
     7
100
AcDbLine
 10
174.2472
 20
145.61032
 30
0.0
 11
171.8472
 21
145.61032
 31
0.0
  0
LINE
  5
17E
330
1E
100
AcDbEntity
  8
0
  6
CONTINUOUS
 62
     7
100
AcDbLine
 10
173.0469999999999
 20
145.28846
 30
0.0
 11
174.247
 21
145.61
 31
0.0
  0
LINE
  5
17F
330
1E
100
AcDbEntity
  8
0
  6
CONTINUOUS
 62
     7
100
AcDbLine
 10
174.247
 20
145.61
 30
0.0
 11
173.0469999999999
 21
145.93153
 31
0.0
  0
LINE
  5
180
330
1E
100
AcDbEntity
  8
0
  6
CONTINUOUS
 62
     7
100
AcDbLine
 10
180.62
 20
145.61032
 30
0.0
 11
186.28
 21
145.61032
 31
0.0
  0
TEXT
  5
181
330
1E
100
AcDbEntity
  8
0
  6
CONTINUOUS
 62
     7
100
AcDbText
 10
179.4399152086943
 20
146.01032
 30
0.0
 40
3.2
  1
100
 41
0.8125
  7
BIGFONT
100
AcDbText
  0
TEXT
  5
182
330
1E
100
AcDbEntity
  8
3
  6
CONTINUOUS
 62
     7
100
AcDbText
 10
197.8609999999999
 20
-150.8479999999998
 30
0.0
 40
3.7
  1
コーナー部構造図
  7
BIGFONT
100
AcDbText
  0
TEXT
  5
183
330
1E
100
AcDbEntity
  8
3
  6
CONTINUOUS
 62
     7
100
AcDbText
 10
197.8809999999999
 20
-146.0679999999999
 30
0.0
 40
3.7
  1
ＫＬウォール３型
  7
BIGFONT
100
AcDbText
  0
TEXT
  5
186
330
1E
100
AcDbEntity
  8
3
  6
CONTINUOUS
 62
     7
100
AcDbText
 10
234.0409560401087
 20
-150.7418216598358
 30
0.0
 40
3.7
  1
(H=2000-90°)
 41
0.8
  7
BIGFONT
100
AcDbText
  0
LINE
  5
187
330
1E
100
AcDbEntity
  8
0
  6
CONTINUOUS
 62
     1
100
AcDbLine
 10
28.88087999999999
 20
56.21031999999999
 30
0.0
 11
28.88087999999999
 21
62.24
 31
0.0
  0
ARC
  5
188
330
1E
100
AcDbEntity
  8
0
  6
CONTINUOUS
 62
     1
100
AcDbCircle
 10
30.08088
 20
57.41032
 30
0.0
 40
1.199999999999999
100
AcDbArc
 50
180.0
 51
270.0
  0
LINE
  5
189
330
1E
100
AcDbEntity
  8
0
  6
CONTINUOUS
 62
     1
100
AcDbLine
 10
28.88087999999999
 20
55.01031999999999
 30
0.0
 11
28.88087999999999
 21
57.12571999999997
 31
0.0
  0
LINE
  5
18A
330
1E
100
AcDbEntity
  8
0
  6
CONTINUOUS
 62
     1
100
AcDbLine
 10
30.72087999999999
 20
55.01031999999999
 30
0.0
 11
30.72087999999999
 21
130.4103199999999
 31
0.0
  0
LINE
  5
18B
330
1E
100
AcDbEntity
  8
0
  6
CONTINUOUS
 62
     1
100
AcDbLine
 10
32.48088
 20
53.81032
 30
0.0
 11
49.28087999999998
 21
53.81032
 31
0.0
  0
LINE
  5
18C
330
1E
100
AcDbEntity
  8
0
  6
CONTINUOUS
 62
     1
100
AcDbLine
 10
30.08088
 20
53.81032
 30
0.0
 11
31.65748
 21
53.81032
 31
0.0
  0
ARC
  5
18D
330
1E
100
AcDbEntity
  8
0
  6
CONTINUOUS
 62
     1
100
AcDbCircle
 10
31.92088
 20
55.01031999999999
 30
0.0
 40
1.199999999999999
100
AcDbArc
 50
180.0
 51
270.0
  0
LINE
  5
18E
330
1E
100
AcDbEntity
  8
0
  6
CONTINUOUS
 62
     1
100
AcDbLine
 10
30.77227999999999
 20
53.81032
 30
0.0
 11
33.06707999999999
 21
53.81032
 31
0.0
  0
LINE
  5
18F
330
1E
100
AcDbEntity
  8
0
  6
CONTINUOUS
 62
     1
100
AcDbLine
 10
29.07764
 20
63.46796
 30
0.0
 11
38.5388
 21
54.0068
 31
0.0
  0
LINE
  5
190
330
1E
100
AcDbEntity
  8
0
  6
CONTINUOUS
 62
     1
100
AcDbLine
 10
48.12872
 20
53.81032
 30
0.0
 11
61.08088000000001
 21
53.81032
 31
0.0
  0
LINE
  5
191
330
1E
100
AcDbEntity
  8
0
  6
CONTINUOUS
 62
     7
100
AcDbLine
 10
-228.77648
 20
32.01032
 30
0.0
 11
-160.75668
 21
32.01032
 31
0.0
  0
LINE
  5
192
330
1E
100
AcDbEntity
  8
0
  6
CONTINUOUS
 62
     7
100
AcDbLine
 10
-160.75668
 20
51.01032
 30
0.0
 11
-160.75668
 21
31.21032
 31
0.0
  0
LINE
  5
193
330
1E
100
AcDbEntity
  8
0
  6
CONTINUOUS
 62
     7
100
AcDbLine
 10
-228.77648
 20
51.01032
 30
0.0
 11
-228.77648
 21
31.21032
 31
0.0
  0
LINE
  5
194
330
1E
100
AcDbEntity
  8
0
  6
CONTINUOUS
 62
     7
100
AcDbLine
 10
-161.9559999999999
 20
31.68846
 30
0.0
 11
-160.756
 21
32.01
 31
0.0
  0
LINE
  5
195
330
1E
100
AcDbEntity
  8
0
  6
CONTINUOUS
 62
     7
100
AcDbLine
 10
-160.756
 20
32.01
 30
0.0
 11
-161.9559999999999
 21
32.33153
 31
0.0
  0
LINE
  5
196
330
1E
100
AcDbEntity
  8
0
  6
CONTINUOUS
 62
     7
100
AcDbLine
 10
-227.576
 20
32.33153
 30
0.0
 11
-228.776
 21
32.01
 31
0.0
  0
LINE
  5
197
330
1E
100
AcDbEntity
  8
0
  6
CONTINUOUS
 62
     7
100
AcDbLine
 10
-228.776
 20
32.01
 30
0.0
 11
-227.576
 21
31.68846
 31
0.0
  0
TEXT
  5
198
330
1E
100
AcDbEntity
  8
0
  6
CONTINUOUS
 62
     7
100
AcDbText
 10
-199.96658
 20
32.41032
 30
0.0
 40
3.2
  1
1700
 41
0.8125
  7
BIGFONT
100
AcDbText
  0
LINE
  5
199
330
1E
100
AcDbEntity
  8
0
  6
DASHED
 62
     1
100
AcDbLine
 10
-226.3796799999999
 20
53.81032
 30
0.0
 11
-226.3796799999999
 21
67.58088
 31
0.0
  0
LINE
  5
19A
330
1E
100
AcDbEntity
  8
0
  6
CONTINUOUS
 62
     7
100
AcDbLine
 10
-242.7764799999999
 20
52.01032
 30
0.0
 11
-242.7764799999999
 21
100.00128
 31
0.0
  0
LINE
  5
19B
330
1E
100
AcDbEntity
  8
0
  6
CONTINUOUS
 62
     7
100
AcDbLine
 10
-229.65648
 20
100.00128
 30
0.0
 11
-243.5764799999999
 21
100.00128
 31
0.0
  0
LINE
  5
19C
330
1E
100
AcDbEntity
  8
0
  6
CONTINUOUS
 62
     7
100
AcDbLine
 10
-229.7764799999999
 20
52.01032
 30
0.0
 11
-243.5764799999999
 21
52.01032
 31
0.0
  0
LINE
  5
19D
330
1E
100
AcDbEntity
  8
0
  6
CONTINUOUS
 62
     7
100
AcDbLine
 10
-242.45446
 20
98.801
 30
0.0
 11
-242.7759999999999
 21
100.001
 31
0.0
  0
LINE
  5
19E
330
1E
100
AcDbEntity
  8
0
  6
CONTINUOUS
 62
     7
100
AcDbLine
 10
-242.7759999999999
 20
100.001
 30
0.0
 11
-243.0975299999999
 21
98.801
 31
0.0
  0
LINE
  5
19F
330
1E
100
AcDbEntity
  8
0
  6
CONTINUOUS
 62
     7
100
AcDbLine
 10
-243.0975299999999
 20
53.21
 30
0.0
 11
-242.7759999999999
 21
52.01
 31
0.0
  0
LINE
  5
1A0
330
1E
100
AcDbEntity
  8
0
  6
CONTINUOUS
 62
     7
100
AcDbLine
 10
-242.7759999999999
 20
52.01
 30
0.0
 11
-242.45446
 21
53.21
 31
0.0
  0
TEXT
  5
1A1
330
1E
100
AcDbEntity
  8
0
  6
CONTINUOUS
 62
     7
100
AcDbText
 10
-243.1764799999999
 20
70.80580000000002
 30
0.0
 40
3.2
  1
1200
 50
90.0
 41
0.8125
  7
BIGFONT
100
AcDbText
  0
LINE
  5
1A2
330
1E
100
AcDbEntity
  8
0
  6
CONTINUOUS
 62
     7
100
AcDbLine
 10
-120.6116399999999
 20
52.01032
 30
0.0
 11
-120.6116399999999
 21
132.01032
 31
0.0
  0
LINE
  5
1A3
330
1E
100
AcDbEntity
  8
0
  6
CONTINUOUS
 62
     7
100
AcDbLine
 10
-107.6116399999999
 20
132.01032
 30
0.0
 11
-121.4116399999999
 21
132.01032
 31
0.0
  0
LINE
  5
1A4
330
1E
100
AcDbEntity
  8
0
  6
CONTINUOUS
 62
     7
100
AcDbLine
 10
-107.6116399999999
 20
52.01032
 30
0.0
 11
-121.4116399999999
 21
52.01032
 31
0.0
  0
LINE
  5
1A5
330
1E
100
AcDbEntity
  8
0
  6
CONTINUOUS
 62
     7
100
AcDbLine
 10
-120.28946
 20
130.81
 30
0.0
 11
-120.611
 21
132.0099999999999
 31
0.0
  0
LINE
  5
1A6
330
1E
100
AcDbEntity
  8
0
  6
CONTINUOUS
 62
     7
100
AcDbLine
 10
-120.611
 20
132.0099999999999
 30
0.0
 11
-120.9325299999999
 21
130.81
 31
0.0
  0
LINE
  5
1A7
330
1E
100
AcDbEntity
  8
0
  6
CONTINUOUS
 62
     7
100
AcDbLine
 10
-120.9325299999999
 20
53.21
 30
0.0
 11
-120.611
 21
52.01
 31
0.0
  0
LINE
  5
1A8
330
1E
100
AcDbEntity
  8
0
  6
CONTINUOUS
 62
     7
100
AcDbLine
 10
-120.611
 20
52.01
 30
0.0
 11
-120.28946
 21
53.21
 31
0.0
  0
TEXT
  5
1A9
330
1E
100
AcDbEntity
  8
0
  6
CONTINUOUS
 62
     7
100
AcDbText
 10
-121.0116399999999
 20
86.81032
 30
0.0
 40
3.2
  1
2000
 50
90.0
 41
0.8125
  7
BIGFONT
100
AcDbText
  0
LINE
  5
1AA
330
1E
100
AcDbEntity
  8
0
  6
CONTINUOUS
 62
     7
100
AcDbLine
 10
27.08088
 20
32.01032
 30
0.0
 11
81.08088
 21
32.01032
 31
0.0
  0
LINE
  5
1AB
330
1E
100
AcDbEntity
  8
0
  6
CONTINUOUS
 62
     7
100
AcDbLine
 10
81.08088
 20
51.01032
 30
0.0
 11
81.08088
 21
31.21032
 31
0.0
  0
LINE
  5
1AC
330
1E
100
AcDbEntity
  8
0
  6
CONTINUOUS
 62
     7
100
AcDbLine
 10
27.08088
 20
51.01032
 30
0.0
 11
27.08088
 21
31.21032
 31
0.0
  0
LINE
  5
1AD
330
1E
100
AcDbEntity
  8
0
  6
CONTINUOUS
 62
     7
100
AcDbLine
 10
79.87999999999998
 20
31.68846
 30
0.0
 11
81.08
 21
32.01
 31
0.0
  0
LINE
  5
1AE
330
1E
100
AcDbEntity
  8
0
  6
CONTINUOUS
 62
     7
100
AcDbLine
 10
81.08
 20
32.01
 30
0.0
 11
79.87999999999998
 21
32.33153
 31
0.0
  0
LINE
  5
1AF
330
1E
100
AcDbEntity
  8
0
  6
CONTINUOUS
 62
     7
100
AcDbLine
 10
28.28
 20
32.33153
 30
0.0
 11
27.08
 21
32.01
 31
0.0
  0
LINE
  5
1B0
330
1E
100
AcDbEntity
  8
0
  6
CONTINUOUS
 62
     7
100
AcDbLine
 10
27.08
 20
32.01
 30
0.0
 11
28.28
 21
31.68846
 31
0.0
  0
TEXT
  5
1B1
330
1E
100
AcDbEntity
  8
0
  6
CONTINUOUS
 62
     7
100
AcDbText
 10
48.88087999999999
 20
32.41032
 30
0.0
 40
3.2
  1
1350
 41
0.8125
  7
BIGFONT
100
AcDbText
  0
LINE
  5
1B2
330
1E
100
AcDbEntity
  8
0
  6
CONTINUOUS
 62
     7
100
AcDbLine
 10
27.08088
 20
38.01032
 30
0.0
 11
28.85887999999999
 21
38.01032
 31
0.0
  0
LINE
  5
1B3
330
1E
100
AcDbEntity
  8
0
  6
CONTINUOUS
 62
     7
100
AcDbLine
 10
28.85887999999999
 20
51.01032
 30
0.0
 11
28.85887999999999
 21
37.21032
 31
0.0
  0
LINE
  5
1B4
330
1E
100
AcDbEntity
  8
0
  6
CONTINUOUS
 62
     7
100
AcDbLine
 10
27.08088
 20
40.0776
 30
0.0
 11
27.08088
 21
37.21032
 31
0.0
  0
LINE
  5
1B5
330
1E
100
AcDbEntity
  8
0
  6
CONTINUOUS
 62
     7
100
AcDbLine
 10
31.25887999999999
 20
38.01032
 30
0.0
 11
28.85887999999999
 21
38.01032
 31
0.0
  0
LINE
  5
1B6
330
1E
100
AcDbEntity
  8
0
  6
CONTINUOUS
 62
     7
100
AcDbLine
 10
30.058
 20
38.33153
 30
0.0
 11
28.858
 21
38.01
 31
0.0
  0
LINE
  5
1B7
330
1E
100
AcDbEntity
  8
0
  6
CONTINUOUS
 62
     7
100
AcDbLine
 10
28.858
 20
38.01
 30
0.0
 11
30.058
 21
37.68845999999999
 31
0.0
  0
LINE
  5
1B8
330
1E
100
AcDbEntity
  8
0
  6
CONTINUOUS
 62
     7
100
AcDbLine
 10
27.08088
 20
38.01032
 30
0.0
 11
24.68087999999999
 21
38.01032
 31
0.0
  0
LINE
  5
1B9
330
1E
100
AcDbEntity
  8
0
  6
CONTINUOUS
 62
     7
100
AcDbLine
 10
25.88
 20
37.68845999999999
 30
0.0
 11
27.08
 21
38.01
 31
0.0
  0
LINE
  5
1BA
330
1E
100
AcDbEntity
  8
0
  6
CONTINUOUS
 62
     7
100
AcDbLine
 10
27.08
 20
38.01
 30
0.0
 11
25.88
 21
38.33153
 31
0.0
  0
LINE
  5
1BB
330
1E
100
AcDbEntity
  8
0
  6
CONTINUOUS
 62
     7
100
AcDbLine
 10
24.68087999999999
 20
38.01032
 30
0.0
 11
19.28087999999998
 21
38.01032
 31
0.0
  0
TEXT
  5
1BC
330
1E
100
AcDbEntity
  8
0
  6
CONTINUOUS
 62
     7
100
AcDbText
 10
19.28087999999998
 20
38.41032
 30
0.0
 40
3.2
  1
45
 41
0.8125
  7
BIGFONT
100
AcDbText
  0
LINE
  5
1BD
330
1E
100
AcDbEntity
  8
0
  6
CONTINUOUS
 62
     7
100
AcDbLine
 10
28.85887999999999
 20
38.01032
 30
0.0
 11
81.08088
 21
38.01032
 31
0.0
  0
LINE
  5
1BE
330
1E
100
AcDbEntity
  8
0
  6
CONTINUOUS
 62
     7
100
AcDbLine
 10
81.08088
 20
40.66443999999999
 30
0.0
 11
81.08088
 21
37.21032
 31
0.0
  0
LINE
  5
1BF
330
1E
100
AcDbEntity
  8
0
  6
CONTINUOUS
 62
     7
100
AcDbLine
 10
79.87999999999998
 20
37.68845999999999
 30
0.0
 11
81.08
 21
38.01
 31
0.0
  0
LINE
  5
1C0
330
1E
100
AcDbEntity
  8
0
  6
CONTINUOUS
 62
     7
100
AcDbLine
 10
81.08
 20
38.01
 30
0.0
 11
79.87999999999998
 21
38.33153
 31
0.0
  0
LINE
  5
1C1
330
1E
100
AcDbEntity
  8
0
  6
CONTINUOUS
 62
     7
100
AcDbLine
 10
30.058
 20
38.33153
 30
0.0
 11
28.858
 21
38.01
 31
0.0
  0
LINE
  5
1C2
330
1E
100
AcDbEntity
  8
0
  6
CONTINUOUS
 62
     7
100
AcDbLine
 10
28.858
 20
38.01
 30
0.0
 11
30.058
 21
37.68845999999999
 31
0.0
  0
TEXT
  5
1C3
330
1E
100
AcDbEntity
  8
0
  6
CONTINUOUS
 62
     7
100
AcDbText
 10
49.76988
 20
38.41032
 30
0.0
 40
3.2
  1
1305
 41
0.8125
  7
BIGFONT
100
AcDbText
  0
LINE
  5
1C4
330
1E
100
AcDbEntity
  8
0
  6
CONTINUOUS
 62
     7
100
AcDbLine
 10
11.48088
 20
52.01032
 30
0.0
 11
11.48088
 21
53.79364
 31
0.0
  0
LINE
  5
1C5
330
1E
100
AcDbEntity
  8
0
  6
CONTINUOUS
 62
     7
100
AcDbLine
 10
26.08088
 20
53.79364
 30
0.0
 11
10.68088
 21
53.79364
 31
0.0
  0
LINE
  5
1C6
330
1E
100
AcDbEntity
  8
0
  6
CONTINUOUS
 62
     7
100
AcDbLine
 10
26.08088
 20
52.01032
 30
0.0
 11
10.68088
 21
52.01032
 31
0.0
  0
LINE
  5
1C7
330
1E
100
AcDbEntity
  8
0
  6
CONTINUOUS
 62
     7
100
AcDbLine
 10
11.48088
 20
56.19364
 30
0.0
 11
11.48088
 21
53.79364
 31
0.0
  0
LINE
  5
1C8
330
1E
100
AcDbEntity
  8
0
  6
CONTINUOUS
 62
     7
100
AcDbLine
 10
11.15846
 20
54.993
 30
0.0
 11
11.48
 21
53.793
 31
0.0
  0
LINE
  5
1C9
330
1E
100
AcDbEntity
  8
0
  6
CONTINUOUS
 62
     7
100
AcDbLine
 10
11.48
 20
53.793
 30
0.0
 11
11.80152999999999
 21
54.993
 31
0.0
  0
LINE
  5
1CA
330
1E
100
AcDbEntity
  8
0
  6
CONTINUOUS
 62
     7
100
AcDbLine
 10
11.48088
 20
52.01032
 30
0.0
 11
11.48088
 21
49.61032
 31
0.0
  0
LINE
  5
1CB
330
1E
100
AcDbEntity
  8
0
  6
CONTINUOUS
 62
     7
100
AcDbLine
 10
11.80152999999999
 20
50.81
 30
0.0
 11
11.48
 21
52.01
 31
0.0
  0
LINE
  5
1CC
330
1E
100
AcDbEntity
  8
0
  6
CONTINUOUS
 62
     7
100
AcDbLine
 10
11.48
 20
52.01
 30
0.0
 11
11.15846
 21
50.81
 31
0.0
  0
LINE
  5
1CD
330
1E
100
AcDbEntity
  8
0
  6
CONTINUOUS
 62
     7
100
AcDbLine
 10
11.48088
 20
49.61032
 30
0.0
 11
11.48088
 21
44.21032
 31
0.0
  0
TEXT
  5
1CE
330
1E
100
AcDbEntity
  8
0
  6
CONTINUOUS
 62
     7
100
AcDbText
 10
11.08088
 20
44.21032
 30
0.0
 40
3.2
  1
45
 50
90.0
 41
0.8125
  7
BIGFONT
100
AcDbText
  0
LINE
  5
1CF
330
1E
100
AcDbEntity
  8
0
  6
CONTINUOUS
 62
     7
100
AcDbLine
 10
11.48088
 20
53.79364
 30
0.0
 11
11.48088
 21
130.01032
 31
0.0
  0
LINE
  5
1D0
330
1E
100
AcDbEntity
  8
0
  6
CONTINUOUS
 62
     7
100
AcDbLine
 10
26.08088
 20
130.01032
 30
0.0
 11
10.68088
 21
130.01032
 31
0.0
  0
LINE
  5
1D1
330
1E
100
AcDbEntity
  8
0
  6
CONTINUOUS
 62
     7
100
AcDbLine
 10
11.80152999999999
 20
128.81
 30
0.0
 11
11.48
 21
130.01
 31
0.0
  0
LINE
  5
1D2
330
1E
100
AcDbEntity
  8
0
  6
CONTINUOUS
 62
     7
100
AcDbLine
 10
11.48
 20
130.01
 30
0.0
 11
11.15846
 21
128.81
 31
0.0
  0
LINE
  5
1D3
330
1E
100
AcDbEntity
  8
0
  6
CONTINUOUS
 62
     7
100
AcDbLine
 10
11.15846
 20
54.993
 30
0.0
 11
11.48
 21
53.793
 31
0.0
  0
LINE
  5
1D4
330
1E
100
AcDbEntity
  8
0
  6
CONTINUOUS
 62
     7
100
AcDbLine
 10
11.48
 20
53.793
 30
0.0
 11
11.80152999999999
 21
54.993
 31
0.0
  0
TEXT
  5
1D5
330
1E
100
AcDbEntity
  8
0
  6
CONTINUOUS
 62
     7
100
AcDbText
 10
11.08088
 20
86.70198
 30
0.0
 40
3.2
  1
1905
 50
90.0
 41
0.8125
  7
BIGFONT
100
AcDbText
  0
LINE
  5
1D6
330
1E
100
AcDbEntity
  8
0
  6
CONTINUOUS
 62
     7
100
AcDbLine
 10
11.48088
 20
130.01032
 30
0.0
 11
11.48088
 21
132.01032
 31
0.0
  0
LINE
  5
1D7
330
1E
100
AcDbEntity
  8
0
  6
CONTINUOUS
 62
     7
100
AcDbLine
 10
26.08088
 20
132.01032
 30
0.0
 11
10.68088
 21
132.01032
 31
0.0
  0
LINE
  5
1D8
330
1E
100
AcDbEntity
  8
0
  6
CONTINUOUS
 62
     7
100
AcDbLine
 10
11.48088
 20
134.4103199999999
 30
0.0
 11
11.48088
 21
132.01032
 31
0.0
  0
LINE
  5
1D9
330
1E
100
AcDbEntity
  8
0
  6
CONTINUOUS
 62
     7
100
AcDbLine
 10
11.15846
 20
133.21
 30
0.0
 11
11.48
 21
132.0099999999999
 31
0.0
  0
LINE
  5
1DA
330
1E
100
AcDbEntity
  8
0
  6
CONTINUOUS
 62
     7
100
AcDbLine
 10
11.48
 20
132.0099999999999
 30
0.0
 11
11.80152999999999
 21
133.21
 31
0.0
  0
LINE
  5
1DB
330
1E
100
AcDbEntity
  8
0
  6
CONTINUOUS
 62
     7
100
AcDbLine
 10
11.48088
 20
130.01032
 30
0.0
 11
11.48088
 21
127.61032
 31
0.0
  0
LINE
  5
1DC
330
1E
100
AcDbEntity
  8
0
  6
CONTINUOUS
 62
     7
100
AcDbLine
 10
11.80152999999999
 20
128.81
 30
0.0
 11
11.48
 21
130.01
 31
0.0
  0
LINE
  5
1DD
330
1E
100
AcDbEntity
  8
0
  6
CONTINUOUS
 62
     7
100
AcDbLine
 10
11.48
 20
130.01
 30
0.0
 11
11.15846
 21
128.81
 31
0.0
  0
LINE
  5
1DE
330
1E
100
AcDbEntity
  8
0
  6
CONTINUOUS
 62
     7
100
AcDbLine
 10
11.48088
 20
134.4103199999999
 30
0.0
 11
11.48088
 21
139.8103199999999
 31
0.0
  0
TEXT
  5
1DF
330
1E
100
AcDbEntity
  8
0
  6
CONTINUOUS
 62
     7
100
AcDbText
 10
11.08088
 20
134.6103199999999
 30
0.0
 40
3.2
  1
50
 50
90.0
 41
0.8125
  7
BIGFONT
100
AcDbText
  0
LINE
  5
1E0
330
1E
100
AcDbEntity
  8
0
  6
CONTINUOUS
 62
     7
100
AcDbLine
 10
-106.6116399999999
 20
32.01032
 30
0.0
 11
-38.64092
 21
32.01032
 31
0.0
  0
LINE
  5
1E1
330
1E
100
AcDbEntity
  8
0
  6
CONTINUOUS
 62
     7
100
AcDbLine
 10
-38.64092
 20
51.01032
 30
0.0
 11
-38.64092
 21
31.21032
 31
0.0
  0
LINE
  5
1E2
330
1E
100
AcDbEntity
  8
0
  6
CONTINUOUS
 62
     7
100
AcDbLine
 10
-106.6116399999999
 20
51.01032
 30
0.0
 11
-106.6116399999999
 21
31.21032
 31
0.0
  0
LINE
  5
1E3
330
1E
100
AcDbEntity
  8
0
  6
CONTINUOUS
 62
     7
100
AcDbLine
 10
-39.84
 20
31.68846
 30
0.0
 11
-38.64
 21
32.01
 31
0.0
  0
LINE
  5
1E4
330
1E
100
AcDbEntity
  8
0
  6
CONTINUOUS
 62
     7
100
AcDbLine
 10
-38.64
 20
32.01
 30
0.0
 11
-39.84
 21
32.33153
 31
0.0
  0
LINE
  5
1E5
330
1E
100
AcDbEntity
  8
0
  6
CONTINUOUS
 62
     7
100
AcDbLine
 10
-105.411
 20
32.33153
 30
0.0
 11
-106.611
 21
32.01
 31
0.0
  0
LINE
  5
1E6
330
1E
100
AcDbEntity
  8
0
  6
CONTINUOUS
 62
     7
100
AcDbLine
 10
-106.611
 20
32.01
 30
0.0
 11
-105.411
 21
31.68846
 31
0.0
  0
TEXT
  5
1E7
330
1E
100
AcDbEntity
  8
0
  6
CONTINUOUS
 62
     7
100
AcDbText
 10
-77.82628000000002
 20
32.41032
 30
0.0
 40
3.2
  1
1700
 41
0.8125
  7
BIGFONT
100
AcDbText
  0
LINE
  5
1E8
330
1E
100
AcDbEntity
  8
0
  6
CONTINUOUS
 62
     7
100
AcDbLine
 10
-106.6116399999999
 20
38.01032
 30
0.0
 11
-104.63944
 21
38.01032
 31
0.0
  0
LINE
  5
1E9
330
1E
100
AcDbEntity
  8
0
  6
CONTINUOUS
 62
     7
100
AcDbLine
 10
-104.63944
 20
51.01032
 30
0.0
 11
-104.63944
 21
37.21032
 31
0.0
  0
LINE
  5
1EA
330
1E
100
AcDbEntity
  8
0
  6
CONTINUOUS
 62
     7
100
AcDbLine
 10
-106.6116399999999
 20
40.21284
 30
0.0
 11
-106.6116399999999
 21
37.21032
 31
0.0
  0
LINE
  5
1EB
330
1E
100
AcDbEntity
  8
0
  6
CONTINUOUS
 62
     7
100
AcDbLine
 10
-102.23944
 20
38.01032
 30
0.0
 11
-104.63944
 21
38.01032
 31
0.0
  0
LINE
  5
1EC
330
1E
100
AcDbEntity
  8
0
  6
CONTINUOUS
 62
     7
100
AcDbLine
 10
-103.4389999999999
 20
38.33153
 30
0.0
 11
-104.6389999999999
 21
38.01
 31
0.0
  0
LINE
  5
1ED
330
1E
100
AcDbEntity
  8
0
  6
CONTINUOUS
 62
     7
100
AcDbLine
 10
-104.6389999999999
 20
38.01
 30
0.0
 11
-103.4389999999999
 21
37.68845999999999
 31
0.0
  0
LINE
  5
1EE
330
1E
100
AcDbEntity
  8
0
  6
CONTINUOUS
 62
     7
100
AcDbLine
 10
-106.6116399999999
 20
38.01032
 30
0.0
 11
-109.0116399999996
 21
38.01032
 31
0.0
  0
LINE
  5
1EF
330
1E
100
AcDbEntity
  8
0
  6
CONTINUOUS
 62
     7
100
AcDbLine
 10
-107.811
 20
37.68845999999999
 30
0.0
 11
-106.611
 21
38.01
 31
0.0
  0
LINE
  5
1F0
330
1E
100
AcDbEntity
  8
0
  6
CONTINUOUS
 62
     7
100
AcDbLine
 10
-106.611
 20
38.01
 30
0.0
 11
-107.811
 21
38.33153
 31
0.0
  0
LINE
  5
1F1
330
1E
100
AcDbEntity
  8
0
  6
CONTINUOUS
 62
     7
100
AcDbLine
 10
-109.0116399999996
 20
38.01032
 30
0.0
 11
-112.8516399999996
 21
38.01032
 31
0.0
  0
TEXT
  5
1F2
330
1E
100
AcDbEntity
  8
0
  6
CONTINUOUS
 62
     7
100
AcDbText
 10
-112.8516399999996
 20
38.41032
 30
0.0
 40
3.2
  1
50
 41
0.8125
  7
BIGFONT
100
AcDbText
  0
LINE
  5
1F3
330
1E
100
AcDbEntity
  8
0
  6
CONTINUOUS
 62
     7
100
AcDbLine
 10
-104.63944
 20
38.01032
 30
0.0
 11
-48.61979999999999
 21
38.01032
 31
0.0
  0
LINE
  5
1F4
330
1E
100
AcDbEntity
  8
0
  6
CONTINUOUS
 62
     7
100
AcDbLine
 10
-48.61979999999999
 20
51.01032
 30
0.0
 11
-48.61979999999999
 21
37.21032
 31
0.0
  0
LINE
  5
1F5
330
1E
100
AcDbEntity
  8
0
  6
CONTINUOUS
 62
     7
100
AcDbLine
 10
-49.81899999999999
 20
37.68845999999999
 30
0.0
 11
-48.619
 21
38.01
 31
0.0
  0
LINE
  5
1F6
330
1E
100
AcDbEntity
  8
0
  6
CONTINUOUS
 62
     7
100
AcDbLine
 10
-48.619
 20
38.01
 30
0.0
 11
-49.81899999999999
 21
38.33153
 31
0.0
  0
LINE
  5
1F7
330
1E
100
AcDbEntity
  8
0
  6
CONTINUOUS
 62
     7
100
AcDbLine
 10
-103.4389999999999
 20
38.33153
 30
0.0
 11
-104.6389999999999
 21
38.01
 31
0.0
  0
LINE
  5
1F8
330
1E
100
AcDbEntity
  8
0
  6
CONTINUOUS
 62
     7
100
AcDbLine
 10
-104.6389999999999
 20
38.01
 30
0.0
 11
-103.4389999999999
 21
37.68845999999999
 31
0.0
  0
LINE
  5
1F9
330
1E
100
AcDbEntity
  8
0
  6
CONTINUOUS
 62
     7
100
AcDbLine
 10
-48.61979999999999
 20
38.01032
 30
0.0
 11
-42.43275999999997
 21
38.01032
 31
0.0
  0
LINE
  5
1FA
330
1E
100
AcDbEntity
  8
0
  6
CONTINUOUS
 62
     7
100
AcDbLine
 10
-42.43275999999997
 20
51.01032
 30
0.0
 11
-42.43275999999997
 21
37.21032
 31
0.0
  0
LINE
  5
1FB
330
1E
100
AcDbEntity
  8
0
  6
CONTINUOUS
 62
     7
100
AcDbLine
 10
-43.63199999999999
 20
37.68845999999999
 30
0.0
 11
-42.43199999999997
 21
38.01
 31
0.0
  0
LINE
  5
1FC
330
1E
100
AcDbEntity
  8
0
  6
CONTINUOUS
 62
     7
100
AcDbLine
 10
-42.43199999999997
 20
38.01
 30
0.0
 11
-43.63199999999999
 21
38.33153
 31
0.0
  0
LINE
  5
1FD
330
1E
100
AcDbEntity
  8
0
  6
CONTINUOUS
 62
     7
100
AcDbLine
 10
-47.419
 20
38.33153
 30
0.0
 11
-48.619
 21
38.01
 31
0.0
  0
LINE
  5
1FE
330
1E
100
AcDbEntity
  8
0
  6
CONTINUOUS
 62
     7
100
AcDbLine
 10
-48.619
 20
38.01
 30
0.0
 11
-47.419
 21
37.68845999999999
 31
0.0
  0
LINE
  5
1FF
330
1E
100
AcDbEntity
  8
0
  6
CONTINUOUS
 62
     7
100
AcDbLine
 10
-48.61979999999999
 20
38.01032
 30
0.0
 11
-49.6598
 21
38.01032
 31
0.0
  0
TEXT
  5
200
330
1E
100
AcDbEntity
  8
0
  6
CONTINUOUS
 62
     7
100
AcDbText
 10
-48.34797626835675
 20
38.41032
 30
0.0
 40
3.2
  1
148
 41
0.8125
  7
BIGFONT
100
AcDbText
  0
POINT
  5
201
330
1E
100
AcDbEntity
  8
0
  6
CONTINUOUS
 62
     1
100
AcDbPoint
 10
31.10088
 20
130.01032
 30
0.0
  0
TEXT
  5
202
330
1E
100
AcDbEntity
  8
0
  6
CONTINUOUS
 62
     7
100
AcDbText
 10
19.19419999999998
 20
141.0039199999999
 30
0.0
 40
4.2
  1
Ａ
 41
0.8333332999999999
  7
BIGFONT
100
AcDbText
  0
TEXT
  5
203
330
1E
100
AcDbEntity
  8
0
  6
CONTINUOUS
 62
     7
100
AcDbText
 10
19.39219999999998
 20
146.31204
 30
0.0
 40
4.2
  1
Ｂ
 41
0.8333332999999999
  7
BIGFONT
100
AcDbText
  0
TEXT
  5
204
330
1E
100
AcDbEntity
  8
0
  6
CONTINUOUS
 62
     7
100
AcDbText
 10
-2.330119999999999
 20
43.31027999999998
 30
0.0
 40
4.2
  1
Ｃ
 41
0.8333332999999999
  7
BIGFONT
100
AcDbText
  0
TEXT
  5
205
330
1E
100
AcDbEntity
  8
0
  6
CONTINUOUS
 62
     7
100
AcDbText
 10
104.8429599999999
 20
43.29600000000001
 30
0.0
 40
4.2
  1
Ｃ
 41
0.8333332999999999
  7
BIGFONT
100
AcDbText
  0
TEXT
  5
206
330
1E
100
AcDbEntity
  8
0
  6
CONTINUOUS
 62
     7
100
AcDbText
 10
109.9845199999996
 20
43.31895999999999
 30
0.0
 40
4.2
  1
Ｄ
 41
0.8333332999999999
  7
BIGFONT
100
AcDbText
  0
TEXT
  5
207
330
1E
100
AcDbEntity
  8
0
  6
CONTINUOUS
 62
     7
100
AcDbText
 10
-7.243319999999997
 20
43.30332
 30
0.0
 40
4.2
  1
Ｄ
 41
0.8333332999999999
  7
BIGFONT
100
AcDbText
  0
LINE
  5
208
330
1E
100
AcDbEntity
  8
0
  6
CONTINUOUS
 62
     7
100
AcDbLine
 10
-5.852559999999997
 20
55.76308
 30
0.0
 11
7.956479999999999
 21
55.76308
 31
0.0
  0
LINE
  5
209
330
1E
100
AcDbEntity
  8
0
  6
CONTINUOUS
 62
     7
100
AcDbLine
 10
-0.8726
 20
54.27171999999998
 30
0.0
 11
7.906439999999999
 21
54.27171999999998
 31
0.0
  0
LINE
  5
20A
330
1E
100
AcDbEntity
  8
0
  6
CONTINUOUS
 62
     7
100
AcDbLine
 10
-5.852559999999997
 20
55.76308
 30
0.0
 11
-5.85524
 21
48.64824
 31
0.0
  0
LINE
  5
20B
330
1E
100
AcDbEntity
  8
0
  6
CONTINUOUS
 62
     7
100
AcDbLine
 10
-6.17608
 20
49.84812
 30
0.0
 11
-5.855
 21
48.648
 31
0.0
  0
LINE
  5
20C
330
1E
100
AcDbEntity
  8
0
  6
CONTINUOUS
 62
     7
100
AcDbLine
 10
-5.855
 20
48.648
 30
0.0
 11
-5.532999999999997
 21
49.84787
 31
0.0
  0
LINE
  5
20D
330
1E
100
AcDbEntity
  8
0
  6
CONTINUOUS
 62
     7
100
AcDbLine
 10
97.48088
 20
55.76851999999998
 30
0.0
 11
111.38176
 21
55.76308
 31
0.0
  0
LINE
  5
20E
330
1E
100
AcDbEntity
  8
0
  6
CONTINUOUS
 62
     7
100
AcDbLine
 10
111.38176
 20
55.76308
 30
0.0
 11
111.38176
 21
48.64284
 31
0.0
  0
LINE
  5
20F
330
1E
100
AcDbEntity
  8
0
  6
CONTINUOUS
 62
     7
100
AcDbLine
 10
111.05946
 20
49.842
 30
0.0
 11
111.3809999999999
 21
48.642
 31
0.0
  0
LINE
  5
210
330
1E
100
AcDbEntity
  8
0
  6
CONTINUOUS
 62
     7
100
AcDbLine
 10
111.3809999999999
 20
48.642
 30
0.0
 11
111.70253
 21
49.842
 31
0.0
  0
TEXT
  5
211
330
1E
100
AcDbEntity
  8
0
  6
CONTINUOUS
 62
     7
100
AcDbText
 10
18.9862
 20
18.24531999999998
 30
0.0
 40
4.2
  1
Ａ
 41
0.8333332999999999
  7
BIGFONT
100
AcDbText
  0
TEXT
  5
212
330
1E
100
AcDbEntity
  8
0
  6
CONTINUOUS
 62
     7
100
AcDbText
 10
19.18395999999998
 20
12.47212
 30
0.0
 40
4.2
  1
Ｂ
 41
0.8333332999999999
  7
BIGFONT
100
AcDbText
  0
LINE
  5
213
330
1E
100
AcDbEntity
  8
0
  6
CONTINUOUS
 62
     7
100
AcDbLine
 10
30.63024
 20
29.04975999999999
 30
0.0
 11
30.6332
 21
14.77756
 31
0.0
  0
LINE
  5
214
330
1E
100
AcDbEntity
  8
0
  6
CONTINUOUS
 62
     7
100
AcDbLine
 10
30.6332
 20
14.77756
 30
0.0
 11
23.52824
 21
14.77756
 31
0.0
  0
LINE
  5
215
330
1E
100
AcDbEntity
  8
0
  6
CONTINUOUS
 62
     7
100
AcDbLine
 10
24.728
 20
15.09852999999999
 30
0.0
 11
23.52799999999999
 21
14.777
 31
0.0
  0
LINE
  5
216
330
1E
100
AcDbEntity
  8
0
  6
CONTINUOUS
 62
     7
100
AcDbLine
 10
23.52799999999999
 20
14.777
 30
0.0
 11
24.728
 21
14.45546
 31
0.0
  0
LINE
  5
217
330
1E
100
AcDbEntity
  8
0
  6
CONTINUOUS
 62
     7
100
AcDbLine
 10
30.84215999999999
 20
134.40492
 30
0.0
 11
30.84296
 21
148.6936399999999
 31
0.0
  0
LINE
  5
218
330
1E
100
AcDbEntity
  8
0
  6
CONTINUOUS
 62
     7
100
AcDbLine
 10
30.84296
 20
148.6936399999999
 30
0.0
 11
23.748
 21
148.6936399999999
 31
0.0
  0
LINE
  5
219
330
1E
100
AcDbEntity
  8
0
  6
CONTINUOUS
 62
     7
100
AcDbLine
 10
24.948
 20
149.01453
 30
0.0
 11
23.748
 21
148.6929999999999
 31
0.0
  0
LINE
  5
21A
330
1E
100
AcDbEntity
  8
0
  6
CONTINUOUS
 62
     7
100
AcDbLine
 10
23.748
 20
148.6929999999999
 30
0.0
 11
24.948
 21
148.37146
 31
0.0
  0
LINE
  5
21B
330
1E
100
AcDbEntity
  8
0
  6
CONTINUOUS
 62
     7
100
AcDbLine
 10
97.48088
 20
54.25268
 30
0.0
 11
106.3836399999999
 21
54.25268
 31
0.0
  0
LINE
  5
21C
330
1E
100
AcDbEntity
  8
0
  6
CONTINUOUS
 62
     7
100
AcDbLine
 10
106.3836399999999
 20
54.25268
 30
0.0
 11
106.3836399999999
 21
48.62919999999999
 31
0.0
  0
LINE
  5
21D
330
1E
100
AcDbEntity
  8
0
  6
CONTINUOUS
 62
     7
100
AcDbLine
 10
106.06146
 20
49.82899999999999
 30
0.0
 11
106.383
 21
48.62899999999999
 31
0.0
  0
LINE
  5
21E
330
1E
100
AcDbEntity
  8
0
  6
CONTINUOUS
 62
     7
100
AcDbLine
 10
106.383
 20
48.62899999999999
 30
0.0
 11
106.7045299999999
 21
49.82899999999999
 31
0.0
  0
LINE
  5
21F
330
1E
100
AcDbEntity
  8
0
  6
CONTINUOUS
 62
     7
100
AcDbLine
 10
-0.8726
 20
54.27171999999998
 30
0.0
 11
-0.8525199999999999
 21
48.64824
 31
0.0
  0
LINE
  5
220
330
1E
100
AcDbEntity
  8
0
  6
CONTINUOUS
 62
     7
100
AcDbLine
 10
-1.17782
 20
49.84684
 30
0.0
 11
-0.8519999999999999
 21
48.648
 31
0.0
  0
LINE
  5
221
330
1E
100
AcDbEntity
  8
0
  6
CONTINUOUS
 62
     7
100
AcDbLine
 10
-0.8519999999999999
 20
48.648
 30
0.0
 11
-0.5347400000000003
 21
49.84914
 31
0.0
  0
LINE
  5
222
330
1E
100
AcDbEntity
  8
0
  6
CONTINUOUS
 62
     7
100
AcDbLine
 10
29.74784
 20
134.41136
 30
0.0
 11
29.74784
 21
143.1926399999998
 31
0.0
  0
LINE
  5
223
330
1E
100
AcDbEntity
  8
0
  6
CONTINUOUS
 62
     7
100
AcDbLine
 10
29.74784
 20
143.1926399999998
 30
0.0
 11
23.74919999999999
 21
143.1926399999998
 31
0.0
  0
LINE
  5
224
330
1E
100
AcDbEntity
  8
0
  6
CONTINUOUS
 62
     7
100
AcDbLine
 10
24.949
 20
143.5135299999999
 30
0.0
 11
23.74899999999999
 21
143.192
 31
0.0
  0
LINE
  5
225
330
1E
100
AcDbEntity
  8
0
  6
CONTINUOUS
 62
     7
100
AcDbLine
 10
23.74899999999999
 20
143.192
 30
0.0
 11
24.949
 21
142.87046
 31
0.0
  0
LINE
  5
226
330
1E
100
AcDbEntity
  8
0
  6
CONTINUOUS
 62
     7
100
AcDbLine
 10
29.53892
 20
29.05675999999999
 30
0.0
 11
29.53892
 21
20.2742
 31
0.0
  0
LINE
  5
227
330
1E
100
AcDbEntity
  8
0
  6
CONTINUOUS
 62
     7
100
AcDbLine
 10
29.53892
 20
20.2742
 30
0.0
 11
23.54028
 21
20.2742
 31
0.0
  0
LINE
  5
228
330
1E
100
AcDbEntity
  8
0
  6
CONTINUOUS
 62
     7
100
AcDbLine
 10
24.74
 20
20.59553
 30
0.0
 11
23.54
 21
20.274
 31
0.0
  0
LINE
  5
229
330
1E
100
AcDbEntity
  8
0
  6
CONTINUOUS
 62
     7
100
AcDbLine
 10
23.54
 20
20.274
 30
0.0
 11
24.74
 21
19.95246
 31
0.0
  0
TEXT
  5
22A
330
1E
100
AcDbEntity
  8
0
  6
CONTINUOUS
 62
     7
100
AcDbText
 10
-114.50072
 20
75.72011999999998
 30
0.0
 40
3.2
  1
7×250=1750
 50
90.0
  7
BIGFONT
100
AcDbText
  0
LINE
  5
22B
330
1E
100
AcDbEntity
  8
0
  6
CONTINUOUS
 62
     7
100
AcDbLine
 10
154.22
 20
-98.64964
 30
0.0
 11
154.22
 21
-30.64964
 31
0.0
  0
LINE
  5
22C
330
1E
100
AcDbEntity
  8
0
  6
CONTINUOUS
 62
     7
100
AcDbLine
 10
167.22
 20
-30.64964
 30
0.0
 11
153.42
 21
-30.64964
 31
0.0
  0
LINE
  5
22D
330
1E
100
AcDbEntity
  8
0
  6
CONTINUOUS
 62
     7
100
AcDbLine
 10
167.22
 20
-98.64964
 30
0.0
 11
153.42
 21
-98.64964
 31
0.0
  0
LINE
  5
22E
330
1E
100
AcDbEntity
  8
0
  6
CONTINUOUS
 62
     7
100
AcDbLine
 10
154.5415299999999
 20
-31.849
 30
0.0
 11
154.22
 21
-30.649
 31
0.0
  0
LINE
  5
22F
330
1E
100
AcDbEntity
  8
0
  6
CONTINUOUS
 62
     7
100
AcDbLine
 10
154.22
 20
-30.649
 30
0.0
 11
153.89846
 21
-31.849
 31
0.0
  0
LINE
  5
230
330
1E
100
AcDbEntity
  8
0
  6
CONTINUOUS
 62
     7
100
AcDbLine
 10
153.89846
 20
-97.44900000000001
 30
0.0
 11
154.22
 21
-98.649
 31
0.0
  0
LINE
  5
231
330
1E
100
AcDbEntity
  8
0
  6
CONTINUOUS
 62
     7
100
AcDbLine
 10
154.22
 20
-98.649
 30
0.0
 11
154.5415299999999
 21
-97.44900000000001
 31
0.0
  0
TEXT
  5
232
330
1E
100
AcDbEntity
  8
0
  6
CONTINUOUS
 62
     7
100
AcDbText
 10
153.8199999999999
 20
-69.84964000000001
 30
0.0
 40
3.2
  1
1700
 50
90.0
 41
0.8125
  7
BIGFONT
100
AcDbText
  0
LINE
  5
233
330
1E
100
AcDbEntity
  8
0
  6
CONTINUOUS
 62
     7
100
AcDbLine
 10
-106.6116399999999
 20
-16.64963999999999
 30
0.0
 11
-38.61164
 21
-16.64963999999999
 31
0.0
  0
LINE
  5
234
330
1E
100
AcDbEntity
  8
0
  6
CONTINUOUS
 62
     7
100
AcDbLine
 10
-38.61164
 20
-29.64964
 30
0.0
 11
-38.61164
 21
-15.84964
 31
0.0
  0
LINE
  5
235
330
1E
100
AcDbEntity
  8
0
  6
CONTINUOUS
 62
     7
100
AcDbLine
 10
-106.6116399999999
 20
-29.64964
 30
0.0
 11
-106.6116399999999
 21
-15.84964
 31
0.0
  0
LINE
  5
236
330
1E
100
AcDbEntity
  8
0
  6
CONTINUOUS
 62
     7
100
AcDbLine
 10
-39.81099999999999
 20
-16.97053
 30
0.0
 11
-38.611
 21
-16.649
 31
0.0
  0
LINE
  5
237
330
1E
100
AcDbEntity
  8
0
  6
CONTINUOUS
 62
     7
100
AcDbLine
 10
-38.611
 20
-16.649
 30
0.0
 11
-39.81099999999999
 21
-16.32746
 31
0.0
  0
LINE
  5
238
330
1E
100
AcDbEntity
  8
0
  6
CONTINUOUS
 62
     7
100
AcDbLine
 10
-105.411
 20
-16.32746
 30
0.0
 11
-106.611
 21
-16.649
 31
0.0
  0
LINE
  5
239
330
1E
100
AcDbEntity
  8
0
  6
CONTINUOUS
 62
     7
100
AcDbLine
 10
-106.611
 20
-16.649
 30
0.0
 11
-105.411
 21
-16.97053
 31
0.0
  0
TEXT
  5
23A
330
1E
100
AcDbEntity
  8
0
  6
CONTINUOUS
 62
     7
100
AcDbText
 10
-77.81164
 20
-16.24964
 30
0.0
 40
3.2
  1
1700
 41
0.8125
  7
BIGFONT
100
AcDbText
  0
LINE
  5
23B
330
1E
100
AcDbEntity
  8
0
  6
CONTINUOUS
 62
     7
100
AcDbLine
 10
-228.77648
 20
-16.64963999999999
 30
0.0
 11
-160.7764799999999
 21
-16.64963999999999
 31
0.0
  0
LINE
  5
23C
330
1E
100
AcDbEntity
  8
0
  6
CONTINUOUS
 62
     7
100
AcDbLine
 10
-160.7764799999999
 20
-29.64964
 30
0.0
 11
-160.7764799999999
 21
-15.84964
 31
0.0
  0
LINE
  5
23D
330
1E
100
AcDbEntity
  8
0
  6
CONTINUOUS
 62
     7
100
AcDbLine
 10
-228.77648
 20
-29.64964
 30
0.0
 11
-228.77648
 21
-15.84964
 31
0.0
  0
LINE
  5
23E
330
1E
100
AcDbEntity
  8
0
  6
CONTINUOUS
 62
     7
100
AcDbLine
 10
-161.976
 20
-16.97053
 30
0.0
 11
-160.776
 21
-16.649
 31
0.0
  0
LINE
  5
23F
330
1E
100
AcDbEntity
  8
0
  6
CONTINUOUS
 62
     7
100
AcDbLine
 10
-160.776
 20
-16.649
 30
0.0
 11
-161.976
 21
-16.32746
 31
0.0
  0
LINE
  5
240
330
1E
100
AcDbEntity
  8
0
  6
CONTINUOUS
 62
     7
100
AcDbLine
 10
-227.576
 20
-16.32746
 30
0.0
 11
-228.776
 21
-16.649
 31
0.0
  0
LINE
  5
241
330
1E
100
AcDbEntity
  8
0
  6
CONTINUOUS
 62
     7
100
AcDbLine
 10
-228.776
 20
-16.649
 30
0.0
 11
-227.576
 21
-16.97053
 31
0.0
  0
TEXT
  5
242
330
1E
100
AcDbEntity
  8
0
  6
CONTINUOUS
 62
     7
100
AcDbText
 10
-199.97648
 20
-16.24964
 30
0.0
 40
3.2
  1
1700
 41
0.8125
  7
BIGFONT
100
AcDbText
  0
LINE
  5
243
330
1E
100
AcDbEntity
  8
0
  6
CONTINUOUS
 62
     1
100
AcDbLine
 10
-103.21164
 20
-32.84964
 30
0.0
 11
-40.61164
 21
-32.84964
 31
0.0
  0
LINE
  5
244
330
1E
100
AcDbEntity
  8
0
  6
CONTINUOUS
 62
     1
100
AcDbLine
 10
-104.41164
 20
-96.64964000000001
 30
0.0
 11
-104.41164
 21
-34.04964
 31
0.0
  0
LINE
  5
245
330
1E
100
AcDbEntity
  8
0
  6
CONTINUOUS
 62
     1
100
AcDbLine
 10
-226.9764799999999
 20
-40.64964
 30
0.0
 11
-162.77648
 21
-40.64964
 31
0.0
  0
LINE
  5
246
330
1E
100
AcDbEntity
  8
0
  6
CONTINUOUS
 62
     1
100
AcDbLine
 10
-226.9764799999999
 20
-48.64964
 30
0.0
 11
-162.77648
 21
-48.64964
 31
0.0
  0
LINE
  5
247
330
1E
100
AcDbEntity
  8
0
  6
CONTINUOUS
 62
     1
100
AcDbLine
 10
-226.9764799999999
 20
-56.64964000000001
 30
0.0
 11
-162.77648
 21
-56.64964000000001
 31
0.0
  0
LINE
  5
248
330
1E
100
AcDbEntity
  8
0
  6
CONTINUOUS
 62
     1
100
AcDbLine
 10
-226.9764799999999
 20
-64.64964000000001
 30
0.0
 11
-162.77648
 21
-64.64964000000001
 31
0.0
  0
LINE
  5
249
330
1E
100
AcDbEntity
  8
0
  6
CONTINUOUS
 62
     1
100
AcDbLine
 10
-218.77648
 20
-96.64964000000001
 30
0.0
 11
-218.77648
 21
-32.44964
 31
0.0
  0
LINE
  5
24A
330
1E
100
AcDbEntity
  8
0
  6
DASHED
 62
     1
100
AcDbLine
 10
-226.9764799999999
 20
-56.24964
 30
0.0
 11
-213.1375999999999
 21
-56.24964
 31
0.0
  0
LINE
  5
24B
330
1E
100
AcDbEntity
  8
0
  6
DASHED
 62
     1
100
AcDbLine
 10
-163.17648
 20
-46.28852
 30
0.0
 11
-163.17648
 21
-32.44964
 31
0.0
  0
LINE
  5
24C
330
1E
100
AcDbEntity
  8
0
  6
CONTINUOUS
 62
     1
100
AcDbLine
 10
-226.9764799999999
 20
-96.64964000000001
 30
0.0
 11
-194.77648
 21
-96.64964000000001
 31
0.0
  0
LINE
  5
24D
330
1E
100
AcDbEntity
  8
0
  6
CONTINUOUS
 62
     1
100
AcDbLine
 10
-162.77648
 20
-64.64964000000001
 30
0.0
 11
-162.77648
 21
-32.44964
 31
0.0
  0
TEXT
  5
24E
330
1E
100
AcDbEntity
  8
0
  6
CONTINUOUS
 62
     7
100
AcDbText
 10
-236.57924
 20
62.25124
 30
0.0
 40
3.2
  1
3×300=900
 50
90.0
  7
BIGFONT
100
AcDbText
  0
LINE
  5
24F
330
1E
100
AcDbEntity
  8
0
  6
CONTINUOUS
 62
     7
100
AcDbLine
 10
41.00347999999999
 20
115.0986399999996
 30
0.0
 11
31.10088
 21
105.6503199999999
 31
0.0
  0
LINE
  5
250
330
1E
100
AcDbEntity
  8
0
  6
CONTINUOUS
 62
     7
100
AcDbLine
 10
31.74624
 20
106.71101
 30
0.0
 11
31.1
 21
105.6499999999999
 31
0.0
  0
LINE
  5
251
330
1E
100
AcDbEntity
  8
0
  6
CONTINUOUS
 62
     7
100
AcDbLine
 10
31.1
 20
105.6499999999999
 30
0.0
 11
32.19017
 21
106.2457399999999
 31
0.0
  0
LINE
  5
252
330
1E
100
AcDbEntity
  8
0
  6
CONTINUOUS
 62
     7
100
AcDbLine
 10
57.42684
 20
90.64947999999999
 30
0.0
 11
30.72087999999999
 21
90.64947999999999
 31
0.0
  0
LINE
  5
253
330
1E
100
AcDbEntity
  8
0
  6
CONTINUOUS
 62
     7
100
AcDbLine
 10
31.92
 20
90.97053
 30
0.0
 11
30.72
 21
90.64899999999999
 31
0.0
  0
LINE
  5
254
330
1E
100
AcDbEntity
  8
0
  6
CONTINUOUS
 62
     7
100
AcDbLine
 10
30.72
 20
90.64899999999999
 30
0.0
 11
31.92
 21
90.32746000000001
 31
0.0
  0
LINE
  5
255
330
1E
100
AcDbEntity
  8
0
  6
CONTINUOUS
 62
     7
100
AcDbLine
 10
19.88087999999996
 20
102.5958399999999
 30
0.0
 11
29.26088
 21
92.61032
 31
0.0
  0
LINE
  5
256
330
1E
100
AcDbEntity
  8
0
  6
CONTINUOUS
 62
     7
100
AcDbLine
 10
28.20404
 20
93.26448
 30
0.0
 11
29.26
 21
92.61000000000001
 31
0.0
  0
LINE
  5
257
330
1E
100
AcDbEntity
  8
0
  6
CONTINUOUS
 62
     7
100
AcDbLine
 10
29.26
 20
92.61000000000001
 30
0.0
 11
28.67276
 21
93.70476999999999
 31
0.0
  0
LINE
  5
258
330
1E
100
AcDbEntity
  8
0
  6
CONTINUOUS
 62
     7
100
AcDbLine
 10
19.88087999999996
 20
73.62248000000002
 30
0.0
 11
28.88087999999999
 21
73.62248000000002
 31
0.0
  0
LINE
  5
259
330
1E
100
AcDbEntity
  8
0
  6
CONTINUOUS
 62
     7
100
AcDbLine
 10
27.68
 20
73.30046
 30
0.0
 11
28.87999999999999
 21
73.622
 31
0.0
  0
LINE
  5
25A
330
1E
100
AcDbEntity
  8
0
  6
CONTINUOUS
 62
     7
100
AcDbLine
 10
28.87999999999999
 20
73.622
 30
0.0
 11
27.68
 21
73.94353000000002
 31
0.0
  0
TEXT
  5
25B
330
1E
100
AcDbEntity
  8
0
  6
CONTINUOUS
 62
     7
100
AcDbText
 10
48.3632
 20
91.54752
 30
0.0
 40
3.2
  1
D13
  7
BIGFONT
100
AcDbText
  0
CIRCLE
  5
25C
330
1E
100
AcDbEntity
  8
0
  6
CONTINUOUS
 62
     7
100
AcDbCircle
 10
44.363
 20
93.14311999999999
 30
0.0
 40
2.5
  0
TEXT
  5
25D
330
1E
100
AcDbEntity
  8
0
  6
CONTINUOUS
 62
     7
100
AcDbText
 10
42.87844
 20
91.56283999999999
 30
0.0
 40
3.2
  1
１
  7
BIGFONT
100
AcDbText
  0
TEXT
  5
25E
330
1E
100
AcDbEntity
  8
0
  6
CONTINUOUS
 62
     7
100
AcDbText
 10
-30.22327999999999
 20
99.17495999999999
 30
0.0
 40
3.2
  1
D13
 50
90.0
  7
BIGFONT
100
AcDbText
  0
LINE
  5
25F
330
1E
100
AcDbEntity
  8
0
  6
CONTINUOUS
 62
     7
100
AcDbLine
 10
-29.24092
 20
91.69124
 30
0.0
 11
-29.24092
 21
107.6912399999999
 31
0.0
  0
CIRCLE
  5
260
330
1E
100
AcDbEntity
  8
0
  6
CONTINUOUS
 62
     7
100
AcDbCircle
 10
-31.73887999999999
 20
95.17476
 30
0.0
 40
2.5
  0
TEXT
  5
261
330
1E
100
AcDbEntity
  8
0
  6
CONTINUOUS
 62
     7
100
AcDbText
 10
-29.85555999999998
 20
93.802
 30
0.0
 40
3.2
  1
１
 50
90.0
  7
BIGFONT
100
AcDbText
  0
LINE
  5
262
330
1E
100
AcDbEntity
  8
0
  6
CONTINUOUS
 62
     7
100
AcDbLine
 10
-76.61164000000002
 20
139.4281199999996
 30
0.0
 11
-76.61164000000002
 21
130.01032
 31
0.0
  0
LINE
  5
263
330
1E
100
AcDbEntity
  8
0
  6
CONTINUOUS
 62
     7
100
AcDbLine
 10
-76.93253
 20
131.21
 30
0.0
 11
-76.61100000000002
 21
130.01
 31
0.0
  0
LINE
  5
264
330
1E
100
AcDbEntity
  8
0
  6
CONTINUOUS
 62
     7
100
AcDbLine
 10
-76.61100000000002
 20
130.01
 30
0.0
 11
-76.28945999999998
 21
131.21
 31
0.0
  0
LINE
  5
265
330
1E
100
AcDbEntity
  8
0
  6
CONTINUOUS
 62
     7
100
AcDbLine
 10
-218.3796799999999
 20
63.87348000000001
 30
0.0
 11
-226.3796799999999
 21
63.87348000000001
 31
0.0
  0
LINE
  5
266
330
1E
100
AcDbEntity
  8
0
  6
CONTINUOUS
 62
     7
100
AcDbLine
 10
-225.179
 20
64.19453
 30
0.0
 11
-226.3789999999999
 21
63.87299999999999
 31
0.0
  0
LINE
  5
267
330
1E
100
AcDbEntity
  8
0
  6
CONTINUOUS
 62
     7
100
AcDbLine
 10
-226.3789999999999
 20
63.87299999999999
 30
0.0
 11
-225.179
 21
63.55146
 31
0.0
  0
LINE
  5
268
330
1E
100
AcDbEntity
  8
0
  6
CONTINUOUS
 62
     7
100
AcDbLine
 10
-210.37968
 20
63.87348000000001
 30
0.0
 11
-218.3796799999999
 21
63.87348000000001
 31
0.0
  0
LINE
  5
269
330
1E
100
AcDbEntity
  8
0
  6
CONTINUOUS
 62
     7
100
AcDbLine
 10
-217.179
 20
64.19453
 30
0.0
 11
-218.379
 21
63.87299999999999
 31
0.0
  0
LINE
  5
26A
330
1E
100
AcDbEntity
  8
0
  6
CONTINUOUS
 62
     7
100
AcDbLine
 10
-218.379
 20
63.87299999999999
 30
0.0
 11
-217.179
 21
63.55146
 31
0.0
  0
LINE
  5
26B
330
1E
100
AcDbEntity
  8
0
  6
CONTINUOUS
 62
     7
100
AcDbLine
 10
-202.3796799999999
 20
63.87348000000001
 30
0.0
 11
-210.37968
 21
63.87348000000001
 31
0.0
  0
LINE
  5
26C
330
1E
100
AcDbEntity
  8
0
  6
CONTINUOUS
 62
     7
100
AcDbLine
 10
-209.179
 20
64.19453
 30
0.0
 11
-210.379
 21
63.87299999999999
 31
0.0
  0
LINE
  5
26D
330
1E
100
AcDbEntity
  8
0
  6
CONTINUOUS
 62
     7
100
AcDbLine
 10
-210.379
 20
63.87299999999999
 30
0.0
 11
-209.179
 21
63.55146
 31
0.0
  0
LINE
  5
26E
330
1E
100
AcDbEntity
  8
0
  6
CONTINUOUS
 62
     7
100
AcDbLine
 10
-194.77968
 20
87.38812000000001
 30
0.0
 11
-202.7796799999999
 21
87.38812000000001
 31
0.0
  0
LINE
  5
26F
330
1E
100
AcDbEntity
  8
0
  6
CONTINUOUS
 62
     7
100
AcDbLine
 10
-201.5789999999999
 20
87.70953
 30
0.0
 11
-202.7789999999999
 21
87.38800000000003
 31
0.0
  0
LINE
  5
270
330
1E
100
AcDbEntity
  8
0
  6
CONTINUOUS
 62
     7
100
AcDbLine
 10
-202.7789999999999
 20
87.38800000000003
 30
0.0
 11
-201.5789999999999
 21
87.06645999999997
 31
0.0
  0
LINE
  5
271
330
1E
100
AcDbEntity
  8
0
  6
CONTINUOUS
 62
     7
100
AcDbLine
 10
-194.37968
 20
63.87348000000001
 30
0.0
 11
-202.3796799999999
 21
63.87348000000001
 31
0.0
  0
LINE
  5
272
330
1E
100
AcDbEntity
  8
0
  6
CONTINUOUS
 62
     7
100
AcDbLine
 10
-201.1789999999999
 20
64.19453
 30
0.0
 11
-202.3789999999999
 21
63.87299999999999
 31
0.0
  0
LINE
  5
273
330
1E
100
AcDbEntity
  8
0
  6
CONTINUOUS
 62
     7
100
AcDbLine
 10
-202.3789999999999
 20
63.87299999999999
 30
0.0
 11
-201.1789999999999
 21
63.55146
 31
0.0
  0
LINE
  5
274
330
1E
100
AcDbEntity
  8
0
  6
CONTINUOUS
 62
     7
100
AcDbLine
 10
-186.77968
 20
87.38812000000001
 30
0.0
 11
-194.77968
 21
87.38812000000001
 31
0.0
  0
LINE
  5
275
330
1E
100
AcDbEntity
  8
0
  6
CONTINUOUS
 62
     7
100
AcDbLine
 10
-193.579
 20
87.70953
 30
0.0
 11
-194.7789999999999
 21
87.38800000000003
 31
0.0
  0
LINE
  5
276
330
1E
100
AcDbEntity
  8
0
  6
CONTINUOUS
 62
     7
100
AcDbLine
 10
-194.7789999999999
 20
87.38800000000003
 30
0.0
 11
-193.579
 21
87.06645999999997
 31
0.0
  0
LINE
  5
277
330
1E
100
AcDbEntity
  8
0
  6
CONTINUOUS
 62
     7
100
AcDbLine
 10
-186.37968
 20
63.87348000000001
 30
0.0
 11
-194.37968
 21
63.87348000000001
 31
0.0
  0
LINE
  5
278
330
1E
100
AcDbEntity
  8
0
  6
CONTINUOUS
 62
     7
100
AcDbLine
 10
-193.179
 20
64.19453
 30
0.0
 11
-194.3789999999999
 21
63.87299999999999
 31
0.0
  0
LINE
  5
279
330
1E
100
AcDbEntity
  8
0
  6
CONTINUOUS
 62
     7
100
AcDbLine
 10
-194.3789999999999
 20
63.87299999999999
 30
0.0
 11
-193.179
 21
63.55146
 31
0.0
  0
LINE
  5
27A
330
1E
100
AcDbEntity
  8
0
  6
CONTINUOUS
 62
     7
100
AcDbLine
 10
-178.77968
 20
87.38812000000001
 30
0.0
 11
-186.77968
 21
87.38812000000001
 31
0.0
  0
LINE
  5
27B
330
1E
100
AcDbEntity
  8
0
  6
CONTINUOUS
 62
     7
100
AcDbLine
 10
-185.579
 20
87.70953
 30
0.0
 11
-186.779
 21
87.38800000000003
 31
0.0
  0
LINE
  5
27C
330
1E
100
AcDbEntity
  8
0
  6
CONTINUOUS
 62
     7
100
AcDbLine
 10
-186.779
 20
87.38800000000003
 30
0.0
 11
-185.579
 21
87.06645999999997
 31
0.0
  0
LINE
  5
27D
330
1E
100
AcDbEntity
  8
0
  6
CONTINUOUS
 62
     7
100
AcDbLine
 10
-164.57968
 20
87.38812000000001
 30
0.0
 11
-170.77968
 21
87.38812000000001
 31
0.0
  0
LINE
  5
27E
330
1E
100
AcDbEntity
  8
0
  6
CONTINUOUS
 62
     7
100
AcDbLine
 10
-169.579
 20
87.70953
 30
0.0
 11
-170.7789999999999
 21
87.38800000000003
 31
0.0
  0
LINE
  5
27F
330
1E
100
AcDbEntity
  8
0
  6
CONTINUOUS
 62
     7
100
AcDbLine
 10
-170.7789999999999
 20
87.38800000000003
 30
0.0
 11
-169.579
 21
87.06645999999997
 31
0.0
  0
LINE
  5
280
330
1E
100
AcDbEntity
  8
0
  6
CONTINUOUS
 62
     7
100
AcDbLine
 10
-198.56984
 20
68.61032
 30
0.0
 11
-198.56984
 21
56.61031999999998
 31
0.0
  0
LINE
  5
281
330
1E
100
AcDbEntity
  8
0
  6
CONTINUOUS
 62
     7
100
AcDbLine
 10
-198.89053
 20
57.81
 30
0.0
 11
-198.5689999999999
 21
56.61
 31
0.0
  0
LINE
  5
282
330
1E
100
AcDbEntity
  8
0
  6
CONTINUOUS
 62
     7
100
AcDbLine
 10
-198.5689999999999
 20
56.61
 30
0.0
 11
-198.24746
 21
57.81
 31
0.0
  0
LINE
  5
283
330
1E
100
AcDbEntity
  8
0
  6
CONTINUOUS
 62
     7
100
AcDbLine
 10
-198.56984
 20
80.61032
 30
0.0
 11
-198.56984
 21
68.61032
 31
0.0
  0
LINE
  5
284
330
1E
100
AcDbEntity
  8
0
  6
CONTINUOUS
 62
     7
100
AcDbLine
 10
-198.89053
 20
69.81
 30
0.0
 11
-198.5689999999999
 21
68.61
 31
0.0
  0
LINE
  5
285
330
1E
100
AcDbEntity
  8
0
  6
CONTINUOUS
 62
     7
100
AcDbLine
 10
-198.5689999999999
 20
68.61
 30
0.0
 11
-198.24746
 21
69.81
 31
0.0
  0
LINE
  5
286
330
1E
100
AcDbEntity
  8
0
  6
CONTINUOUS
 62
     7
100
AcDbLine
 10
-96.61163999999999
 20
91.69124
 30
0.0
 11
-104.61164
 21
91.69124
 31
0.0
  0
LINE
  5
287
330
1E
100
AcDbEntity
  8
0
  6
CONTINUOUS
 62
     7
100
AcDbLine
 10
-103.411
 20
92.01252999999999
 30
0.0
 11
-104.611
 21
91.691
 31
0.0
  0
LINE
  5
288
330
1E
100
AcDbEntity
  8
0
  6
CONTINUOUS
 62
     7
100
AcDbLine
 10
-104.611
 20
91.691
 30
0.0
 11
-103.411
 21
91.36946
 31
0.0
  0
LINE
  5
289
330
1E
100
AcDbEntity
  8
0
  6
CONTINUOUS
 62
     7
100
AcDbLine
 10
-88.61164
 20
91.69124
 30
0.0
 11
-96.61163999999999
 21
91.69124
 31
0.0
  0
LINE
  5
28A
330
1E
100
AcDbEntity
  8
0
  6
CONTINUOUS
 62
     7
100
AcDbLine
 10
-95.411
 20
92.01252999999999
 30
0.0
 11
-96.61100000000001
 21
91.691
 31
0.0
  0
LINE
  5
28B
330
1E
100
AcDbEntity
  8
0
  6
CONTINUOUS
 62
     7
100
AcDbLine
 10
-96.61100000000001
 20
91.691
 30
0.0
 11
-95.411
 21
91.36946
 31
0.0
  0
LINE
  5
28C
330
1E
100
AcDbEntity
  8
0
  6
CONTINUOUS
 62
     7
100
AcDbLine
 10
-80.61164000000003
 20
91.69124
 30
0.0
 11
-88.61164
 21
91.69124
 31
0.0
  0
LINE
  5
28D
330
1E
100
AcDbEntity
  8
0
  6
CONTINUOUS
 62
     7
100
AcDbLine
 10
-87.41100000000001
 20
92.01252999999999
 30
0.0
 11
-88.611
 21
91.691
 31
0.0
  0
LINE
  5
28E
330
1E
100
AcDbEntity
  8
0
  6
CONTINUOUS
 62
     7
100
AcDbLine
 10
-88.611
 20
91.691
 30
0.0
 11
-87.41100000000001
 21
91.36946
 31
0.0
  0
LINE
  5
28F
330
1E
100
AcDbEntity
  8
0
  6
CONTINUOUS
 62
     7
100
AcDbLine
 10
-72.61164
 20
91.69124
 30
0.0
 11
-80.61164000000003
 21
91.69124
 31
0.0
  0
LINE
  5
290
330
1E
100
AcDbEntity
  8
0
  6
CONTINUOUS
 62
     7
100
AcDbLine
 10
-79.411
 20
92.01252999999999
 30
0.0
 11
-80.61100000000001
 21
91.691
 31
0.0
  0
LINE
  5
291
330
1E
100
AcDbEntity
  8
0
  6
CONTINUOUS
 62
     7
100
AcDbLine
 10
-80.61100000000001
 20
91.691
 30
0.0
 11
-79.411
 21
91.36946
 31
0.0
  0
LINE
  5
292
330
1E
100
AcDbEntity
  8
0
  6
CONTINUOUS
 62
     7
100
AcDbLine
 10
-64.61164000000001
 20
91.69124
 30
0.0
 11
-72.61164
 21
91.69124
 31
0.0
  0
LINE
  5
293
330
1E
100
AcDbEntity
  8
0
  6
CONTINUOUS
 62
     7
100
AcDbLine
 10
-71.411
 20
92.01252999999999
 30
0.0
 11
-72.611
 21
91.691
 31
0.0
  0
LINE
  5
294
330
1E
100
AcDbEntity
  8
0
  6
CONTINUOUS
 62
     7
100
AcDbLine
 10
-72.611
 20
91.691
 30
0.0
 11
-71.411
 21
91.36946
 31
0.0
  0
LINE
  5
295
330
1E
100
AcDbEntity
  8
0
  6
CONTINUOUS
 62
     7
100
AcDbLine
 10
-48.61164
 20
91.69124
 30
0.0
 11
-56.61164
 21
91.69124
 31
0.0
  0
LINE
  5
296
330
1E
100
AcDbEntity
  8
0
  6
CONTINUOUS
 62
     7
100
AcDbLine
 10
-55.411
 20
92.01252999999999
 30
0.0
 11
-56.61100000000001
 21
91.691
 31
0.0
  0
LINE
  5
297
330
1E
100
AcDbEntity
  8
0
  6
CONTINUOUS
 62
     7
100
AcDbLine
 10
-56.61100000000001
 20
91.691
 30
0.0
 11
-55.411
 21
91.36946
 31
0.0
  0
ARC
  5
298
330
1E
100
AcDbEntity
  8
0
  6
CONTINUOUS
 62
     1
100
AcDbCircle
 10
-103.21164
 20
-34.04964
 30
0.0
 40
1.199999999999999
100
AcDbArc
 50
90.0
 51
180.0
  0
LINE
  5
299
330
1E
100
AcDbEntity
  8
0
  6
CONTINUOUS
 62
     7
100
AcDbLine
 10
-115.0116399999999
 20
-68.64964
 30
0.0
 11
-104.41164
 21
-68.64964
 31
0.0
  0
LINE
  5
29A
330
1E
100
AcDbEntity
  8
0
  6
CONTINUOUS
 62
     7
100
AcDbLine
 10
-105.611
 20
-68.97053000000001
 30
0.0
 11
-104.411
 21
-68.649
 31
0.0
  0
LINE
  5
29B
330
1E
100
AcDbEntity
  8
0
  6
CONTINUOUS
 62
     7
100
AcDbLine
 10
-104.411
 20
-68.649
 30
0.0
 11
-105.611
 21
-68.32746
 31
0.0
  0
LINE
  5
29C
330
1E
100
AcDbEntity
  8
0
  6
CONTINUOUS
 62
     7
100
AcDbLine
 10
-29.21164
 20
-60.62248
 30
0.0
 11
-40.61164
 21
-60.62248
 31
0.0
  0
LINE
  5
29D
330
1E
100
AcDbEntity
  8
0
  6
CONTINUOUS
 62
     7
100
AcDbLine
 10
-39.411
 20
-60.30046
 30
0.0
 11
-40.61099999999997
 21
-60.622
 31
0.0
  0
LINE
  5
29E
330
1E
100
AcDbEntity
  8
0
  6
CONTINUOUS
 62
     7
100
AcDbLine
 10
-40.61099999999997
 20
-60.622
 30
0.0
 11
-39.411
 21
-60.94353
 31
0.0
  0
LINE
  5
29F
330
1E
100
AcDbEntity
  8
0
  6
CONTINUOUS
 62
     7
100
AcDbLine
 10
-76.88148000000002
 20
-108.0496399999999
 30
0.0
 11
-76.88148000000002
 21
-96.64964000000001
 31
0.0
  0
LINE
  5
2A0
330
1E
100
AcDbEntity
  8
0
  6
CONTINUOUS
 62
     7
100
AcDbLine
 10
-76.55946
 20
-97.849
 30
0.0
 11
-76.881
 21
-96.64900000000001
 31
0.0
  0
LINE
  5
2A1
330
1E
100
AcDbEntity
  8
0
  6
CONTINUOUS
 62
     7
100
AcDbLine
 10
-76.881
 20
-96.64900000000001
 30
0.0
 11
-77.20253000000003
 21
-97.849
 31
0.0
  0
LINE
  5
2A2
330
1E
100
AcDbEntity
  8
0
  6
CONTINUOUS
 62
     7
100
AcDbLine
 10
-76.88148000000002
 20
-48.64964
 30
0.0
 11
-76.88148000000002
 21
-40.64964
 31
0.0
  0
LINE
  5
2A3
330
1E
100
AcDbEntity
  8
0
  6
CONTINUOUS
 62
     7
100
AcDbLine
 10
-76.55946
 20
-41.84899999999998
 30
0.0
 11
-76.881
 21
-40.649
 31
0.0
  0
LINE
  5
2A4
330
1E
100
AcDbEntity
  8
0
  6
CONTINUOUS
 62
     7
100
AcDbLine
 10
-76.881
 20
-40.649
 30
0.0
 11
-77.20253000000003
 21
-41.84899999999998
 31
0.0
  0
LINE
  5
2A5
330
1E
100
AcDbEntity
  8
0
  6
CONTINUOUS
 62
     1
100
AcDbLine
 10
30.08088
 20
56.21031999999999
 30
0.0
 11
80.08088
 21
56.21031999999999
 31
0.0
  0
POINT
  5
2A6
330
1E
100
AcDbEntity
  8
0
  6
CONTINUOUS
 62
     1
100
AcDbPoint
 10
77.08088
 20
55.83184
 30
0.0
  0
POINT
  5
2A7
330
1E
100
AcDbEntity
  8
0
  6
CONTINUOUS
 62
     1
100
AcDbPoint
 10
69.08088000000001
 20
55.83184
 30
0.0
  0
POINT
  5
2A8
330
1E
100
AcDbEntity
  8
0
  6
CONTINUOUS
 62
     7
100
AcDbPoint
 10
61.08088000000001
 20
55.83184
 30
0.0
  0
POINT
  5
2A9
330
1E
100
AcDbEntity
  8
0
  6
CONTINUOUS
 62
     1
100
AcDbPoint
 10
53.08088000000001
 20
55.83184
 30
0.0
  0
POINT
  5
2AA
330
1E
100
AcDbEntity
  8
0
  6
CONTINUOUS
 62
     1
100
AcDbPoint
 10
45.08087999999999
 20
55.83184
 30
0.0
  0
POINT
  5
2AB
330
1E
100
AcDbEntity
  8
0
  6
CONTINUOUS
 62
     1
100
AcDbPoint
 10
37.08088
 20
55.83184
 30
0.0
  0
LINE
  5
2AC
330
1E
100
AcDbEntity
  8
0
  6
CONTINUOUS
 62
     1
100
AcDbLine
 10
-226.9764799999999
 20
-80.64964000000001
 30
0.0
 11
-194.7656
 21
-80.64964000000001
 31
0.0
  0
LINE
  5
2AD
330
1E
100
AcDbEntity
  8
0
  6
CONTINUOUS
 62
     1
100
AcDbLine
 10
-226.9764799999999
 20
-88.64964
 30
0.0
 11
-194.7656
 21
-88.64964
 31
0.0
  0
LINE
  5
2AE
330
1E
100
AcDbEntity
  8
0
  6
CONTINUOUS
 62
     7
100
AcDbLine
 10
-151.35756
 20
-43.51564
 30
0.0
 11
-163.17648
 21
-43.51564
 31
0.0
  0
LINE
  5
2AF
330
1E
100
AcDbEntity
  8
0
  6
CONTINUOUS
 62
     7
100
AcDbLine
 10
-161.976
 20
-43.19345999999998
 30
0.0
 11
-163.1759999999998
 21
-43.515
 31
0.0
  0
LINE
  5
2B0
330
1E
100
AcDbEntity
  8
0
  6
CONTINUOUS
 62
     7
100
AcDbLine
 10
-163.1759999999998
 20
-43.515
 30
0.0
 11
-161.976
 21
-43.83652999999998
 31
0.0
  0
LINE
  5
2B1
330
1E
100
AcDbEntity
  8
0
  6
CONTINUOUS
 62
     7
100
AcDbLine
 10
-215.4157999999999
 20
-108.0496399999999
 30
0.0
 11
-215.4157999999999
 21
-96.24964
 31
0.0
  0
LINE
  5
2B2
330
1E
100
AcDbEntity
  8
0
  6
CONTINUOUS
 62
     7
100
AcDbLine
 10
-215.09346
 20
-97.44900000000001
 30
0.0
 11
-215.415
 21
-96.249
 31
0.0
  0
LINE
  5
2B3
330
1E
100
AcDbEntity
  8
0
  6
CONTINUOUS
 62
     7
100
AcDbLine
 10
-215.415
 20
-96.249
 30
0.0
 11
-215.7365299999999
 21
-97.44900000000001
 31
0.0
  0
LINE
  5
2B4
330
1E
100
AcDbEntity
  8
0
  6
CONTINUOUS
 62
     7
100
AcDbLine
 10
-198.56984
 20
-108.0496399999999
 30
0.0
 11
-198.56984
 21
-96.64964000000001
 31
0.0
  0
LINE
  5
2B5
330
1E
100
AcDbEntity
  8
0
  6
CONTINUOUS
 62
     7
100
AcDbLine
 10
-198.24746
 20
-97.849
 30
0.0
 11
-198.5689999999999
 21
-96.64900000000001
 31
0.0
  0
LINE
  5
2B6
330
1E
100
AcDbEntity
  8
0
  6
CONTINUOUS
 62
     7
100
AcDbLine
 10
-198.5689999999999
 20
-96.64900000000001
 30
0.0
 11
-198.89053
 21
-97.849
 31
0.0
  0
LINE
  5
2B7
330
1E
100
AcDbEntity
  8
0
  6
CONTINUOUS
 62
     7
100
AcDbLine
 10
-195.17648
 20
-43.52544
 30
0.0
 11
-203.1764799999999
 21
-43.52544
 31
0.0
  0
LINE
  5
2B8
330
1E
100
AcDbEntity
  8
0
  6
CONTINUOUS
 62
     7
100
AcDbLine
 10
-201.976
 20
-43.20345999999999
 30
0.0
 11
-203.1759999999999
 21
-43.525
 31
0.0
  0
LINE
  5
2B9
330
1E
100
AcDbEntity
  8
0
  6
CONTINUOUS
 62
     7
100
AcDbLine
 10
-203.1759999999999
 20
-43.525
 30
0.0
 11
-201.976
 21
-43.84653
 31
0.0
  0
LINE
  5
2BA
330
1E
100
AcDbEntity
  8
0
  6
CONTINUOUS
 62
     7
100
AcDbLine
 10
-179.1764799999999
 20
-43.52544
 30
0.0
 11
-187.17648
 21
-43.52544
 31
0.0
  0
LINE
  5
2BB
330
1E
100
AcDbEntity
  8
0
  6
CONTINUOUS
 62
     7
100
AcDbLine
 10
-185.9759999999999
 20
-43.20345999999999
 30
0.0
 11
-187.1759999999999
 21
-43.525
 31
0.0
  0
LINE
  5
2BC
330
1E
100
AcDbEntity
  8
0
  6
CONTINUOUS
 62
     7
100
AcDbLine
 10
-187.1759999999999
 20
-43.525
 30
0.0
 11
-185.9759999999999
 21
-43.84653
 31
0.0
  0
LINE
  5
2BD
330
1E
100
AcDbEntity
  8
0
  6
CONTINUOUS
 62
     7
100
AcDbLine
 10
-171.17648
 20
-43.52544
 30
0.0
 11
-179.1764799999999
 21
-43.52544
 31
0.0
  0
LINE
  5
2BE
330
1E
100
AcDbEntity
  8
0
  6
CONTINUOUS
 62
     7
100
AcDbLine
 10
-177.976
 20
-43.20345999999999
 30
0.0
 11
-179.176
 21
-43.525
 31
0.0
  0
LINE
  5
2BF
330
1E
100
AcDbEntity
  8
0
  6
CONTINUOUS
 62
     7
100
AcDbLine
 10
-179.176
 20
-43.525
 30
0.0
 11
-177.976
 21
-43.84653
 31
0.0
  0
LINE
  5
2C0
330
1E
100
AcDbEntity
  8
0
  6
CONTINUOUS
 62
     7
100
AcDbLine
 10
-163.17648
 20
-43.52544
 30
0.0
 11
-171.17648
 21
-43.52544
 31
0.0
  0
LINE
  5
2C1
330
1E
100
AcDbEntity
  8
0
  6
CONTINUOUS
 62
     7
100
AcDbLine
 10
-169.9759999999999
 20
-43.20345999999999
 30
0.0
 11
-171.1759999999999
 21
-43.525
 31
0.0
  0
LINE
  5
2C2
330
1E
100
AcDbEntity
  8
0
  6
CONTINUOUS
 62
     7
100
AcDbLine
 10
-171.1759999999999
 20
-43.525
 30
0.0
 11
-169.9759999999999
 21
-43.84653
 31
0.0
  0
LINE
  5
2C3
330
1E
100
AcDbEntity
  8
0
  6
CONTINUOUS
 62
     7
100
AcDbLine
 10
-170.7764799999999
 20
-60.5808
 30
0.0
 11
-178.7764799999999
 21
-60.5808
 31
0.0
  0
LINE
  5
2C4
330
1E
100
AcDbEntity
  8
0
  6
CONTINUOUS
 62
     7
100
AcDbLine
 10
-177.576
 20
-60.25846
 30
0.0
 11
-178.7759999999999
 21
-60.57999999999999
 31
0.0
  0
LINE
  5
2C5
330
1E
100
AcDbEntity
  8
0
  6
CONTINUOUS
 62
     7
100
AcDbLine
 10
-178.7759999999999
 20
-60.57999999999999
 30
0.0
 11
-177.576
 21
-60.90153
 31
0.0
  0
LINE
  5
2C6
330
1E
100
AcDbEntity
  8
0
  6
CONTINUOUS
 62
     7
100
AcDbLine
 10
-162.77648
 20
-60.5808
 30
0.0
 11
-170.7871199999999
 21
-60.5808
 31
0.0
  0
LINE
  5
2C7
330
1E
100
AcDbEntity
  8
0
  6
CONTINUOUS
 62
     7
100
AcDbLine
 10
-169.587
 20
-60.25846
 30
0.0
 11
-170.7869999999998
 21
-60.57999999999999
 31
0.0
  0
LINE
  5
2C8
330
1E
100
AcDbEntity
  8
0
  6
CONTINUOUS
 62
     7
100
AcDbLine
 10
-170.7869999999998
 20
-60.57999999999999
 30
0.0
 11
-169.587
 21
-60.90153
 31
0.0
  0
LINE
  5
2C9
330
1E
100
AcDbEntity
  8
0
  6
CONTINUOUS
 62
     7
100
AcDbLine
 10
-151.35668
 20
-60.5808
 30
0.0
 11
-162.7798399999998
 21
-60.5808
 31
0.0
  0
LINE
  5
2CA
330
1E
100
AcDbEntity
  8
0
  6
CONTINUOUS
 62
     7
100
AcDbLine
 10
-161.579
 20
-60.25846
 30
0.0
 11
-162.779
 21
-60.57999999999999
 31
0.0
  0
LINE
  5
2CB
330
1E
100
AcDbEntity
  8
0
  6
CONTINUOUS
 62
     7
100
AcDbLine
 10
-162.779
 20
-60.57999999999999
 30
0.0
 11
-161.579
 21
-60.90153
 31
0.0
  0
POINT
  5
2CC
330
1E
100
AcDbEntity
  8
0
  6
CONTINUOUS
 62
     1
100
AcDbPoint
 10
37.08088
 20
54.19031999999999
 30
0.0
  0
POINT
  5
2CD
330
1E
100
AcDbEntity
  8
0
  6
CONTINUOUS
 62
     7
100
AcDbPoint
 10
45.08087999999999
 20
54.19031999999999
 30
0.0
  0
POINT
  5
2CE
330
1E
100
AcDbEntity
  8
0
  6
CONTINUOUS
 62
     1
100
AcDbPoint
 10
53.08088000000001
 20
54.19031999999999
 30
0.0
  0
POINT
  5
2CF
330
1E
100
AcDbEntity
  8
0
  6
CONTINUOUS
 62
     1
100
AcDbPoint
 10
61.08088000000001
 20
54.19031999999999
 30
0.0
  0
CIRCLE
  5
2D0
330
1E
100
AcDbEntity
  8
0
  6
CONTINUOUS
 62
     7
100
AcDbCircle
 10
200.1883199999999
 20
56.01032
 30
0.0
 40
0.6
  0
LINE
  5
2D1
330
1E
100
AcDbEntity
  8
0
  6
CONTINUOUS
 62
     7
100
AcDbLine
 10
198.5883199999999
 20
56.01032
 30
0.0
 11
201.7883199999999
 21
56.01032
 31
0.0
  0
LINE
  5
2D2
330
1E
100
AcDbEntity
  8
0
  6
CONTINUOUS
 62
     7
100
AcDbLine
 10
200.1883199999999
 20
54.41031999999999
 30
0.0
 11
200.1883199999999
 21
57.61032
 31
0.0
  0
LINE
  5
2D3
330
1E
100
AcDbEntity
  8
0
  6
CONTINUOUS
 62
     7
100
AcDbLine
 10
210.8254
 20
52.01032
 30
0.0
 11
210.8254
 21
56.01032
 31
0.0
  0
LINE
  5
2D4
330
1E
100
AcDbEntity
  8
0
  6
CONTINUOUS
 62
     7
100
AcDbLine
 10
202.3974799999999
 20
56.01032
 30
0.0
 11
211.6254
 21
56.01032
 31
0.0
  0
LINE
  5
2D5
330
1E
100
AcDbEntity
  8
0
  6
CONTINUOUS
 62
     7
100
AcDbLine
 10
208.8197999999999
 20
52.01032
 30
0.0
 11
211.6254
 21
52.01032
 31
0.0
  0
LINE
  5
2D6
330
1E
100
AcDbEntity
  8
0
  6
CONTINUOUS
 62
     7
100
AcDbLine
 10
210.8254
 20
58.41032
 30
0.0
 11
210.8254
 21
56.01032
 31
0.0
  0
LINE
  5
2D7
330
1E
100
AcDbEntity
  8
0
  6
CONTINUOUS
 62
     7
100
AcDbLine
 10
210.50346
 20
57.21
 30
0.0
 11
210.8249999999999
 21
56.00999999999999
 31
0.0
  0
LINE
  5
2D8
330
1E
100
AcDbEntity
  8
0
  6
CONTINUOUS
 62
     7
100
AcDbLine
 10
210.8249999999999
 20
56.00999999999999
 30
0.0
 11
211.1465299999999
 21
57.21
 31
0.0
  0
LINE
  5
2D9
330
1E
100
AcDbEntity
  8
0
  6
CONTINUOUS
 62
     7
100
AcDbLine
 10
210.8254
 20
52.01032
 30
0.0
 11
210.8254
 21
49.61032
 31
0.0
  0
LINE
  5
2DA
330
1E
100
AcDbEntity
  8
0
  6
CONTINUOUS
 62
     7
100
AcDbLine
 10
211.1465299999999
 20
50.81
 30
0.0
 11
210.8249999999999
 21
52.01
 31
0.0
  0
LINE
  5
2DB
330
1E
100
AcDbEntity
  8
0
  6
CONTINUOUS
 62
     7
100
AcDbLine
 10
210.8249999999999
 20
52.01
 30
0.0
 11
210.50346
 21
50.81
 31
0.0
  0
LINE
  5
2DC
330
1E
100
AcDbEntity
  8
0
  6
CONTINUOUS
 62
     7
100
AcDbLine
 10
210.8254
 20
58.41032
 30
0.0
 11
210.8254
 21
66.93031999999999
 31
0.0
  0
TEXT
  5
2DD
330
1E
100
AcDbEntity
  8
0
  6
CONTINUOUS
 62
     7
100
AcDbText
 10
210.4254
 20
59.13032
 30
0.0
 40
3.2
  1
100
 50
90.0
 41
0.8125
  7
BIGFONT
100
AcDbText
  0
CIRCLE
  5
2DE
330
1E
100
AcDbEntity
  8
0
  6
CONTINUOUS
 62
     7
100
AcDbCircle
 10
171.62
 20
118.75728
 30
0.0
 40
0.6
  0
LINE
  5
2DF
330
1E
100
AcDbEntity
  8
0
  6
CONTINUOUS
 62
     7
100
AcDbLine
 10
170.02
 20
118.75728
 30
0.0
 11
173.2199999999999
 21
118.75728
 31
0.0
  0
LINE
  5
2E0
330
1E
100
AcDbEntity
  8
0
  6
CONTINUOUS
 62
     7
100
AcDbLine
 10
171.62
 20
117.15728
 30
0.0
 11
171.62
 21
120.35728
 31
0.0
  0
LINE
  5
2E1
330
1E
100
AcDbEntity
  8
0
  6
CONTINUOUS
 62
     7
100
AcDbLine
 10
168.2199999999999
 20
105.8758
 30
0.0
 11
171.62
 21
105.8758
 31
0.0
  0
LINE
  5
2E2
330
1E
100
AcDbEntity
  8
0
  6
CONTINUOUS
 62
     7
100
AcDbLine
 10
171.62
 20
116.55316
 30
0.0
 11
171.62
 21
105.0758
 31
0.0
  0
LINE
  5
2E3
330
1E
100
AcDbEntity
  8
0
  6
CONTINUOUS
 62
     7
100
AcDbLine
 10
168.2199999999999
 20
113.6609199999996
 30
0.0
 11
168.2199999999999
 21
105.0758
 31
0.0
  0
LINE
  5
2E4
330
1E
100
AcDbEntity
  8
0
  6
CONTINUOUS
 62
     7
100
AcDbLine
 10
174.02
 20
105.8758
 30
0.0
 11
171.62
 21
105.8758
 31
0.0
  0
LINE
  5
2E5
330
1E
100
AcDbEntity
  8
0
  6
CONTINUOUS
 62
     7
100
AcDbLine
 10
172.82
 20
106.19653
 30
0.0
 11
171.62
 21
105.875
 31
0.0
  0
LINE
  5
2E6
330
1E
100
AcDbEntity
  8
0
  6
CONTINUOUS
 62
     7
100
AcDbLine
 10
171.62
 20
105.875
 30
0.0
 11
172.82
 21
105.55346
 31
0.0
  0
LINE
  5
2E7
330
1E
100
AcDbEntity
  8
0
  6
CONTINUOUS
 62
     7
100
AcDbLine
 10
168.2199999999999
 20
105.8758
 30
0.0
 11
165.8199999999999
 21
105.8758
 31
0.0
  0
LINE
  5
2E8
330
1E
100
AcDbEntity
  8
0
  6
CONTINUOUS
 62
     7
100
AcDbLine
 10
167.02
 20
105.55346
 30
0.0
 11
168.2199999999999
 21
105.875
 31
0.0
  0
LINE
  5
2E9
330
1E
100
AcDbEntity
  8
0
  6
CONTINUOUS
 62
     7
100
AcDbLine
 10
168.2199999999999
 20
105.875
 30
0.0
 11
167.02
 21
106.19653
 31
0.0
  0
LINE
  5
2EA
330
1E
100
AcDbEntity
  8
0
  6
CONTINUOUS
 62
     7
100
AcDbLine
 10
165.8199999999999
 20
105.8758
 30
0.0
 11
161.46
 21
105.8758
 31
0.0
  0
TEXT
  5
2EB
330
1E
100
AcDbEntity
  8
0
  6
CONTINUOUS
 62
     7
100
AcDbText
 10
161.46
 20
106.2758
 30
0.0
 40
3.2
  1
85
 41
0.8125
  7
BIGFONT
100
AcDbText
  0
LINE
  5
2EC
330
1E
100
AcDbEntity
  8
0
  6
CONTINUOUS
 62
     7
100
AcDbLine
 10
219.69284
 20
122.45976
 30
0.0
 11
182.3855199999999
 21
122.49224
 31
0.0
  0
LINE
  5
2ED
330
1E
100
AcDbEntity
  8
0
  6
CONTINUOUS
 62
     7
100
AcDbLine
 10
182.3855199999999
 20
122.49224
 30
0.0
 11
172.0438
 21
119.18668
 31
0.0
  0
LINE
  5
2EE
330
1E
100
AcDbEntity
  8
0
  6
CONTINUOUS
 62
     7
100
AcDbLine
 10
173.08813
 20
119.8576199999999
 30
0.0
 11
172.043
 21
119.186
 31
0.0
  0
LINE
  5
2EF
330
1E
100
AcDbEntity
  8
0
  6
CONTINUOUS
 62
     7
100
AcDbLine
 10
172.043
 20
119.186
 30
0.0
 11
173.2839199999999
 21
119.2450699999999
 31
0.0
  0
TEXT
  5
2F0
330
1E
100
AcDbEntity
  8
0
  6
CONTINUOUS
 62
     7
100
AcDbText
 10
183.8864799999999
 20
118.6086399999999
 30
0.0
 40
3.2
  1
W1/2
  7
BIGFONT
100
AcDbText
  0
TEXT
  5
2F1
330
1E
100
AcDbEntity
  8
0
  6
CONTINUOUS
 62
     7
100
AcDbText
 10
183.54908
 20
123.0216799999999
 30
0.0
 40
3.2
  1
4-埋め込みインサート
  7
BIGFONT
100
AcDbText
  0
LINE
  5
2F2
330
1E
100
AcDbEntity
  8
0
  6
CONTINUOUS
 62
     7
100
AcDbLine
 10
-29.21164
 20
-60.62248
 30
0.0
 11
-29.21164
 21
-44.62247999999997
 31
0.0
  0
TEXT
  5
2F3
330
1E
100
AcDbEntity
  8
0
  6
CONTINUOUS
 62
     7
100
AcDbText
 10
-30.19735999999999
 20
-53.05876
 30
0.0
 40
3.2
  1
D13
 50
90.0
  7
BIGFONT
100
AcDbText
  0
CIRCLE
  5
2F4
330
1E
100
AcDbEntity
  8
0
  6
CONTINUOUS
 62
     7
100
AcDbCircle
 10
-31.71079999999999
 20
-57.05748
 30
0.0
 40
2.5
  0
TEXT
  5
2F5
330
1E
100
AcDbEntity
  8
0
  6
CONTINUOUS
 62
     7
100
AcDbText
 10
-29.9556
 20
-58.66284
 30
0.0
 40
3.2
  1
２
 50
90.0
  7
BIGFONT
100
AcDbText
  0
LINE
  5
2F6
330
1E
100
AcDbEntity
  8
0
  6
CONTINUOUS
 62
     7
100
AcDbLine
 10
-92.88147999999999
 20
-108.0496399999999
 30
0.0
 11
-76.88148000000002
 21
-108.0496399999999
 31
0.0
  0
TEXT
  5
2F7
330
1E
100
AcDbEntity
  8
0
  6
CONTINUOUS
 62
     7
100
AcDbText
 10
-86.31776
 20
-107.0759199999999
 30
0.0
 40
3.2
  1
D13
  7
BIGFONT
100
AcDbText
  0
CIRCLE
  5
2F8
330
1E
100
AcDbEntity
  8
0
  6
CONTINUOUS
 62
     7
100
AcDbCircle
 10
-90.31648
 20
-105.55048
 30
0.0
 40
2.5
  0
TEXT
  5
2F9
330
1E
100
AcDbEntity
  8
0
  6
CONTINUOUS
 62
     7
100
AcDbText
 10
-91.91084
 20
-107.0865199999999
 30
0.0
 40
3.2
  1
２
  7
BIGFONT
100
AcDbText
  0
TEXT
  5
2FA
330
1E
100
AcDbEntity
  8
3
  6
CONTINUOUS
 62
     7
100
AcDbText
 10
245.3009999999999
 20
-157.971
 30
0.0
 40
3.799999999999998
  1
ＫＬ－３１０６
 41
0.7
  7
BIGFONT
100
AcDbText
  0
TEXT
  5
2FB
330
1E
100
AcDbEntity
  8
1
  6
CONTINUOUS
 62
     7
100
AcDbText
 10
-104.68132
 20
-183.1999399999999
 30
0.0
 40
3.2
  1
Ｌ
  7
BIGFONT
100
AcDbText
  0
TEXT
  5
2FC
330
1E
100
AcDbEntity
  8
1
  6
CONTINUOUS
 62
     7
100
AcDbText
 10
-101.6715599999999
 20
-183.02386
 30
0.0
 40
2.2
  1
１
 41
1.1363636
  7
BIGFONT
100
AcDbText
  0
LINE
  5
2FD
330
1E
100
AcDbEntity
  8
1
  6
CONTINUOUS
 62
     1
100
AcDbLine
 10
-110.5558199999999
 20
-175.81708
 30
0.0
 11
-93.95582
 21
-175.81708
 31
0.0
  0
LINE
  5
2FE
330
1E
100
AcDbEntity
  8
1
  6
CONTINUOUS
 62
     7
100
AcDbLine
 10
-110.5558199999999
 20
-183.8167799999999
 30
0.0
 11
-93.95582
 21
-183.8167799999999
 31
0.0
  0
LINE
  5
2FF
330
1E
100
AcDbEntity
  8
1
  6
CONTINUOUS
 62
     7
100
AcDbLine
 10
-93.95582
 20
-176.81708
 30
0.0
 11
-93.95582
 21
-184.61678
 31
0.0
  0
LINE
  5
300
330
1E
100
AcDbEntity
  8
1
  6
CONTINUOUS
 62
     7
100
AcDbLine
 10
-110.5558199999999
 20
-176.81708
 30
0.0
 11
-110.5558199999999
 21
-184.61678
 31
0.0
  0
LINE
  5
301
330
1E
100
AcDbEntity
  8
1
  6
CONTINUOUS
 62
     7
100
AcDbLine
 10
-95.15500000000001
 20
-184.1375299999999
 30
0.0
 11
-93.955
 21
-183.8159999999999
 31
0.0
  0
LINE
  5
302
330
1E
100
AcDbEntity
  8
1
  6
CONTINUOUS
 62
     7
100
AcDbLine
 10
-93.955
 20
-183.8159999999999
 30
0.0
 11
-95.15500000000001
 21
-183.49446
 31
0.0
  0
LINE
  5
303
330
1E
100
AcDbEntity
  8
1
  6
CONTINUOUS
 62
     7
100
AcDbLine
 10
-109.355
 20
-183.49446
 30
0.0
 11
-110.555
 21
-183.8159999999999
 31
0.0
  0
LINE
  5
304
330
1E
100
AcDbEntity
  8
1
  6
CONTINUOUS
 62
     7
100
AcDbLine
 10
-110.555
 20
-183.8159999999999
 30
0.0
 11
-109.355
 21
-184.1375299999999
 31
0.0
  0
CIRCLE
  5
305
330
1E
100
AcDbEntity
  8
1
  6
CONTINUOUS
 62
     7
100
AcDbCircle
 10
-102.1337799999999
 20
-167.17452
 30
0.0
 40
2.497799999999998
  0
TEXT
  5
306
330
1E
100
AcDbEntity
  8
1
  6
CONTINUOUS
 62
     7
100
AcDbText
 10
-103.8368199999996
 20
-169.0198999999998
 30
0.0
 40
3.2
  1
７
  7
BIGFONT
100
AcDbText
  0
LINE
  5
307
330
1E
100
AcDbEntity
  8
1
  6
CONTINUOUS
 62
     7
100
AcDbLine
 10
-107.33128
 20
-169.64208
 30
0.0
 11
-96.80746
 21
-169.64208
 31
0.0
  0
TEXT
  5
308
330
1E
100
AcDbEntity
  8
1
  6
CONTINUOUS
 62
     7
100
AcDbText
 10
-205.53088
 20
-141.5125399999999
 30
0.0
 40
4.5
  1
鉄筋加工図
  7
BIGFONT
100
AcDbText
  0
LINE
  5
309
330
1E
100
AcDbEntity
  8
1
  6
CONTINUOUS
 62
     7
100
AcDbLine
 10
-206.8490399999999
 20
-142.3196399999999
 30
0.0
 11
-170.5652199999998
 21
-142.3196399999999
 31
0.0
  0
LINE
  5
30A
330
1E
100
AcDbEntity
  8
1
  6
CONTINUOUS
 62
     7
100
AcDbLine
 10
-178.5652199999999
 20
-142.3196399999999
 30
0.0
 11
-177.85662
 21
-142.3196399999999
 31
0.0
  0
LINE
  5
30B
330
1E
100
AcDbEntity
  8
1
  6
CONTINUOUS
 62
     1
100
AcDbLine
 10
-239.65998
 20
-175.81708
 30
0.0
 11
-230.3359599999999
 21
-175.81708
 31
0.0
  0
LINE
  5
30C
330
1E
100
AcDbEntity
  8
1
  6
CONTINUOUS
 62
     7
100
AcDbLine
 10
-239.65998
 20
-183.7844399999999
 30
0.0
 11
-230.3359599999999
 21
-183.7844399999999
 31
0.0
  0
LINE
  5
30D
330
1E
100
AcDbEntity
  8
1
  6
CONTINUOUS
 62
     7
100
AcDbLine
 10
-230.3359599999999
 20
-176.81708
 30
0.0
 11
-230.3359599999999
 21
-184.58444
 31
0.0
  0
LINE
  5
30E
330
1E
100
AcDbEntity
  8
1
  6
CONTINUOUS
 62
     7
100
AcDbLine
 10
-239.65998
 20
-176.1415
 30
0.0
 11
-239.65998
 21
-184.58444
 31
0.0
  0
LINE
  5
30F
330
1E
100
AcDbEntity
  8
1
  6
CONTINUOUS
 62
     7
100
AcDbLine
 10
-231.535
 20
-184.10553
 30
0.0
 11
-230.335
 21
-183.7839999999999
 31
0.0
  0
LINE
  5
310
330
1E
100
AcDbEntity
  8
1
  6
CONTINUOUS
 62
     7
100
AcDbLine
 10
-230.335
 20
-183.7839999999999
 30
0.0
 11
-231.535
 21
-183.46246
 31
0.0
  0
LINE
  5
311
330
1E
100
AcDbEntity
  8
1
  6
CONTINUOUS
 62
     7
100
AcDbLine
 10
-238.459
 20
-183.46246
 30
0.0
 11
-239.6589999999999
 21
-183.7839999999999
 31
0.0
  0
LINE
  5
312
330
1E
100
AcDbEntity
  8
1
  6
CONTINUOUS
 62
     7
100
AcDbLine
 10
-239.6589999999999
 20
-183.7839999999999
 30
0.0
 11
-238.459
 21
-184.10553
 31
0.0
  0
LINE
  5
313
330
1E
100
AcDbEntity
  8
1
  6
CONTINUOUS
 62
     1
100
AcDbLine
 10
-209.15998
 20
-175.81708
 30
0.0
 11
-175.15998
 21
-175.81708
 31
0.0
  0
LINE
  5
314
330
1E
100
AcDbEntity
  8
1
  6
CONTINUOUS
 62
     7
100
AcDbLine
 10
-209.15998
 20
-183.78666
 30
0.0
 11
-175.15998
 21
-183.78666
 31
0.0
  0
LINE
  5
315
330
1E
100
AcDbEntity
  8
1
  6
CONTINUOUS
 62
     7
100
AcDbLine
 10
-175.15998
 20
-176.81708
 30
0.0
 11
-175.15998
 21
-184.58666
 31
0.0
  0
LINE
  5
316
330
1E
100
AcDbEntity
  8
1
  6
CONTINUOUS
 62
     7
100
AcDbLine
 10
-209.15998
 20
-176.1415
 30
0.0
 11
-209.15998
 21
-184.58666
 31
0.0
  0
LINE
  5
317
330
1E
100
AcDbEntity
  8
1
  6
CONTINUOUS
 62
     7
100
AcDbLine
 10
-176.359
 20
-184.1075299999999
 30
0.0
 11
-175.159
 21
-183.7859999999999
 31
0.0
  0
LINE
  5
318
330
1E
100
AcDbEntity
  8
1
  6
CONTINUOUS
 62
     7
100
AcDbLine
 10
-175.159
 20
-183.7859999999999
 30
0.0
 11
-176.359
 21
-183.46446
 31
0.0
  0
LINE
  5
319
330
1E
100
AcDbEntity
  8
1
  6
CONTINUOUS
 62
     7
100
AcDbLine
 10
-207.959
 20
-183.46446
 30
0.0
 11
-209.159
 21
-183.7859999999999
 31
0.0
  0
LINE
  5
31A
330
1E
100
AcDbEntity
  8
1
  6
CONTINUOUS
 62
     7
100
AcDbLine
 10
-209.159
 20
-183.7859999999999
 30
0.0
 11
-207.959
 21
-184.1075299999999
 31
0.0
  0
LINE
  5
31B
330
1E
100
AcDbEntity
  8
1
  6
CONTINUOUS
 62
     1
100
AcDbLine
 10
-154.0549399999999
 20
-175.81708
 30
0.0
 11
-126.6549399999999
 21
-175.81708
 31
0.0
  0
LINE
  5
31C
330
1E
100
AcDbEntity
  8
1
  6
CONTINUOUS
 62
     1
100
AcDbLine
 10
-154.6549399999999
 20
-175.21708
 30
0.0
 11
-154.6549399999999
 21
-150.81708
 31
0.0
  0
ARC
  5
31D
330
1E
100
AcDbEntity
  8
1
  6
CONTINUOUS
 62
     1
100
AcDbCircle
 10
-154.0549399999999
 20
-175.21708
 30
0.0
 40
0.6
100
AcDbArc
 50
180.0
 51
270.0
  0
LINE
  5
31E
330
1E
100
AcDbEntity
  8
1
  6
CONTINUOUS
 62
     7
100
AcDbLine
 10
-154.1565999999999
 20
-183.78666
 30
0.0
 11
-126.6549399999999
 21
-183.78666
 31
0.0
  0
LINE
  5
31F
330
1E
100
AcDbEntity
  8
1
  6
CONTINUOUS
 62
     7
100
AcDbLine
 10
-126.6549399999999
 20
-176.81708
 30
0.0
 11
-126.6549399999999
 21
-184.58666
 31
0.0
  0
LINE
  5
320
330
1E
100
AcDbEntity
  8
1
  6
CONTINUOUS
 62
     7
100
AcDbLine
 10
-154.1565999999999
 20
-176.1993799999999
 30
0.0
 11
-154.1565999999999
 21
-184.58666
 31
0.0
  0
LINE
  5
321
330
1E
100
AcDbEntity
  8
1
  6
CONTINUOUS
 62
     7
100
AcDbLine
 10
-127.854
 20
-184.1075299999999
 30
0.0
 11
-126.6539999999999
 21
-183.7859999999999
 31
0.0
  0
LINE
  5
322
330
1E
100
AcDbEntity
  8
1
  6
CONTINUOUS
 62
     7
100
AcDbLine
 10
-126.6539999999999
 20
-183.7859999999999
 30
0.0
 11
-127.854
 21
-183.46446
 31
0.0
  0
LINE
  5
323
330
1E
100
AcDbEntity
  8
1
  6
CONTINUOUS
 62
     7
100
AcDbLine
 10
-152.956
 20
-183.46446
 30
0.0
 11
-154.156
 21
-183.7859999999999
 31
0.0
  0
LINE
  5
324
330
1E
100
AcDbEntity
  8
1
  6
CONTINUOUS
 62
     7
100
AcDbLine
 10
-154.156
 20
-183.7859999999999
 30
0.0
 11
-152.956
 21
-184.1075299999999
 31
0.0
  0
LINE
  5
325
330
1E
100
AcDbEntity
  8
1
  6
CONTINUOUS
 62
     7
100
AcDbLine
 10
-162.73186
 20
-175.21708
 30
0.0
 11
-162.73186
 21
-150.81708
 31
0.0
  0
LINE
  5
326
330
1E
100
AcDbEntity
  8
1
  6
CONTINUOUS
 62
     7
100
AcDbLine
 10
-155.73186
 20
-150.81708
 30
0.0
 11
-163.53186
 21
-150.81708
 31
0.0
  0
LINE
  5
327
330
1E
100
AcDbEntity
  8
1
  6
CONTINUOUS
 62
     7
100
AcDbLine
 10
-155.73186
 20
-175.21708
 30
0.0
 11
-163.53186
 21
-175.21708
 31
0.0
  0
LINE
  5
328
330
1E
100
AcDbEntity
  8
1
  6
CONTINUOUS
 62
     7
100
AcDbLine
 10
-162.40946
 20
-152.017
 30
0.0
 11
-162.731
 21
-150.8169999999998
 31
0.0
  0
LINE
  5
329
330
1E
100
AcDbEntity
  8
1
  6
CONTINUOUS
 62
     7
100
AcDbLine
 10
-162.731
 20
-150.8169999999998
 30
0.0
 11
-163.05253
 21
-152.017
 31
0.0
  0
LINE
  5
32A
330
1E
100
AcDbEntity
  8
1
  6
CONTINUOUS
 62
     7
100
AcDbLine
 10
-163.05253
 20
-174.0169999999999
 30
0.0
 11
-162.731
 21
-175.217
 31
0.0
  0
LINE
  5
32B
330
1E
100
AcDbEntity
  8
1
  6
CONTINUOUS
 62
     7
100
AcDbLine
 10
-162.731
 20
-175.217
 30
0.0
 11
-162.40946
 21
-174.0169999999999
 31
0.0
  0
ARC
  5
32C
330
1E
100
AcDbEntity
  8
1
  6
CONTINUOUS
 62
     7
100
AcDbCircle
 10
-154.1565999999999
 20
-175.21708
 30
0.0
 40
8.57526
100
AcDbArc
 50
191.5780499999999
 51
238.71324
  0
ARC
  5
32D
330
1E
100
AcDbEntity
  8
1
  6
CONTINUOUS
 62
     7
100
AcDbCircle
 10
-154.1565999999999
 20
-175.21708
 30
0.0
 40
8.57526
100
AcDbArc
 50
238.71324
 51
246.3633899999999
  0
LINE
  5
32E
330
1E
100
AcDbEntity
  8
1
  6
CONTINUOUS
 62
     7
100
AcDbLine
 10
-154.1565999999999
 20
-182.9698
 30
0.0
 11
-154.1565999999999
 21
-181.1865799999999
 31
0.0
  0
ARC
  5
32F
330
1E
100
AcDbEntity
  8
1
  6
CONTINUOUS
 62
     7
100
AcDbCircle
 10
-154.1565999999999
 20
-175.21708
 30
0.0
 40
8.57526
100
AcDbArc
 50
246.3633899999999
 51
247.8281799999999
  0
ARC
  5
330
330
1E
100
AcDbEntity
  8
1
  6
CONTINUOUS
 62
     7
100
AcDbCircle
 10
-154.1565999999999
 20
-175.21708
 30
0.0
 40
8.57526
100
AcDbArc
 50
247.8281799999999
 51
258.01527
  0
LINE
  5
331
330
1E
100
AcDbEntity
  8
1
  6
CONTINUOUS
 62
     7
100
AcDbLine
 10
-162.57326
 20
-176.85868
 30
0.0
 11
-162.73186
 21
-175.21708
 31
0.0
  0
LINE
  5
332
330
1E
100
AcDbEntity
  8
1
  6
CONTINUOUS
 62
     7
100
AcDbLine
 10
-162.2955499999999
 20
-176.38051
 30
0.0
 11
-162.731
 21
-175.217
 31
0.0
  0
LINE
  5
333
330
1E
100
AcDbEntity
  8
1
  6
CONTINUOUS
 62
     7
100
AcDbLine
 10
-162.731
 20
-175.217
 30
0.0
 11
-162.93565
 21
-176.44235
 31
0.0
  0
LINE
  5
334
330
1E
100
AcDbEntity
  8
1
  6
CONTINUOUS
 62
     7
100
AcDbLine
 10
-155.869
 20
-183.61962
 30
0.0
 11
-154.1565999999999
 21
-183.79234
 31
0.0
  0
LINE
  5
335
330
1E
100
AcDbEntity
  8
1
  6
CONTINUOUS
 62
     7
100
AcDbLine
 10
-155.38221
 20
-183.99148
 30
0.0
 11
-154.156
 21
-183.792
 31
0.0
  0
LINE
  5
336
330
1E
100
AcDbEntity
  8
1
  6
CONTINUOUS
 62
     7
100
AcDbLine
 10
-154.156
 20
-183.792
 30
0.0
 11
-155.3176699999999
 21
-183.3516499999999
 31
0.0
  0
ARC
  5
337
330
1E
100
AcDbEntity
  8
1
  6
CONTINUOUS
 62
     7
100
AcDbCircle
 10
-154.1565999999999
 20
-175.21708
 30
0.0
 40
8.57526
100
AcDbArc
 50
258.01527
 51
258.41701
  0
LINE
  5
338
330
1E
100
AcDbEntity
  8
1
  6
CONTINUOUS
 62
     7
100
AcDbLine
 10
-154.1565999999999
 20
-183.61488
 30
0.0
 11
-154.1565999999999
 21
-182.9698
 31
0.0
  0
LINE
  5
339
330
1E
100
AcDbEntity
  8
1
  6
CONTINUOUS
 62
     7
100
AcDbLine
 10
-162.73186
 20
-175.21708
 30
0.0
 11
-162.73186
 21
-170.8617199999999
 31
0.0
  0
ARC
  5
33A
330
1E
100
AcDbEntity
  8
1
  6
CONTINUOUS
 62
     7
100
AcDbCircle
 10
-154.1565999999999
 20
-175.21708
 30
0.0
 40
8.57526
100
AcDbArc
 50
191.0231699999999
 51
191.5780499999999
  0
LINE
  5
33B
330
1E
100
AcDbEntity
  8
1
  6
CONTINUOUS
 62
     7
100
AcDbLine
 10
-154.1565999999999
 20
-177.5332399999999
 30
0.0
 11
-154.1565999999999
 21
-175.21708
 31
0.0
  0
LINE
  5
33C
330
1E
100
AcDbEntity
  8
1
  6
CONTINUOUS
 62
     7
100
AcDbLine
 10
-156.7141799999999
 20
-175.21708
 30
0.0
 11
-154.1565999999999
 21
-175.21708
 31
0.0
  0
LINE
  5
33D
330
1E
100
AcDbEntity
  8
1
  6
CONTINUOUS
 62
     1
100
AcDbLine
 10
-96.80938000000001
 20
-149.41002
 30
0.0
 11
-93.98096
 21
-146.5816
 31
0.0
  0
LINE
  5
33E
330
1E
100
AcDbEntity
  8
1
  6
CONTINUOUS
 62
     1
100
AcDbLine
 10
-106.80936
 20
-149.41002
 30
0.0
 11
-96.80938000000001
 21
-149.41002
 31
0.0
  0
LINE
  5
33F
330
1E
100
AcDbEntity
  8
1
  6
CONTINUOUS
 62
     1
100
AcDbLine
 10
-109.6378
 20
-146.5816
 30
0.0
 11
-106.80936
 21
-149.41002
 31
0.0
  0
LINE
  5
340
330
1E
100
AcDbEntity
  8
1
  6
CONTINUOUS
 62
     7
100
AcDbLine
 10
-115.29466
 20
-152.23846
 30
0.0
 11
-112.46623
 21
-155.0668899999999
 31
0.0
  0
LINE
  5
341
330
1E
100
AcDbEntity
  8
1
  6
CONTINUOUS
 62
     7
100
AcDbLine
 10
-107.51646
 20
-150.1171199999999
 30
0.0
 11
-113.03191
 21
-155.6325699999999
 31
0.0
  0
LINE
  5
342
330
1E
100
AcDbEntity
  8
1
  6
CONTINUOUS
 62
     7
100
AcDbLine
 10
-110.3448999999999
 20
-147.2887
 30
0.0
 11
-115.86034
 21
-152.80414
 31
0.0
  0
LINE
  5
343
330
1E
100
AcDbEntity
  8
1
  6
CONTINUOUS
 62
     7
100
AcDbLine
 10
-113.5418899999999
 20
-154.4448299999999
 30
0.0
 11
-112.4659999999999
 21
-155.066
 31
0.0
  0
LINE
  5
344
330
1E
100
AcDbEntity
  8
1
  6
CONTINUOUS
 62
     7
100
AcDbLine
 10
-112.4659999999999
 20
-155.066
 30
0.0
 11
-113.08716
 21
-153.9901
 31
0.0
  0
LINE
  5
345
330
1E
100
AcDbEntity
  8
1
  6
CONTINUOUS
 62
     7
100
AcDbLine
 10
-114.2181
 20
-152.85916
 30
0.0
 11
-115.294
 21
-152.238
 31
0.0
  0
LINE
  5
346
330
1E
100
AcDbEntity
  8
1
  6
CONTINUOUS
 62
     7
100
AcDbLine
 10
-115.294
 20
-152.238
 30
0.0
 11
-114.67283
 21
-153.3138899999999
 31
0.0
  0
LINE
  5
347
330
1E
100
AcDbEntity
  8
1
  6
CONTINUOUS
 62
     7
100
AcDbLine
 10
-91.17404
 20
-155.04536
 30
0.0
 11
-88.34562
 21
-152.2169399999999
 31
0.0
  0
LINE
  5
348
330
1E
100
AcDbEntity
  8
1
  6
CONTINUOUS
 62
     7
100
AcDbLine
 10
-93.27384999999999
 20
-147.2887
 30
0.0
 11
-87.77993
 21
-152.7826199999998
 31
0.0
  0
LINE
  5
349
330
1E
100
AcDbEntity
  8
1
  6
CONTINUOUS
 62
     7
100
AcDbLine
 10
-96.10227
 20
-150.1171199999999
 30
0.0
 11
-90.60835
 21
-155.61104
 31
0.0
  0
LINE
  5
34A
330
1E
100
AcDbEntity
  8
1
  6
CONTINUOUS
 62
     7
100
AcDbLine
 10
-88.96615999999999
 20
-153.29189
 30
0.0
 11
-88.345
 21
-152.216
 31
0.0
  0
LINE
  5
34B
330
1E
100
AcDbEntity
  8
1
  6
CONTINUOUS
 62
     7
100
AcDbLine
 10
-88.345
 20
-152.216
 30
0.0
 11
-89.42089000000001
 21
-152.83716
 31
0.0
  0
LINE
  5
34C
330
1E
100
AcDbEntity
  8
1
  6
CONTINUOUS
 62
     7
100
AcDbLine
 10
-90.55283000000001
 20
-153.9690999999999
 30
0.0
 11
-91.17400000000001
 21
-155.0449999999998
 31
0.0
  0
LINE
  5
34D
330
1E
100
AcDbEntity
  8
1
  6
CONTINUOUS
 62
     7
100
AcDbLine
 10
-91.17400000000001
 20
-155.0449999999998
 30
0.0
 11
-90.09809999999999
 21
-154.42383
 31
0.0
  0
LINE
  5
34E
330
1E
100
AcDbEntity
  8
1
  6
CONTINUOUS
 62
     7
100
AcDbLine
 10
-106.80936
 20
-157.4100399999998
 30
0.0
 11
-96.80938000000001
 21
-157.4100399999998
 31
0.0
  0
LINE
  5
34F
330
1E
100
AcDbEntity
  8
1
  6
CONTINUOUS
 62
     7
100
AcDbLine
 10
-96.80938000000001
 20
-150.41002
 30
0.0
 11
-96.80938000000001
 21
-158.2100399999999
 31
0.0
  0
LINE
  5
350
330
1E
100
AcDbEntity
  8
1
  6
CONTINUOUS
 62
     7
100
AcDbLine
 10
-106.80936
 20
-150.41002
 30
0.0
 11
-106.80936
 21
-158.2100399999999
 31
0.0
  0
LINE
  5
351
330
1E
100
AcDbEntity
  8
1
  6
CONTINUOUS
 62
     7
100
AcDbLine
 10
-98.009
 20
-157.7315299999999
 30
0.0
 11
-96.80900000000001
 21
-157.41
 31
0.0
  0
LINE
  5
352
330
1E
100
AcDbEntity
  8
1
  6
CONTINUOUS
 62
     7
100
AcDbLine
 10
-96.80900000000001
 20
-157.41
 30
0.0
 11
-98.009
 21
-157.08846
 31
0.0
  0
LINE
  5
353
330
1E
100
AcDbEntity
  8
1
  6
CONTINUOUS
 62
     7
100
AcDbLine
 10
-105.6089999999999
 20
-157.08846
 30
0.0
 11
-106.8089999999999
 21
-157.41
 31
0.0
  0
LINE
  5
354
330
1E
100
AcDbEntity
  8
1
  6
CONTINUOUS
 62
     7
100
AcDbLine
 10
-106.8089999999999
 20
-157.41
 30
0.0
 11
-105.6089999999999
 21
-157.7315299999999
 31
0.0
  0
TEXT
  5
355
330
1E
100
AcDbEntity
  8
1
  6
CONTINUOUS
 62
     7
100
AcDbText
 10
-239.33452
 20
-175.5196399999999
 30
0.0
 40
3.2
  1
Ｒ
 50
2.0
  7
BIGFONT
100
AcDbText
  0
TEXT
  5
356
330
1E
100
AcDbEntity
  8
1
  6
CONTINUOUS
 62
     7
100
AcDbText
 10
-153.8311399999994
 20
-175.5952199999999
 30
0.0
 40
3.2
  1
Ｒ
 50
2.0
  7
BIGFONT
100
AcDbText
  0
TEXT
  5
357
330
1E
100
AcDbEntity
  8
1
  6
CONTINUOUS
 62
     7
100
AcDbText
 10
-194.6365399999999
 20
-183.14782
 30
0.0
 40
3.2
  1
Ｌ
  7
BIGFONT
100
AcDbText
  0
TEXT
  5
358
330
1E
100
AcDbEntity
  8
1
  6
CONTINUOUS
 62
     7
100
AcDbText
 10
-191.6267799999999
 20
-182.9717399999999
 30
0.0
 40
2.2
  1
１
 41
1.1363636
  7
BIGFONT
100
AcDbText
  0
TEXT
  5
359
330
1E
100
AcDbEntity
  8
1
  6
CONTINUOUS
 62
     7
100
AcDbText
 10
-237.47672
 20
-183.1841
 30
0.0
 40
3.2
  1
Ｌ
  7
BIGFONT
100
AcDbText
  0
TEXT
  5
35A
330
1E
100
AcDbEntity
  8
1
  6
CONTINUOUS
 62
     7
100
AcDbText
 10
-234.5458799999999
 20
-183.0153799999999
 30
0.0
 40
2.2
  1
３
 41
1.1363636
  7
BIGFONT
100
AcDbText
  0
TEXT
  5
35B
330
1E
100
AcDbEntity
  8
1
  6
CONTINUOUS
 62
     7
100
AcDbText
 10
-161.6343999999999
 20
-178.82286
 30
0.0
 40
3.2
  1
Ｌ
 50
315.0
  7
BIGFONT
100
AcDbText
  0
TEXT
  5
35C
330
1E
100
AcDbEntity
  8
1
  6
CONTINUOUS
 62
     7
100
AcDbText
 10
-159.43288
 20
-180.7875399999999
 30
0.0
 40
2.2
  1
２
 50
315.0
 41
1.1363636
  7
BIGFONT
100
AcDbText
  0
TEXT
  5
35D
330
1E
100
AcDbEntity
  8
1
  6
CONTINUOUS
 62
     7
100
AcDbText
 10
-142.5929999999999
 20
-183.1698199999999
 30
0.0
 40
3.2
  1
Ｌ
  7
BIGFONT
100
AcDbText
  0
TEXT
  5
35E
330
1E
100
AcDbEntity
  8
1
  6
CONTINUOUS
 62
     7
100
AcDbText
 10
-139.5832399999999
 20
-182.99374
 30
0.0
 40
2.2
  1
１
 41
1.1363636
  7
BIGFONT
100
AcDbText
  0
TEXT
  5
35F
330
1E
100
AcDbEntity
  8
1
  6
CONTINUOUS
 62
     7
100
AcDbText
 10
-163.1782399999998
 20
-166.1197
 30
0.0
 40
3.2
  1
Ｌ
 50
90.0
  7
BIGFONT
100
AcDbText
  0
TEXT
  5
360
330
1E
100
AcDbEntity
  8
1
  6
CONTINUOUS
 62
     7
100
AcDbText
 10
-163.3469599999999
 20
-163.18886
 30
0.0
 40
2.2
  1
３
 50
90.0
 41
1.1363636
  7
BIGFONT
100
AcDbText
  0
TEXT
  5
361
330
1E
100
AcDbEntity
  8
1
  6
CONTINUOUS
 62
     7
100
AcDbText
 10
-104.7225599999999
 20
-156.94746
 30
0.0
 40
3.2
  1
Ｌ
  7
BIGFONT
100
AcDbText
  0
TEXT
  5
362
330
1E
100
AcDbEntity
  8
1
  6
CONTINUOUS
 62
     7
100
AcDbText
 10
-101.77662
 20
-156.7799799999999
 30
0.0
 40
2.2
  1
２
 41
1.1363636
  7
BIGFONT
100
AcDbText
  0
TEXT
  5
363
330
1E
100
AcDbEntity
  8
1
  6
CONTINUOUS
 62
     7
100
AcDbText
 10
-88.54791999999996
 20
-158.14618
 30
0.0
 40
3.2
  1
Ｌ
 50
45.0
  7
BIGFONT
100
AcDbText
  0
TEXT
  5
364
330
1E
100
AcDbEntity
  8
1
  6
CONTINUOUS
 62
     7
100
AcDbText
 10
-86.5442
 20
-155.89346
 30
0.0
 40
2.2
  1
１
 50
45.0
 41
1.1363636
  7
BIGFONT
100
AcDbText
  0
LINE
  5
365
330
1E
100
AcDbEntity
  8
1
  6
CONTINUOUS
 62
     1
100
AcDbLine
 10
-240.15832
 20
-175.21708
 30
0.0
 11
-240.15832
 21
-141.91708
 31
0.0
  0
ARC
  5
366
330
1E
100
AcDbEntity
  8
1
  6
CONTINUOUS
 62
     1
100
AcDbCircle
 10
-239.55832
 20
-175.21708
 30
0.0
 40
0.6
100
AcDbArc
 50
180.0
 51
270.0
  0
LINE
  5
367
330
1E
100
AcDbEntity
  8
1
  6
CONTINUOUS
 62
     7
100
AcDbLine
 10
-248.2352399999999
 20
-175.21708
 30
0.0
 11
-248.2352399999999
 21
-141.91708
 31
0.0
  0
LINE
  5
368
330
1E
100
AcDbEntity
  8
1
  6
CONTINUOUS
 62
     7
100
AcDbLine
 10
-241.23524
 20
-141.91708
 30
0.0
 11
-249.0352399999999
 21
-141.91708
 31
0.0
  0
LINE
  5
369
330
1E
100
AcDbEntity
  8
1
  6
CONTINUOUS
 62
     7
100
AcDbLine
 10
-241.23524
 20
-175.21708
 30
0.0
 11
-249.0352399999999
 21
-175.21708
 31
0.0
  0
LINE
  5
36A
330
1E
100
AcDbEntity
  8
1
  6
CONTINUOUS
 62
     7
100
AcDbLine
 10
-247.91346
 20
-143.1169999999999
 30
0.0
 11
-248.235
 21
-141.917
 31
0.0
  0
LINE
  5
36B
330
1E
100
AcDbEntity
  8
1
  6
CONTINUOUS
 62
     7
100
AcDbLine
 10
-248.235
 20
-141.917
 30
0.0
 11
-248.5565299999999
 21
-143.1169999999999
 31
0.0
  0
LINE
  5
36C
330
1E
100
AcDbEntity
  8
1
  6
CONTINUOUS
 62
     7
100
AcDbLine
 10
-248.5565299999999
 20
-174.0169999999999
 30
0.0
 11
-248.235
 21
-175.217
 31
0.0
  0
LINE
  5
36D
330
1E
100
AcDbEntity
  8
1
  6
CONTINUOUS
 62
     7
100
AcDbLine
 10
-248.235
 20
-175.217
 30
0.0
 11
-247.91346
 21
-174.0169999999999
 31
0.0
  0
ARC
  5
36E
330
1E
100
AcDbEntity
  8
1
  6
CONTINUOUS
 62
     7
100
AcDbCircle
 10
-239.65998
 20
-175.21708
 30
0.0
 40
8.57526
100
AcDbArc
 50
191.5780499999999
 51
238.71324
  0
ARC
  5
36F
330
1E
100
AcDbEntity
  8
1
  6
CONTINUOUS
 62
     7
100
AcDbCircle
 10
-239.65998
 20
-175.21708
 30
0.0
 40
8.57526
100
AcDbArc
 50
238.71324
 51
246.3633899999999
  0
ARC
  5
370
330
1E
100
AcDbEntity
  8
1
  6
CONTINUOUS
 62
     7
100
AcDbCircle
 10
-239.65998
 20
-175.21708
 30
0.0
 40
8.57526
100
AcDbArc
 50
246.3633899999999
 51
247.8281799999999
  0
ARC
  5
371
330
1E
100
AcDbEntity
  8
1
  6
CONTINUOUS
 62
     7
100
AcDbCircle
 10
-239.65998
 20
-175.21708
 30
0.0
 40
8.57526
100
AcDbArc
 50
247.8281799999999
 51
258.01527
  0
LINE
  5
372
330
1E
100
AcDbEntity
  8
1
  6
CONTINUOUS
 62
     7
100
AcDbLine
 10
-248.0766399999999
 20
-176.85868
 30
0.0
 11
-248.2352399999999
 21
-175.21708
 31
0.0
  0
LINE
  5
373
330
1E
100
AcDbEntity
  8
1
  6
CONTINUOUS
 62
     7
100
AcDbLine
 10
-247.79955
 20
-176.38051
 30
0.0
 11
-248.235
 21
-175.217
 31
0.0
  0
LINE
  5
374
330
1E
100
AcDbEntity
  8
1
  6
CONTINUOUS
 62
     7
100
AcDbLine
 10
-248.235
 20
-175.217
 30
0.0
 11
-248.4396499999999
 21
-176.44235
 31
0.0
  0
LINE
  5
375
330
1E
100
AcDbEntity
  8
1
  6
CONTINUOUS
 62
     7
100
AcDbLine
 10
-241.37238
 20
-183.61962
 30
0.0
 11
-239.65998
 21
-183.79234
 31
0.0
  0
LINE
  5
376
330
1E
100
AcDbEntity
  8
1
  6
CONTINUOUS
 62
     7
100
AcDbLine
 10
-240.88521
 20
-183.99148
 30
0.0
 11
-239.6589999999999
 21
-183.792
 31
0.0
  0
LINE
  5
377
330
1E
100
AcDbEntity
  8
1
  6
CONTINUOUS
 62
     7
100
AcDbLine
 10
-239.6589999999999
 20
-183.792
 30
0.0
 11
-240.82067
 21
-183.3516499999999
 31
0.0
  0
ARC
  5
378
330
1E
100
AcDbEntity
  8
1
  6
CONTINUOUS
 62
     7
100
AcDbCircle
 10
-239.65998
 20
-175.21708
 30
0.0
 40
8.57526
100
AcDbArc
 50
258.01527
 51
258.41701
  0
LINE
  5
379
330
1E
100
AcDbEntity
  8
1
  6
CONTINUOUS
 62
     7
100
AcDbLine
 10
-248.2352399999999
 20
-175.21708
 30
0.0
 11
-248.2352399999999
 21
-170.8617199999999
 31
0.0
  0
ARC
  5
37A
330
1E
100
AcDbEntity
  8
1
  6
CONTINUOUS
 62
     7
100
AcDbCircle
 10
-239.65998
 20
-175.21708
 30
0.0
 40
8.57526
100
AcDbArc
 50
191.0231699999999
 51
191.5780499999999
  0
LINE
  5
37B
330
1E
100
AcDbEntity
  8
1
  6
CONTINUOUS
 62
     7
100
AcDbLine
 10
-242.21756
 20
-175.21708
 30
0.0
 11
-239.65998
 21
-175.21708
 31
0.0
  0
TEXT
  5
37C
330
1E
100
AcDbEntity
  8
1
  6
CONTINUOUS
 62
     7
100
AcDbText
 10
-247.1377799999999
 20
-178.82286
 30
0.0
 40
3.2
  1
Ｌ
 50
315.0
  7
BIGFONT
100
AcDbText
  0
TEXT
  5
37D
330
1E
100
AcDbEntity
  8
1
  6
CONTINUOUS
 62
     7
100
AcDbText
 10
-244.93626
 20
-180.7875399999999
 30
0.0
 40
2.2
  1
２
 50
315.0
 41
1.1363636
  7
BIGFONT
100
AcDbText
  0
LINE
  5
37E
330
1E
100
AcDbEntity
  8
1
  6
CONTINUOUS
 62
     7
100
AcDbLine
 10
-239.65998
 20
-177.5437399999999
 30
0.0
 11
-239.65998
 21
-175.21708
 31
0.0
  0
TEXT
  5
37F
330
1E
100
AcDbEntity
  8
1
  6
CONTINUOUS
 62
     7
100
AcDbText
 10
-208.83452
 20
-175.5196399999999
 30
0.0
 40
3.2
  1
Ｒ
 50
2.0
  7
BIGFONT
100
AcDbText
  0
LINE
  5
380
330
1E
100
AcDbEntity
  8
1
  6
CONTINUOUS
 62
     1
100
AcDbLine
 10
-209.6583199999999
 20
-175.21708
 30
0.0
 11
-209.6583199999999
 21
-168.1960799999995
 31
0.0
  0
ARC
  5
381
330
1E
100
AcDbEntity
  8
1
  6
CONTINUOUS
 62
     1
100
AcDbCircle
 10
-209.05832
 20
-175.21708
 30
0.0
 40
0.6
100
AcDbArc
 50
180.0
 51
270.0
  0
LINE
  5
382
330
1E
100
AcDbEntity
  8
1
  6
CONTINUOUS
 62
     7
100
AcDbLine
 10
-217.73524
 20
-175.21708
 30
0.0
 11
-217.73524
 21
-168.1960799999995
 31
0.0
  0
LINE
  5
383
330
1E
100
AcDbEntity
  8
1
  6
CONTINUOUS
 62
     7
100
AcDbLine
 10
-210.7352399999999
 20
-168.1960799999995
 30
0.0
 11
-218.5352399999999
 21
-168.1960799999995
 31
0.0
  0
LINE
  5
384
330
1E
100
AcDbEntity
  8
1
  6
CONTINUOUS
 62
     7
100
AcDbLine
 10
-210.7352399999999
 20
-175.21708
 30
0.0
 11
-218.5352399999999
 21
-175.21708
 31
0.0
  0
LINE
  5
385
330
1E
100
AcDbEntity
  8
1
  6
CONTINUOUS
 62
     7
100
AcDbLine
 10
-217.41346
 20
-169.3959999999998
 30
0.0
 11
-217.735
 21
-168.196
 31
0.0
  0
LINE
  5
386
330
1E
100
AcDbEntity
  8
1
  6
CONTINUOUS
 62
     7
100
AcDbLine
 10
-217.735
 20
-168.196
 30
0.0
 11
-218.05653
 21
-169.3959999999998
 31
0.0
  0
LINE
  5
387
330
1E
100
AcDbEntity
  8
1
  6
CONTINUOUS
 62
     7
100
AcDbLine
 10
-218.05653
 20
-174.0169999999999
 30
0.0
 11
-217.735
 21
-175.217
 31
0.0
  0
LINE
  5
388
330
1E
100
AcDbEntity
  8
1
  6
CONTINUOUS
 62
     7
100
AcDbLine
 10
-217.735
 20
-175.217
 30
0.0
 11
-217.41346
 21
-174.0169999999999
 31
0.0
  0
ARC
  5
389
330
1E
100
AcDbEntity
  8
1
  6
CONTINUOUS
 62
     7
100
AcDbCircle
 10
-209.15998
 20
-175.21708
 30
0.0
 40
8.57526
100
AcDbArc
 50
191.5780499999999
 51
238.71324
  0
ARC
  5
38A
330
1E
100
AcDbEntity
  8
1
  6
CONTINUOUS
 62
     7
100
AcDbCircle
 10
-209.15998
 20
-175.21708
 30
0.0
 40
8.57526
100
AcDbArc
 50
238.71324
 51
246.3633899999999
  0
ARC
  5
38B
330
1E
100
AcDbEntity
  8
1
  6
CONTINUOUS
 62
     7
100
AcDbCircle
 10
-209.15998
 20
-175.21708
 30
0.0
 40
8.57526
100
AcDbArc
 50
246.3633899999999
 51
247.8281799999999
  0
ARC
  5
38C
330
1E
100
AcDbEntity
  8
1
  6
CONTINUOUS
 62
     7
100
AcDbCircle
 10
-209.15998
 20
-175.21708
 30
0.0
 40
8.57526
100
AcDbArc
 50
247.8281799999999
 51
258.01527
  0
LINE
  5
38D
330
1E
100
AcDbEntity
  8
1
  6
CONTINUOUS
 62
     7
100
AcDbLine
 10
-217.57664
 20
-176.85868
 30
0.0
 11
-217.73524
 21
-175.21708
 31
0.0
  0
LINE
  5
38E
330
1E
100
AcDbEntity
  8
1
  6
CONTINUOUS
 62
     7
100
AcDbLine
 10
-217.29955
 20
-176.38051
 30
0.0
 11
-217.735
 21
-175.217
 31
0.0
  0
LINE
  5
38F
330
1E
100
AcDbEntity
  8
1
  6
CONTINUOUS
 62
     7
100
AcDbLine
 10
-217.735
 20
-175.217
 30
0.0
 11
-217.93965
 21
-176.44235
 31
0.0
  0
LINE
  5
390
330
1E
100
AcDbEntity
  8
1
  6
CONTINUOUS
 62
     7
100
AcDbLine
 10
-210.8723799999999
 20
-183.61962
 30
0.0
 11
-209.15998
 21
-183.79234
 31
0.0
  0
LINE
  5
391
330
1E
100
AcDbEntity
  8
1
  6
CONTINUOUS
 62
     7
100
AcDbLine
 10
-210.38521
 20
-183.99148
 30
0.0
 11
-209.159
 21
-183.792
 31
0.0
  0
LINE
  5
392
330
1E
100
AcDbEntity
  8
1
  6
CONTINUOUS
 62
     7
100
AcDbLine
 10
-209.159
 20
-183.792
 30
0.0
 11
-210.32067
 21
-183.3516499999999
 31
0.0
  0
ARC
  5
393
330
1E
100
AcDbEntity
  8
1
  6
CONTINUOUS
 62
     7
100
AcDbCircle
 10
-209.15998
 20
-175.21708
 30
0.0
 40
8.57526
100
AcDbArc
 50
258.01527
 51
258.41701
  0
LINE
  5
394
330
1E
100
AcDbEntity
  8
1
  6
CONTINUOUS
 62
     7
100
AcDbLine
 10
-217.73524
 20
-175.21708
 30
0.0
 11
-217.73524
 21
-170.8617199999999
 31
0.0
  0
ARC
  5
395
330
1E
100
AcDbEntity
  8
1
  6
CONTINUOUS
 62
     7
100
AcDbCircle
 10
-209.15998
 20
-175.21708
 30
0.0
 40
8.57526
100
AcDbArc
 50
191.0231699999999
 51
191.5780499999999
  0
LINE
  5
396
330
1E
100
AcDbEntity
  8
1
  6
CONTINUOUS
 62
     7
100
AcDbLine
 10
-211.71756
 20
-175.21708
 30
0.0
 11
-209.15998
 21
-175.21708
 31
0.0
  0
TEXT
  5
397
330
1E
100
AcDbEntity
  8
1
  6
CONTINUOUS
 62
     7
100
AcDbText
 10
-216.6377799999999
 20
-178.82286
 30
0.0
 40
3.2
  1
Ｌ
 50
315.0
  7
BIGFONT
100
AcDbText
  0
TEXT
  5
398
330
1E
100
AcDbEntity
  8
1
  6
CONTINUOUS
 62
     7
100
AcDbText
 10
-214.43626
 20
-180.7875399999999
 30
0.0
 40
2.2
  1
２
 50
315.0
 41
1.1363636
  7
BIGFONT
100
AcDbText
  0
TEXT
  5
399
330
1E
100
AcDbEntity
  8
1
  6
CONTINUOUS
 62
     7
100
AcDbText
 10
-218.18162
 20
-174.4092
 30
0.0
 40
3.2
  1
Ｌ
 50
90.0
  7
BIGFONT
100
AcDbText
  0
TEXT
  5
39A
330
1E
100
AcDbEntity
  8
1
  6
CONTINUOUS
 62
     7
100
AcDbText
 10
-218.3503399999999
 20
-171.47836
 30
0.0
 40
2.2
  1
３
 50
90.0
 41
1.1363636
  7
BIGFONT
100
AcDbText
  0
LINE
  5
39B
330
1E
100
AcDbEntity
  8
1
  6
CONTINUOUS
 62
     7
100
AcDbLine
 10
-209.15998
 20
-177.5437399999999
 30
0.0
 11
-209.15998
 21
-175.21708
 31
0.0
  0
TEXT
  5
39C
330
1E
100
AcDbEntity
  8
1
  6
CONTINUOUS
 62
     7
100
AcDbText
 10
-118.6834
 20
-154.5777399999998
 30
0.0
 40
3.2
  1
Ｌ
 50
315.0
  7
BIGFONT
100
AcDbText
  0
TEXT
  5
39D
330
1E
100
AcDbEntity
  8
1
  6
CONTINUOUS
 62
     7
100
AcDbText
 10
-116.49168
 20
-156.53086
 30
0.0
 40
2.2
  1
３
 50
315.0
 41
1.1363636
  7
BIGFONT
100
AcDbText
  0
LINE
  5
39E
330
1E
100
AcDbEntity
  8
1
  6
CONTINUOUS
 62
     1
100
AcDbLine
 10
-65.4144
 20
-175.81708
 30
0.0
 11
-38.0144
 21
-175.81708
 31
0.0
  0
LINE
  5
39F
330
1E
100
AcDbEntity
  8
1
  6
CONTINUOUS
 62
     1
100
AcDbLine
 10
-66.0144
 20
-175.21708
 30
0.0
 11
-66.0144
 21
-150.81708
 31
0.0
  0
ARC
  5
3A0
330
1E
100
AcDbEntity
  8
1
  6
CONTINUOUS
 62
     1
100
AcDbCircle
 10
-65.4144
 20
-175.21708
 30
0.0
 40
0.6
100
AcDbArc
 50
180.0
 51
270.0
  0
LINE
  5
3A1
330
1E
100
AcDbEntity
  8
1
  6
CONTINUOUS
 62
     7
100
AcDbLine
 10
-65.51605999999999
 20
-183.78666
 30
0.0
 11
-38.0144
 21
-183.78666
 31
0.0
  0
LINE
  5
3A2
330
1E
100
AcDbEntity
  8
1
  6
CONTINUOUS
 62
     7
100
AcDbLine
 10
-38.0144
 20
-176.81708
 30
0.0
 11
-38.0144
 21
-184.58666
 31
0.0
  0
LINE
  5
3A3
330
1E
100
AcDbEntity
  8
1
  6
CONTINUOUS
 62
     7
100
AcDbLine
 10
-65.51605999999999
 20
-176.1993799999999
 30
0.0
 11
-65.51605999999999
 21
-184.58666
 31
0.0
  0
LINE
  5
3A4
330
1E
100
AcDbEntity
  8
1
  6
CONTINUOUS
 62
     7
100
AcDbLine
 10
-39.214
 20
-184.1075299999999
 30
0.0
 11
-38.014
 21
-183.7859999999999
 31
0.0
  0
LINE
  5
3A5
330
1E
100
AcDbEntity
  8
1
  6
CONTINUOUS
 62
     7
100
AcDbLine
 10
-38.014
 20
-183.7859999999999
 30
0.0
 11
-39.214
 21
-183.46446
 31
0.0
  0
LINE
  5
3A6
330
1E
100
AcDbEntity
  8
1
  6
CONTINUOUS
 62
     7
100
AcDbLine
 10
-64.316
 20
-183.46446
 30
0.0
 11
-65.516
 21
-183.7859999999999
 31
0.0
  0
LINE
  5
3A7
330
1E
100
AcDbEntity
  8
1
  6
CONTINUOUS
 62
     7
100
AcDbLine
 10
-65.516
 20
-183.7859999999999
 30
0.0
 11
-64.316
 21
-184.1075299999999
 31
0.0
  0
LINE
  5
3A8
330
1E
100
AcDbEntity
  8
1
  6
CONTINUOUS
 62
     7
100
AcDbLine
 10
-74.09131999999998
 20
-175.21708
 30
0.0
 11
-74.09131999999998
 21
-150.81708
 31
0.0
  0
LINE
  5
3A9
330
1E
100
AcDbEntity
  8
1
  6
CONTINUOUS
 62
     7
100
AcDbLine
 10
-67.09132
 20
-150.81708
 30
0.0
 11
-74.89131999999997
 21
-150.81708
 31
0.0
  0
LINE
  5
3AA
330
1E
100
AcDbEntity
  8
1
  6
CONTINUOUS
 62
     7
100
AcDbLine
 10
-67.09132
 20
-175.21708
 30
0.0
 11
-74.89131999999997
 21
-175.21708
 31
0.0
  0
LINE
  5
3AB
330
1E
100
AcDbEntity
  8
1
  6
CONTINUOUS
 62
     7
100
AcDbLine
 10
-73.76946
 20
-152.017
 30
0.0
 11
-74.09099999999998
 21
-150.8169999999998
 31
0.0
  0
LINE
  5
3AC
330
1E
100
AcDbEntity
  8
1
  6
CONTINUOUS
 62
     7
100
AcDbLine
 10
-74.09099999999998
 20
-150.8169999999998
 30
0.0
 11
-74.41253
 21
-152.017
 31
0.0
  0
LINE
  5
3AD
330
1E
100
AcDbEntity
  8
1
  6
CONTINUOUS
 62
     7
100
AcDbLine
 10
-74.41253
 20
-174.0169999999999
 30
0.0
 11
-74.09099999999998
 21
-175.217
 31
0.0
  0
LINE
  5
3AE
330
1E
100
AcDbEntity
  8
1
  6
CONTINUOUS
 62
     7
100
AcDbLine
 10
-74.09099999999998
 20
-175.217
 30
0.0
 11
-73.76946
 21
-174.0169999999999
 31
0.0
  0
ARC
  5
3AF
330
1E
100
AcDbEntity
  8
1
  6
CONTINUOUS
 62
     7
100
AcDbCircle
 10
-65.51605999999999
 20
-175.21708
 30
0.0
 40
8.57526
100
AcDbArc
 50
191.5780499999999
 51
238.71324
  0
ARC
  5
3B0
330
1E
100
AcDbEntity
  8
1
  6
CONTINUOUS
 62
     7
100
AcDbCircle
 10
-65.51605999999999
 20
-175.21708
 30
0.0
 40
8.57526
100
AcDbArc
 50
238.71324
 51
246.3633899999999
  0
LINE
  5
3B1
330
1E
100
AcDbEntity
  8
1
  6
CONTINUOUS
 62
     7
100
AcDbLine
 10
-65.51605999999999
 20
-182.9698
 30
0.0
 11
-65.51605999999999
 21
-181.1865799999999
 31
0.0
  0
ARC
  5
3B2
330
1E
100
AcDbEntity
  8
1
  6
CONTINUOUS
 62
     7
100
AcDbCircle
 10
-65.51605999999999
 20
-175.21708
 30
0.0
 40
8.57526
100
AcDbArc
 50
246.3633899999999
 51
247.8281799999999
  0
ARC
  5
3B3
330
1E
100
AcDbEntity
  8
1
  6
CONTINUOUS
 62
     7
100
AcDbCircle
 10
-65.51605999999999
 20
-175.21708
 30
0.0
 40
8.57526
100
AcDbArc
 50
247.8281799999999
 51
258.01527
  0
LINE
  5
3B4
330
1E
100
AcDbEntity
  8
1
  6
CONTINUOUS
 62
     7
100
AcDbLine
 10
-73.93271999999997
 20
-176.85868
 30
0.0
 11
-74.09131999999998
 21
-175.21708
 31
0.0
  0
LINE
  5
3B5
330
1E
100
AcDbEntity
  8
1
  6
CONTINUOUS
 62
     7
100
AcDbLine
 10
-73.65555
 20
-176.38051
 30
0.0
 11
-74.09099999999998
 21
-175.217
 31
0.0
  0
LINE
  5
3B6
330
1E
100
AcDbEntity
  8
1
  6
CONTINUOUS
 62
     7
100
AcDbLine
 10
-74.09099999999998
 20
-175.217
 30
0.0
 11
-74.29565
 21
-176.44235
 31
0.0
  0
LINE
  5
3B7
330
1E
100
AcDbEntity
  8
1
  6
CONTINUOUS
 62
     7
100
AcDbLine
 10
-67.22846
 20
-183.61962
 30
0.0
 11
-65.51605999999999
 21
-183.79234
 31
0.0
  0
LINE
  5
3B8
330
1E
100
AcDbEntity
  8
1
  6
CONTINUOUS
 62
     7
100
AcDbLine
 10
-66.74221
 20
-183.99148
 30
0.0
 11
-65.516
 21
-183.792
 31
0.0
  0
LINE
  5
3B9
330
1E
100
AcDbEntity
  8
1
  6
CONTINUOUS
 62
     7
100
AcDbLine
 10
-65.516
 20
-183.792
 30
0.0
 11
-66.67766999999999
 21
-183.3516499999999
 31
0.0
  0
ARC
  5
3BA
330
1E
100
AcDbEntity
  8
1
  6
CONTINUOUS
 62
     7
100
AcDbCircle
 10
-65.51605999999999
 20
-175.21708
 30
0.0
 40
8.57526
100
AcDbArc
 50
258.01527
 51
258.41701
  0
LINE
  5
3BB
330
1E
100
AcDbEntity
  8
1
  6
CONTINUOUS
 62
     7
100
AcDbLine
 10
-65.51605999999999
 20
-183.61488
 30
0.0
 11
-65.51605999999999
 21
-182.9698
 31
0.0
  0
LINE
  5
3BC
330
1E
100
AcDbEntity
  8
1
  6
CONTINUOUS
 62
     7
100
AcDbLine
 10
-74.09131999999998
 20
-175.21708
 30
0.0
 11
-74.09131999999998
 21
-170.8617199999999
 31
0.0
  0
ARC
  5
3BD
330
1E
100
AcDbEntity
  8
1
  6
CONTINUOUS
 62
     7
100
AcDbCircle
 10
-65.51605999999999
 20
-175.21708
 30
0.0
 40
8.57526
100
AcDbArc
 50
191.0231699999999
 51
191.5780499999999
  0
LINE
  5
3BE
330
1E
100
AcDbEntity
  8
1
  6
CONTINUOUS
 62
     7
100
AcDbLine
 10
-65.51605999999999
 20
-177.5332399999999
 30
0.0
 11
-65.51605999999999
 21
-175.21708
 31
0.0
  0
LINE
  5
3BF
330
1E
100
AcDbEntity
  8
1
  6
CONTINUOUS
 62
     7
100
AcDbLine
 10
-68.07363999999999
 20
-175.21708
 30
0.0
 11
-65.51605999999999
 21
-175.21708
 31
0.0
  0
TEXT
  5
3C0
330
1E
100
AcDbEntity
  8
1
  6
CONTINUOUS
 62
     7
100
AcDbText
 10
-65.1906
 20
-175.5952199999999
 30
0.0
 40
3.2
  1
Ｒ
 50
2.0
  7
BIGFONT
100
AcDbText
  0
TEXT
  5
3C1
330
1E
100
AcDbEntity
  8
1
  6
CONTINUOUS
 62
     7
100
AcDbText
 10
-72.99386
 20
-178.82286
 30
0.0
 40
3.2
  1
Ｌ
 50
315.0
  7
BIGFONT
100
AcDbText
  0
TEXT
  5
3C2
330
1E
100
AcDbEntity
  8
1
  6
CONTINUOUS
 62
     7
100
AcDbText
 10
-70.79233999999998
 20
-180.7875399999999
 30
0.0
 40
2.2
  1
２
 50
315.0
 41
1.1363636
  7
BIGFONT
100
AcDbText
  0
TEXT
  5
3C3
330
1E
100
AcDbEntity
  8
1
  6
CONTINUOUS
 62
     7
100
AcDbText
 10
-53.95246
 20
-183.1698199999999
 30
0.0
 40
3.2
  1
Ｌ
  7
BIGFONT
100
AcDbText
  0
TEXT
  5
3C4
330
1E
100
AcDbEntity
  8
1
  6
CONTINUOUS
 62
     7
100
AcDbText
 10
-50.9427
 20
-182.99374
 30
0.0
 40
2.2
  1
１
 41
1.1363636
  7
BIGFONT
100
AcDbText
  0
TEXT
  5
3C5
330
1E
100
AcDbEntity
  8
1
  6
CONTINUOUS
 62
     7
100
AcDbText
 10
-74.5377
 20
-166.1197
 30
0.0
 40
3.2
  1
Ｌ
 50
90.0
  7
BIGFONT
100
AcDbText
  0
TEXT
  5
3C6
330
1E
100
AcDbEntity
  8
1
  6
CONTINUOUS
 62
     7
100
AcDbText
 10
-74.70641999999998
 20
-163.18886
 30
0.0
 40
2.2
  1
３
 50
90.0
 41
1.1363636
  7
BIGFONT
100
AcDbText
  0
CIRCLE
  5
3C7
330
1E
100
AcDbEntity
  8
1
  6
CONTINUOUS
 62
     7
100
AcDbCircle
 10
-230.4012399999999
 20
-160.72498
 30
0.0
 40
2.497799999999998
  0
TEXT
  5
3C8
330
1E
100
AcDbEntity
  8
1
  6
CONTINUOUS
 62
     7
100
AcDbText
 10
-231.9344799999999
 20
-162.52436
 30
0.0
 40
3.2
  1
１
  7
BIGFONT
100
AcDbText
  0
LINE
  5
3C9
330
1E
100
AcDbEntity
  8
1
  6
CONTINUOUS
 62
     7
100
AcDbLine
 10
-235.2527999999999
 20
-163.2431399999999
 30
0.0
 11
-224.71572
 21
-163.2431399999999
 31
0.0
  0
LINE
  5
3CA
330
1E
100
AcDbEntity
  8
1
  6
CONTINUOUS
 62
     7
100
AcDbLine
 10
-57.66604
 20
-164.49606
 30
0.0
 11
-45.0921
 21
-164.49606
 31
0.0
  0
CIRCLE
  5
3CB
330
1E
100
AcDbEntity
  8
1
  6
CONTINUOUS
 62
     7
100
AcDbCircle
 10
-194.7168399999999
 20
-166.0760999999999
 30
0.0
 40
2.497799999999998
  0
CIRCLE
  5
3CC
330
1E
100
AcDbEntity
  8
1
  6
CONTINUOUS
 62
     7
100
AcDbCircle
 10
-143.0240799999999
 20
-163.5542
 30
0.0
 40
2.497799999999998
  0
CIRCLE
  5
3CD
330
1E
100
AcDbEntity
  8
1
  6
CONTINUOUS
 62
     7
100
AcDbCircle
 10
-102.0592799999999
 20
-140.77806
 30
0.0
 40
2.497799999999998
  0
CIRCLE
  5
3CE
330
1E
100
AcDbEntity
  8
1
  6
CONTINUOUS
 62
     7
100
AcDbCircle
 10
-53.88254
 20
-161.98854
 30
0.0
 40
2.497799999999998
  0
CIRCLE
  5
3CF
330
1E
100
AcDbEntity
  8
1
  6
CONTINUOUS
 62
     7
100
AcDbCircle
 10
-48.88784000000001
 20
-161.93866
 30
0.0
 40
2.497799999999998
  0
TEXT
  5
3D0
330
1E
100
AcDbEntity
  8
1
  6
CONTINUOUS
 62
     7
100
AcDbText
 10
-196.24874
 20
-167.8614199999999
 30
0.0
 40
3.2
  1
２
  7
BIGFONT
100
AcDbText
  0
TEXT
  5
3D1
330
1E
100
AcDbEntity
  8
1
  6
CONTINUOUS
 62
     7
100
AcDbText
 10
-144.5568399999999
 20
-165.36982
 30
0.0
 40
3.2
  1
３
  7
BIGFONT
100
AcDbText
  0
TEXT
  5
3D2
330
1E
100
AcDbEntity
  8
1
  6
CONTINUOUS
 62
     7
100
AcDbText
 10
-103.67114
 20
-142.58176
 30
0.0
 40
3.2
  1
４
  7
BIGFONT
100
AcDbText
  0
TEXT
  5
3D3
330
1E
100
AcDbEntity
  8
1
  6
CONTINUOUS
 62
     7
100
AcDbText
 10
-55.38458000000001
 20
-163.81988
 30
0.0
 40
3.2
  1
５
  7
BIGFONT
100
AcDbText
  0
TEXT
  5
3D4
330
1E
100
AcDbEntity
  8
1
  6
CONTINUOUS
 62
     7
100
AcDbText
 10
-50.48784000000001
 20
-163.76542
 30
0.0
 40
3.2
  1
６
  7
BIGFONT
100
AcDbText
  0
LINE
  5
3D5
330
1E
100
AcDbEntity
  8
1
  6
CONTINUOUS
 62
     7
100
AcDbLine
 10
-107.2421199999999
 20
-143.27586
 30
0.0
 11
-97.10226
 21
-143.27586
 31
0.0
  0
LINE
  5
3D6
330
1E
100
AcDbEntity
  8
1
  6
CONTINUOUS
 62
     7
100
AcDbLine
 10
-199.65618
 20
-168.57336
 30
0.0
 11
-189.1191
 21
-168.57336
 31
0.0
  0
LINE
  5
3D7
330
1E
100
AcDbEntity
  8
1
  6
CONTINUOUS
 62
     7
100
AcDbLine
 10
-147.9115
 20
-166.0519999999999
 30
0.0
 11
-137.3744199999999
 21
-166.0519999999999
 31
0.0
  0
TEXT
  5
3D8
330
1E
100
AcDbEntity
  8
1
  6
CONTINUOUS
 62
     7
100
AcDbText
 10
-248.63404
 20
-161.59298
 30
0.0
 40
3.2
  1
Ｌ
 50
90.0
  7
BIGFONT
100
AcDbText
  0
TEXT
  5
3D9
330
1E
100
AcDbEntity
  8
1
  6
CONTINUOUS
 62
     7
100
AcDbText
 10
-248.81012
 20
-158.5832199999998
 30
0.0
 40
2.2
  1
１
 50
90.0
 41
1.1363636
  7
BIGFONT
100
AcDbText
  0
LINE
  5
3DA
330
1E
100
AcDbEntity
  8
0
  6
CONTINUOUS
 62
     7
100
AcDbLine
 10
236.22
 20
-84.64964
 30
0.0
 11
236.22
 21
-30.64964
 31
0.0
  0
LINE
  5
3DB
330
1E
100
AcDbEntity
  8
0
  6
CONTINUOUS
 62
     7
100
AcDbLine
 10
229.0768799999999
 20
-105.5089199999996
 30
0.0
 11
243.0800399999998
 21
-91.51063999999999
 31
0.0
  0
LINE
  5
3DC
330
1E
100
AcDbEntity
  8
0
  6
CONTINUOUS
 62
     7
100
AcDbLine
 10
236.9276999999999
 20
-85.35614999999998
 30
0.0
 11
243.6456299999999
 21
-92.07641999999999
 31
0.0
  0
LINE
  5
3DD
330
1E
100
AcDbEntity
  8
0
  6
CONTINUOUS
 62
     7
100
AcDbLine
 10
222.9269799999999
 20
-99.35687000000001
 30
0.0
 11
229.6424599999999
 21
-106.0747
 31
0.0
  0
LINE
  5
3DE
330
1E
100
AcDbEntity
  8
0
  6
CONTINUOUS
 62
     7
100
AcDbLine
 10
242.4586399999999
 20
-92.58577999999999
 30
0.0
 11
243.08
 21
-91.51000000000001
 31
0.0
  0
LINE
  5
3DF
330
1E
100
AcDbEntity
  8
0
  6
CONTINUOUS
 62
     7
100
AcDbLine
 10
243.08
 20
-91.51000000000001
 30
0.0
 11
242.0039999999999
 21
-92.13097000000001
 31
0.0
  0
LINE
  5
3E0
330
1E
100
AcDbEntity
  8
0
  6
CONTINUOUS
 62
     7
100
AcDbLine
 10
229.69735
 20
-104.43221
 30
0.0
 11
229.076
 21
-105.508
 31
0.0
  0
LINE
  5
3E1
330
1E
100
AcDbEntity
  8
0
  6
CONTINUOUS
 62
     7
100
AcDbLine
 10
229.076
 20
-105.508
 30
0.0
 11
230.1519899999999
 21
-104.8870199999999
 31
0.0
  0
TEXT
  5
3E2
330
1E
100
AcDbEntity
  8
0
  6
CONTINUOUS
 62
     7
100
AcDbText
 10
233.03747
 20
-100.9841199999996
 30
0.0
 40
3.2
  1
495
 50
44.99
 41
0.8125
  7
BIGFONT
100
AcDbText
  0
LINE
  5
3E3
330
1E
100
AcDbEntity
  8
0
  6
CONTINUOUS
 62
     7
100
AcDbLine
 10
-228.77648
 20
-98.64964
 30
0.0
 11
-174.7764799999999
 21
-98.64964
 31
0.0
  0
LINE
  5
3E4
330
1E
100
AcDbEntity
  8
0
  6
CONTINUOUS
 62
     7
100
AcDbLine
 10
-160.7764799999999
 20
-84.64964
 30
0.0
 11
-160.7764799999999
 21
-30.64964
 31
0.0
  0
TEXT
  5
3E5
330
1E
100
AcDbEntity
  8
0
  6
CONTINUOUS
 62
     7
100
AcDbText
 10
45.00936
 20
76.32031999999998
 30
0.0
 40
3.2
  1
４
  7
BIGFONT
100
AcDbText
  0
TEXT
  5
3E6
330
1E
100
AcDbEntity
  8
0
  6
CONTINUOUS
 62
     7
100
AcDbText
 10
50.6686
 20
76.55656
 30
0.0
 40
3.2
  1
D13
  7
BIGFONT
100
AcDbText
  0
LINE
  5
3E7
330
1E
100
AcDbEntity
  8
0
  6
CONTINUOUS
 62
     7
100
AcDbLine
 10
43.70487999999999
 20
75.5742
 30
0.0
 11
59.70488
 21
75.5742
 31
0.0
  0
CIRCLE
  5
3E8
330
1E
100
AcDbEntity
  8
0
  6
CONTINUOUS
 62
     7
100
AcDbCircle
 10
46.66839999999999
 20
78.07216
 30
0.0
 40
2.5
  0
LINE
  5
3E9
330
1E
100
AcDbEntity
  8
0
  6
CONTINUOUS
 62
     7
100
AcDbLine
 10
64.69152
 20
65.59088
 30
0.0
 11
80.69152
 21
65.59088
 31
0.0
  0
TEXT
  5
3EA
330
1E
100
AcDbEntity
  8
0
  6
CONTINUOUS
 62
     7
100
AcDbText
 10
71.65524000000002
 20
66.57659999999999
 30
0.0
 40
3.2
  1
D13
  7
BIGFONT
100
AcDbText
  0
CIRCLE
  5
3EB
330
1E
100
AcDbEntity
  8
0
  6
CONTINUOUS
 62
     7
100
AcDbCircle
 10
67.65652
 20
68.09004
 30
0.0
 40
2.5
  0
TEXT
  5
3EC
330
1E
100
AcDbEntity
  8
0
  6
CONTINUOUS
 62
     7
100
AcDbText
 10
66.05115999999999
 20
66.33484
 30
0.0
 40
3.2
  1
２
  7
BIGFONT
100
AcDbText
  0
CIRCLE
  5
3ED
330
1E
100
AcDbEntity
  8
0
  6
CONTINUOUS
 62
     7
100
AcDbCircle
 10
17.38052
 20
76.92695999999997
 30
0.0
 40
2.5
  0
TEXT
  5
3EE
330
1E
100
AcDbEntity
  8
0
  6
CONTINUOUS
 62
     7
100
AcDbText
 10
19.12959999999999
 20
75.30871999999998
 30
0.0
 40
3.2
  1
３
 50
90.0
  7
BIGFONT
100
AcDbText
  0
TEXT
  5
3EF
330
1E
100
AcDbEntity
  8
0
  6
CONTINUOUS
 62
     7
100
AcDbText
 10
19.04035999999998
 20
80.56284000000003
 30
0.0
 40
3.2
  1
D10
 50
90.0
  7
BIGFONT
100
AcDbText
  0
LINE
  5
3F0
330
1E
100
AcDbEntity
  8
0
  6
CONTINUOUS
 62
     7
100
AcDbLine
 10
19.88087999999996
 20
73.62248000000002
 30
0.0
 11
19.88087999999996
 21
89.62248
 31
0.0
  0
TEXT
  5
3F1
330
1E
100
AcDbEntity
  8
0
  6
CONTINUOUS
 62
     7
100
AcDbText
 10
19.03223999999998
 20
104.4915599999999
 30
0.0
 40
3.2
  1
６
 50
90.0
  7
BIGFONT
100
AcDbText
  0
TEXT
  5
3F2
330
1E
100
AcDbEntity
  8
0
  6
CONTINUOUS
 62
     7
100
AcDbText
 10
47.96719999999999
 20
116.081
 30
0.0
 40
3.2
  1
D13
  7
BIGFONT
100
AcDbText
  0
LINE
  5
3F3
330
1E
100
AcDbEntity
  8
0
  6
CONTINUOUS
 62
     7
100
AcDbLine
 10
41.00347999999999
 20
115.0986399999996
 30
0.0
 11
57.00348
 21
115.0986399999996
 31
0.0
  0
CIRCLE
  5
3F4
330
1E
100
AcDbEntity
  8
0
  6
CONTINUOUS
 62
     7
100
AcDbCircle
 10
43.98007999999999
 20
117.59848
 30
0.0
 40
2.5
  0
TEXT
  5
3F5
330
1E
100
AcDbEntity
  8
0
  6
CONTINUOUS
 62
     7
100
AcDbText
 10
42.46228
 20
115.8515199999999
 30
0.0
 40
3.2
  1
５
  7
BIGFONT
100
AcDbText
  0
CIRCLE
  5
3F6
330
1E
100
AcDbEntity
  8
0
  6
CONTINUOUS
 62
     7
100
AcDbCircle
 10
51.23304
 20
46.51068
 30
0.0
 40
2.5
  0
TEXT
  5
3F7
330
1E
100
AcDbEntity
  8
0
  6
CONTINUOUS
 62
     7
100
AcDbText
 10
49.6148
 20
44.7616
 30
0.0
 40
3.2
  1
３
  7
BIGFONT
100
AcDbText
  0
TEXT
  5
3F8
330
1E
100
AcDbEntity
  8
0
  6
CONTINUOUS
 62
     7
100
AcDbText
 10
54.86892
 20
44.85084
 30
0.0
 40
3.2
  1
D10
  7
BIGFONT
100
AcDbText
  0
LINE
  5
3F9
330
1E
100
AcDbEntity
  8
0
  6
CONTINUOUS
 62
     7
100
AcDbLine
 10
47.92855999999999
 20
44.01031999999999
 30
0.0
 11
63.92856
 21
44.01031999999999
 31
0.0
  0
TEXT
  5
3FA
330
1E
100
AcDbEntity
  8
0
  6
CONTINUOUS
 62
     7
100
AcDbText
 10
-69.62448000000001
 20
140.22296
 30
0.0
 40
3.2
  1
D13
  7
BIGFONT
100
AcDbText
  0
LINE
  5
3FB
330
1E
100
AcDbEntity
  8
0
  6
CONTINUOUS
 62
     7
100
AcDbLine
 10
-76.61164000000002
 20
139.4281199999996
 30
0.0
 11
-60.61164
 21
139.4281199999996
 31
0.0
  0
CIRCLE
  5
3FC
330
1E
100
AcDbEntity
  8
0
  6
CONTINUOUS
 62
     7
100
AcDbCircle
 10
-73.63504
 20
141.92796
 30
0.0
 40
2.5
  0
TEXT
  5
3FD
330
1E
100
AcDbEntity
  8
0
  6
CONTINUOUS
 62
     7
100
AcDbText
 10
-75.23284
 20
140.221
 30
0.0
 40
3.2
  1
５
  7
BIGFONT
100
AcDbText
  0
TEXT
  5
3FE
330
1E
100
AcDbEntity
  8
0
  6
CONTINUOUS
 62
     7
100
AcDbText
 10
-196.67308
 20
108.15996
 30
0.0
 40
3.2
  1
６
  7
BIGFONT
100
AcDbText
  0
CIRCLE
  5
3FF
330
1E
100
AcDbEntity
  8
0
  6
CONTINUOUS
 62
     7
100
AcDbCircle
 10
-195.00144
 20
109.90624
 30
0.0
 40
2.5
  0
TEXT
  5
400
330
1E
100
AcDbEntity
  8
0
  6
CONTINUOUS
 62
     7
100
AcDbText
 10
-191.62948
 20
108.25084
 30
0.0
 40
3.2
  1
D10
  7
BIGFONT
100
AcDbText
  0
LINE
  5
401
330
1E
100
AcDbEntity
  8
0
  6
CONTINUOUS
 62
     7
100
AcDbLine
 10
-198.56984
 20
107.4103199999999
 30
0.0
 11
-182.56984
 21
107.4103199999999
 31
0.0
  0
TEXT
  5
402
330
1E
100
AcDbEntity
  8
0
  6
CONTINUOUS
 62
     7
100
AcDbText
 10
-152.1028
 20
48.85796
 30
0.0
 40
3.2
  1
４
 50
90.0
  7
BIGFONT
100
AcDbText
  0
TEXT
  5
403
330
1E
100
AcDbEntity
  8
0
  6
CONTINUOUS
 62
     7
100
AcDbText
 10
-152.3390399999998
 20
54.5172
 30
0.0
 40
3.2
  1
D13
 50
90.0
  7
BIGFONT
100
AcDbText
  0
LINE
  5
404
330
1E
100
AcDbEntity
  8
0
  6
CONTINUOUS
 62
     7
100
AcDbLine
 10
-151.35668
 20
47.87348
 30
0.0
 11
-151.35668
 21
63.87348000000001
 31
0.0
  0
CIRCLE
  5
405
330
1E
100
AcDbEntity
  8
0
  6
CONTINUOUS
 62
     7
100
AcDbCircle
 10
-153.8546399999999
 20
50.517
 30
0.0
 40
2.5
  0
CIRCLE
  5
406
330
1E
100
AcDbEntity
  8
0
  6
CONTINUOUS
 62
     7
100
AcDbCircle
 10
-153.8570399999999
 20
90.9726
 30
0.0
 40
2.5
  0
TEXT
  5
407
330
1E
100
AcDbEntity
  8
0
  6
CONTINUOUS
 62
     7
100
AcDbText
 10
-152.10796
 20
89.35436000000001
 30
0.0
 40
3.2
  1
３
 50
90.0
  7
BIGFONT
100
AcDbText
  0
TEXT
  5
408
330
1E
100
AcDbEntity
  8
0
  6
CONTINUOUS
 62
     7
100
AcDbText
 10
-152.1972
 20
94.60848
 30
0.0
 40
3.2
  1
D10
 50
90.0
  7
BIGFONT
100
AcDbText
  0
LINE
  5
409
330
1E
100
AcDbEntity
  8
0
  6
CONTINUOUS
 62
     7
100
AcDbLine
 10
-151.35668
 20
87.38812000000001
 30
0.0
 11
-151.35668
 21
103.3881199999999
 31
0.0
  0
TEXT
  5
40A
330
1E
100
AcDbEntity
  8
0
  6
CONTINUOUS
 62
     7
100
AcDbText
 10
-152.10368
 20
-41.73115999999999
 30
0.0
 40
3.2
  1
４
 50
90.0
  7
BIGFONT
100
AcDbText
  0
TEXT
  5
40B
330
1E
100
AcDbEntity
  8
0
  6
CONTINUOUS
 62
     7
100
AcDbText
 10
-152.33992
 20
-35.2626
 30
0.0
 40
3.2
  1
D13
 50
90.0
  7
BIGFONT
100
AcDbText
  0
LINE
  5
40C
330
1E
100
AcDbEntity
  8
0
  6
CONTINUOUS
 62
     7
100
AcDbLine
 10
-151.35756
 20
-43.51564
 30
0.0
 11
-151.35756
 21
-27.51564
 31
0.0
  0
CIRCLE
  5
40D
330
1E
100
AcDbEntity
  8
0
  6
CONTINUOUS
 62
     7
100
AcDbCircle
 10
-153.8555199999999
 20
-40.07211999999999
 30
0.0
 40
2.5
  0
CIRCLE
  5
40E
330
1E
100
AcDbEntity
  8
0
  6
CONTINUOUS
 62
     7
100
AcDbCircle
 10
-153.8570399999999
 20
-73.79631999999998
 30
0.0
 40
2.5
  0
TEXT
  5
40F
330
1E
100
AcDbEntity
  8
0
  6
CONTINUOUS
 62
     7
100
AcDbText
 10
-152.10796
 20
-75.41456
 30
0.0
 40
3.2
  1
３
 50
90.0
  7
BIGFONT
100
AcDbText
  0
TEXT
  5
410
330
1E
100
AcDbEntity
  8
0
  6
CONTINUOUS
 62
     7
100
AcDbText
 10
-152.1972
 20
-70.16044
 30
0.0
 40
3.2
  1
D10
 50
90.0
  7
BIGFONT
100
AcDbText
  0
LINE
  5
411
330
1E
100
AcDbEntity
  8
0
  6
CONTINUOUS
 62
     7
100
AcDbLine
 10
-151.35668
 20
-76.58079999999998
 30
0.0
 11
-151.35668
 21
-60.5808
 31
0.0
  0
CIRCLE
  5
412
330
1E
100
AcDbEntity
  8
0
  6
CONTINUOUS
 62
     7
100
AcDbCircle
 10
-194.78536
 20
-105.54928
 30
0.0
 40
2.5
  0
TEXT
  5
413
330
1E
100
AcDbEntity
  8
0
  6
CONTINUOUS
 62
     7
100
AcDbText
 10
-196.4036
 20
-107.29836
 30
0.0
 40
3.2
  1
３
  7
BIGFONT
100
AcDbText
  0
TEXT
  5
414
330
1E
100
AcDbEntity
  8
0
  6
CONTINUOUS
 62
     7
100
AcDbText
 10
-191.14948
 20
-107.20912
 30
0.0
 40
3.2
  1
D10
  7
BIGFONT
100
AcDbText
  0
LINE
  5
415
330
1E
100
AcDbEntity
  8
0
  6
CONTINUOUS
 62
     7
100
AcDbLine
 10
-198.56984
 20
-108.0496399999999
 30
0.0
 11
-182.56984
 21
-108.0496399999999
 31
0.0
  0
TEXT
  5
416
330
1E
100
AcDbEntity
  8
0
  6
CONTINUOUS
 62
     7
100
AcDbText
 10
-230.57132
 20
-107.3035199999999
 30
0.0
 40
3.2
  1
４
  7
BIGFONT
100
AcDbText
  0
TEXT
  5
417
330
1E
100
AcDbEntity
  8
0
  6
CONTINUOUS
 62
     7
100
AcDbText
 10
-224.9120799999999
 20
-107.06728
 30
0.0
 40
3.2
  1
D13
  7
BIGFONT
100
AcDbText
  0
LINE
  5
418
330
1E
100
AcDbEntity
  8
0
  6
CONTINUOUS
 62
     7
100
AcDbLine
 10
-231.4157999999999
 20
-108.0496399999999
 30
0.0
 11
-215.4157999999999
 21
-108.0496399999999
 31
0.0
  0
CIRCLE
  5
419
330
1E
100
AcDbEntity
  8
0
  6
CONTINUOUS
 62
     7
100
AcDbCircle
 10
-228.9122799999999
 20
-105.55168
 30
0.0
 40
2.5
  0
LINE
  5
41A
330
1E
100
AcDbEntity
  8
0
  6
CONTINUOUS
 62
     7
100
AcDbLine
 10
-38.61164
 20
-84.64964
 30
0.0
 11
-38.61092
 21
-84.64891999999997
 31
0.0
  0
LINE
  5
41B
330
1E
100
AcDbEntity
  8
0
  6
CONTINUOUS
 62
     7
100
AcDbLine
 10
-106.6116399999999
 20
-98.64964
 30
0.0
 11
-52.61164
 21
-98.64964
 31
0.0
  0
LINE
  5
41C
330
1E
100
AcDbEntity
  8
0
  6
CONTINUOUS
 62
     7
100
AcDbLine
 10
-38.61164
 20
-84.64964
 30
0.0
 11
-38.61164
 21
-30.64964
 31
0.0
  0
LINE
  5
41D
330
1E
100
AcDbEntity
  8
0
  6
CONTINUOUS
 62
     1
100
AcDbLine
 10
-104.41164
 20
-96.64964000000001
 30
0.0
 11
-53.44004
 21
-96.64964000000001
 31
0.0
  0
LINE
  5
41E
330
1E
100
AcDbEntity
  8
0
  6
CONTINUOUS
 62
     1
100
AcDbLine
 10
-40.61164
 20
-83.82124000000002
 30
0.0
 11
-40.61164
 21
-32.84964
 31
0.0
  0
LINE
  5
41F
330
1E
100
AcDbEntity
  8
0
  6
CONTINUOUS
 62
     1
100
AcDbLine
 10
-53.44004
 20
-96.64964000000001
 30
0.0
 11
-40.61164
 21
-83.82124000000002
 31
0.0
  0
LINE
  5
420
330
1E
100
AcDbEntity
  8
0
  6
CONTINUOUS
 62
     7
100
AcDbLine
 10
-37.95476
 20
-99.54916
 30
0.0
 11
-47.14716
 21
-90.35676
 31
0.0
  0
LINE
  5
421
330
1E
100
AcDbEntity
  8
0
  6
CONTINUOUS
 62
     7
100
AcDbLine
 10
-46.0711
 20
-90.97716
 30
0.0
 11
-47.14699999999999
 21
-90.356
 31
0.0
  0
LINE
  5
422
330
1E
100
AcDbEntity
  8
0
  6
CONTINUOUS
 62
     7
100
AcDbLine
 10
-47.14699999999999
 20
-90.356
 30
0.0
 11
-46.52582999999999
 21
-91.43188999999999
 31
0.0
  0
TEXT
  5
423
330
1E
100
AcDbEntity
  8
0
  6
CONTINUOUS
 62
     7
100
AcDbText
 10
-37.12028
 20
-97.84652000000001
 30
0.0
 40
3.2
  1
７
 50
45.0
  7
BIGFONT
100
AcDbText
  0
TEXT
  5
424
330
1E
100
AcDbEntity
  8
0
  6
CONTINUOUS
 62
     7
100
AcDbText
 10
-115.7448
 20
-66.75288
 30
0.0
 40
3.2
  1
６
 50
90.0
  7
BIGFONT
100
AcDbText
  0
CIRCLE
  5
425
330
1E
100
AcDbEntity
  8
0
  6
CONTINUOUS
 62
     7
100
AcDbCircle
 10
-117.49108
 20
-65.08124000000001
 30
0.0
 40
2.5
  0
TEXT
  5
426
330
1E
100
AcDbEntity
  8
0
  6
CONTINUOUS
 62
     7
100
AcDbText
 10
-115.83568
 20
-61.70928
 30
0.0
 40
3.2
  1
D10
 50
90.0
  7
BIGFONT
100
AcDbText
  0
LINE
  5
427
330
1E
100
AcDbEntity
  8
0
  6
CONTINUOUS
 62
     7
100
AcDbLine
 10
-114.99516
 20
-68.64964
 30
0.0
 11
-114.99516
 21
-52.64964
 31
0.0
  0
CIRCLE
  5
428
330
1E
100
AcDbEntity
  8
0
  6
CONTINUOUS
 62
     7
100
AcDbCircle
 10
-37.1008
 20
-95.20996
 30
0.0
 40
2.5
  0
LINE
  5
429
330
1E
100
AcDbEntity
  8
0
  6
CONTINUOUS
 62
     7
100
AcDbLine
 10
-37.92964
 20
-99.57432
 30
0.0
 11
-26.61595999999999
 21
-88.2606
 31
0.0
  0
TEXT
  5
42A
330
1E
100
AcDbEntity
  8
0
  6
CONTINUOUS
 62
     7
100
AcDbText
 10
-33.45347999999999
 20
-93.73507999999999
 30
0.0
 40
3.2
  1
D10
 50
45.0
  7
BIGFONT
100
AcDbText
  0
LINE
  5
42B
330
1E
100
AcDbEntity
  8
0
  6
CONTINUOUS
 62
     1
100
AcDbLine
 10
-96.61163999999999
 20
53.81032
 30
0.0
 11
-96.61163999999999
 21
130.01032
 31
0.0
  0
LINE
  5
42C
330
1E
100
AcDbEntity
  8
0
  6
CONTINUOUS
 62
     1
100
AcDbLine
 10
-88.61164
 20
53.81032
 30
0.0
 11
-88.61164
 21
130.01032
 31
0.0
  0
LINE
  5
42D
330
1E
100
AcDbEntity
  8
0
  6
CONTINUOUS
 62
     1
100
AcDbLine
 10
-72.61164
 20
53.81032
 30
0.0
 11
-72.61164
 21
130.01032
 31
0.0
  0
LINE
  5
42E
330
1E
100
AcDbEntity
  8
0
  6
CONTINUOUS
 62
     1
100
AcDbLine
 10
-64.61164000000001
 20
53.81032
 30
0.0
 11
-64.61164000000001
 21
130.01032
 31
0.0
  0
LINE
  5
42F
330
1E
100
AcDbEntity
  8
0
  6
CONTINUOUS
 62
     1
100
AcDbLine
 10
-56.61164
 20
53.81032
 30
0.0
 11
-56.61164
 21
130.01032
 31
0.0
  0
LINE
  5
430
330
1E
100
AcDbEntity
  8
0
  6
CONTINUOUS
 62
     1
100
AcDbLine
 10
-48.61164
 20
53.81032
 30
0.0
 11
-48.61164
 21
130.01032
 31
0.0
  0
TEXT
  5
431
330
1E
100
AcDbEntity
  8
0
  6
CONTINUOUS
 62
     7
100
AcDbText
 10
-90.00315999999996
 20
38.41388
 30
0.0
 40
3.2
  1
7×200=1400
  7
BIGFONT
100
AcDbText
  0
LINE
  5
432
330
1E
100
AcDbEntity
  8
0
  6
CONTINUOUS
 62
     7
100
AcDbLine
 10
-56.61164
 20
91.69124
 30
0.0
 11
-64.61164000000001
 21
91.69124
 31
0.0
  0
LINE
  5
433
330
1E
100
AcDbEntity
  8
0
  6
CONTINUOUS
 62
     7
100
AcDbLine
 10
-63.411
 20
92.01252999999999
 30
0.0
 11
-64.611
 21
91.691
 31
0.0
  0
LINE
  5
434
330
1E
100
AcDbEntity
  8
0
  6
CONTINUOUS
 62
     7
100
AcDbLine
 10
-64.611
 20
91.691
 30
0.0
 11
-63.411
 21
91.36946
 31
0.0
  0
LINE
  5
435
330
1E
100
AcDbEntity
  8
0
  6
CONTINUOUS
 62
     7
100
AcDbLine
 10
-76.61164000000002
 20
75.65031999999998
 30
0.0
 11
-76.61164000000002
 21
65.65031999999999
 31
0.0
  0
LINE
  5
436
330
1E
100
AcDbEntity
  8
0
  6
CONTINUOUS
 62
     7
100
AcDbLine
 10
-76.93253
 20
66.84999999999999
 30
0.0
 11
-76.61100000000002
 21
65.65000000000001
 31
0.0
  0
LINE
  5
437
330
1E
100
AcDbEntity
  8
0
  6
CONTINUOUS
 62
     7
100
AcDbLine
 10
-76.61100000000002
 20
65.65000000000001
 30
0.0
 11
-76.28945999999998
 21
66.84999999999999
 31
0.0
  0
LINE
  5
438
330
1E
100
AcDbEntity
  8
0
  6
CONTINUOUS
 62
     1
100
AcDbLine
 10
-218.77968
 20
53.81032
 30
0.0
 11
-218.77968
 21
100.0103199999999
 31
0.0
  0
LINE
  5
439
330
1E
100
AcDbEntity
  8
0
  6
DASHED
 62
     1
100
AcDbLine
 10
-218.3796799999999
 20
53.81032
 30
0.0
 11
-218.3796799999999
 21
67.58088
 31
0.0
  0
LINE
  5
43A
330
1E
100
AcDbEntity
  8
0
  6
CONTINUOUS
 62
     1
100
AcDbLine
 10
-210.77968
 20
53.81032
 30
0.0
 11
-210.77968
 21
100.0103199999999
 31
0.0
  0
LINE
  5
43B
330
1E
100
AcDbEntity
  8
0
  6
DASHED
 62
     1
100
AcDbLine
 10
-210.37968
 20
53.81032
 30
0.0
 11
-210.37968
 21
67.58088
 31
0.0
  0
LINE
  5
43C
330
1E
100
AcDbEntity
  8
0
  6
CONTINUOUS
 62
     1
100
AcDbLine
 10
-202.7796799999999
 20
53.81032
 30
0.0
 11
-202.7796799999999
 21
100.0103199999999
 31
0.0
  0
LINE
  5
43D
330
1E
100
AcDbEntity
  8
0
  6
DASHED
 62
     1
100
AcDbLine
 10
-202.3796799999999
 20
53.81032
 30
0.0
 11
-202.3796799999999
 21
67.58088
 31
0.0
  0
LINE
  5
43E
330
1E
100
AcDbEntity
  8
0
  6
CONTINUOUS
 62
     1
100
AcDbLine
 10
-194.77968
 20
53.81032
 30
0.0
 11
-194.77968
 21
100.0103199999999
 31
0.0
  0
LINE
  5
43F
330
1E
100
AcDbEntity
  8
0
  6
DASHED
 62
     1
100
AcDbLine
 10
-194.37968
 20
53.81032
 30
0.0
 11
-194.37968
 21
67.58088
 31
0.0
  0
LINE
  5
440
330
1E
100
AcDbEntity
  8
0
  6
CONTINUOUS
 62
     1
100
AcDbLine
 10
-186.77968
 20
53.81032
 30
0.0
 11
-186.77968
 21
100.0103199999999
 31
0.0
  0
LINE
  5
441
330
1E
100
AcDbEntity
  8
0
  6
DASHED
 62
     1
100
AcDbLine
 10
-186.37968
 20
53.81032
 30
0.0
 11
-186.37968
 21
67.58088
 31
0.0
  0
LINE
  5
442
330
1E
100
AcDbEntity
  8
0
  6
CONTINUOUS
 62
     1
100
AcDbLine
 10
-178.77968
 20
53.81032
 30
0.0
 11
-178.77968
 21
100.0103199999999
 31
0.0
  0
LINE
  5
443
330
1E
100
AcDbEntity
  8
0
  6
CONTINUOUS
 62
     1
100
AcDbLine
 10
-170.77968
 20
53.81032
 30
0.0
 11
-170.77968
 21
100.0103199999999
 31
0.0
  0
LINE
  5
444
330
1E
100
AcDbEntity
  8
0
  6
CONTINUOUS
 62
     7
100
AcDbLine
 10
-198.56984
 20
92.61032
 30
0.0
 11
-198.56984
 21
80.61032
 31
0.0
  0
LINE
  5
445
330
1E
100
AcDbEntity
  8
0
  6
CONTINUOUS
 62
     7
100
AcDbLine
 10
-198.89053
 20
81.81
 30
0.0
 11
-198.5689999999999
 21
80.60999999999998
 31
0.0
  0
LINE
  5
446
330
1E
100
AcDbEntity
  8
0
  6
CONTINUOUS
 62
     7
100
AcDbLine
 10
-198.5689999999999
 20
80.60999999999998
 30
0.0
 11
-198.24746
 21
81.81
 31
0.0
  0
LINE
  5
447
330
1E
100
AcDbEntity
  8
0
  6
CONTINUOUS
 62
     7
100
AcDbLine
 10
-198.56984
 20
107.4103199999999
 30
0.0
 11
-198.56984
 21
92.60224
 31
0.0
  0
LINE
  5
448
330
1E
100
AcDbEntity
  8
0
  6
CONTINUOUS
 62
     7
100
AcDbLine
 10
-198.89053
 20
93.802
 30
0.0
 11
-198.5689999999999
 21
92.60200000000001
 31
0.0
  0
LINE
  5
449
330
1E
100
AcDbEntity
  8
0
  6
CONTINUOUS
 62
     7
100
AcDbLine
 10
-198.5689999999999
 20
92.60200000000001
 30
0.0
 11
-198.24746
 21
93.802
 31
0.0
  0
LINE
  5
44A
330
1E
100
AcDbEntity
  8
0
  6
CONTINUOUS
 62
     7
100
AcDbLine
 10
-202.7796799999999
 20
87.38812000000001
 30
0.0
 11
-210.77968
 21
87.38812000000001
 31
0.0
  0
LINE
  5
44B
330
1E
100
AcDbEntity
  8
0
  6
CONTINUOUS
 62
     7
100
AcDbLine
 10
-209.579
 20
87.70953
 30
0.0
 11
-210.779
 21
87.38800000000003
 31
0.0
  0
LINE
  5
44C
330
1E
100
AcDbEntity
  8
0
  6
CONTINUOUS
 62
     7
100
AcDbLine
 10
-210.779
 20
87.38800000000003
 30
0.0
 11
-209.579
 21
87.06645999999997
 31
0.0
  0
LINE
  5
44D
330
1E
100
AcDbEntity
  8
0
  6
CONTINUOUS
 62
     7
100
AcDbLine
 10
-210.77968
 20
87.38812000000001
 30
0.0
 11
-218.77968
 21
87.38812000000001
 31
0.0
  0
LINE
  5
44E
330
1E
100
AcDbEntity
  8
0
  6
CONTINUOUS
 62
     7
100
AcDbLine
 10
-217.579
 20
87.70953
 30
0.0
 11
-218.779
 21
87.38800000000003
 31
0.0
  0
LINE
  5
44F
330
1E
100
AcDbEntity
  8
0
  6
CONTINUOUS
 62
     7
100
AcDbLine
 10
-218.779
 20
87.38800000000003
 30
0.0
 11
-217.579
 21
87.06645999999997
 31
0.0
  0
LINE
  5
450
330
1E
100
AcDbEntity
  8
0
  6
CONTINUOUS
 62
     7
100
AcDbLine
 10
-218.77968
 20
87.38812000000001
 30
0.0
 11
-226.7796799999999
 21
87.38812000000001
 31
0.0
  0
LINE
  5
451
330
1E
100
AcDbEntity
  8
0
  6
CONTINUOUS
 62
     7
100
AcDbLine
 10
-225.579
 20
87.70953
 30
0.0
 11
-226.779
 21
87.38800000000003
 31
0.0
  0
LINE
  5
452
330
1E
100
AcDbEntity
  8
0
  6
CONTINUOUS
 62
     7
100
AcDbLine
 10
-226.779
 20
87.38800000000003
 30
0.0
 11
-225.579
 21
87.06645999999997
 31
0.0
  0
LINE
  5
453
330
1E
100
AcDbEntity
  8
0
  6
CONTINUOUS
 62
     7
100
AcDbLine
 10
-170.77968
 20
87.38812000000001
 30
0.0
 11
-178.77968
 21
87.38812000000001
 31
0.0
  0
LINE
  5
454
330
1E
100
AcDbEntity
  8
0
  6
CONTINUOUS
 62
     7
100
AcDbLine
 10
-177.579
 20
87.70953
 30
0.0
 11
-178.779
 21
87.38800000000003
 31
0.0
  0
LINE
  5
455
330
1E
100
AcDbEntity
  8
0
  6
CONTINUOUS
 62
     7
100
AcDbLine
 10
-178.779
 20
87.38800000000003
 30
0.0
 11
-177.579
 21
87.06645999999997
 31
0.0
  0
LINE
  5
456
330
1E
100
AcDbEntity
  8
0
  6
CONTINUOUS
 62
     7
100
AcDbLine
 10
-151.35668
 20
63.87348000000001
 30
0.0
 11
-186.37968
 21
63.87348000000001
 31
0.0
  0
LINE
  5
457
330
1E
100
AcDbEntity
  8
0
  6
CONTINUOUS
 62
     7
100
AcDbLine
 10
-185.179
 20
64.19453
 30
0.0
 11
-186.3789999999999
 21
63.87299999999999
 31
0.0
  0
LINE
  5
458
330
1E
100
AcDbEntity
  8
0
  6
CONTINUOUS
 62
     7
100
AcDbLine
 10
-186.3789999999999
 20
63.87299999999999
 30
0.0
 11
-185.179
 21
63.55146
 31
0.0
  0
LINE
  5
459
330
1E
100
AcDbEntity
  8
0
  6
CONTINUOUS
 62
     7
100
AcDbLine
 10
-236.1764799999999
 20
52.01032
 30
0.0
 11
-236.1764799999999
 21
56.59664
 31
0.0
  0
LINE
  5
45A
330
1E
100
AcDbEntity
  8
0
  6
CONTINUOUS
 62
     7
100
AcDbLine
 10
-229.7764799999999
 20
56.59664
 30
0.0
 11
-236.97648
 21
56.59664
 31
0.0
  0
LINE
  5
45B
330
1E
100
AcDbEntity
  8
0
  6
CONTINUOUS
 62
     7
100
AcDbLine
 10
-233.9354399999999
 20
52.01032
 30
0.0
 11
-236.97648
 21
52.01032
 31
0.0
  0
LINE
  5
45C
330
1E
100
AcDbEntity
  8
0
  6
CONTINUOUS
 62
     7
100
AcDbLine
 10
-235.85446
 20
55.396
 30
0.0
 11
-236.1759999999999
 21
56.59600000000001
 31
0.0
  0
LINE
  5
45D
330
1E
100
AcDbEntity
  8
0
  6
CONTINUOUS
 62
     7
100
AcDbLine
 10
-236.1759999999999
 20
56.59600000000001
 30
0.0
 11
-236.4975299999999
 21
55.396
 31
0.0
  0
LINE
  5
45E
330
1E
100
AcDbEntity
  8
0
  6
CONTINUOUS
 62
     7
100
AcDbLine
 10
-236.4975299999999
 20
53.21
 30
0.0
 11
-236.1759999999999
 21
52.01
 31
0.0
  0
LINE
  5
45F
330
1E
100
AcDbEntity
  8
0
  6
CONTINUOUS
 62
     7
100
AcDbLine
 10
-236.1759999999999
 20
52.01
 30
0.0
 11
-235.85446
 21
53.21
 31
0.0
  0
TEXT
  5
460
330
1E
100
AcDbEntity
  8
0
  6
CONTINUOUS
 62
     7
100
AcDbText
 10
-236.57648
 20
52.44595026412486
 30
0.0
 40
3.2
  1
115
 50
90.0
 41
0.8125
  7
BIGFONT
100
AcDbText
  0
LINE
  5
461
330
1E
100
AcDbEntity
  8
0
  6
CONTINUOUS
 62
     7
100
AcDbLine
 10
-236.1764799999999
 20
56.59664
 30
0.0
 11
-236.1764799999999
 21
92.58884
 31
0.0
  0
LINE
  5
462
330
1E
100
AcDbEntity
  8
0
  6
CONTINUOUS
 62
     7
100
AcDbLine
 10
-229.65648
 20
92.58884
 30
0.0
 11
-236.97648
 21
92.58884
 31
0.0
  0
LINE
  5
463
330
1E
100
AcDbEntity
  8
0
  6
CONTINUOUS
 62
     7
100
AcDbLine
 10
-235.85446
 20
91.38800000000001
 30
0.0
 11
-236.1759999999999
 21
92.58799999999999
 31
0.0
  0
LINE
  5
464
330
1E
100
AcDbEntity
  8
0
  6
CONTINUOUS
 62
     7
100
AcDbLine
 10
-236.1759999999999
 20
92.58799999999999
 30
0.0
 11
-236.4975299999999
 21
91.38800000000001
 31
0.0
  0
LINE
  5
465
330
1E
100
AcDbEntity
  8
0
  6
CONTINUOUS
 62
     7
100
AcDbLine
 10
-236.4975299999999
 20
57.79600000000001
 30
0.0
 11
-236.1759999999999
 21
56.59600000000001
 31
0.0
  0
LINE
  5
466
330
1E
100
AcDbEntity
  8
0
  6
CONTINUOUS
 62
     7
100
AcDbLine
 10
-236.1759999999999
 20
56.59600000000001
 30
0.0
 11
-235.85446
 21
57.79600000000001
 31
0.0
  0
TEXT
  5
467
330
1E
100
AcDbEntity
  8
0
  6
CONTINUOUS
 62
     7
100
AcDbText
 10
-212.168
 20
38.41388
 30
0.0
 40
3.2
  1
7×200=1400
  7
BIGFONT
100
AcDbText
  0
POINT
  5
468
330
1E
100
AcDbEntity
  8
0
  6
CONTINUOUS
 62
     1
100
AcDbPoint
 10
29.26088
 20
80.61032
 30
0.0
  0
POINT
  5
469
330
1E
100
AcDbEntity
  8
0
  6
CONTINUOUS
 62
     1
100
AcDbPoint
 10
29.26088
 20
68.61032
 30
0.0
  0
POINT
  5
46A
330
1E
100
AcDbEntity
  8
0
  6
CONTINUOUS
 62
     1
100
AcDbPoint
 10
29.46864
 20
56.72503999999999
 30
0.0
  0
LINE
  5
46B
330
1E
100
AcDbEntity
  8
0
  6
CONTINUOUS
 62
     7
100
AcDbLine
 10
212.81812
 20
91.01032
 30
0.0
 11
220.35912
 21
91.01032
 31
0.0
  0
LINE
  5
46C
330
1E
100
AcDbEntity
  8
0
  6
CONTINUOUS
 62
     7
100
AcDbLine
 10
216.28956
 20
87.25032
 30
0.0
 11
216.28956
 21
94.77031999999999
 31
0.0
  0
CIRCLE
  5
46D
330
1E
100
AcDbEntity
  8
0
  6
CONTINUOUS
 62
     7
100
AcDbCircle
 10
216.28956
 20
91.01032
 30
0.0
 40
1.5
  0
LINE
  5
46E
330
1E
100
AcDbEntity
  8
0
  6
DASHED
 62
     1
100
AcDbLine
 10
-171.17648
 20
-46.28852
 30
0.0
 11
-171.17648
 21
-32.44964
 31
0.0
  0
LINE
  5
46F
330
1E
100
AcDbEntity
  8
0
  6
CONTINUOUS
 62
     1
100
AcDbLine
 10
-170.7764799999999
 20
-64.64964000000001
 30
0.0
 11
-170.7764799999999
 21
-32.44964
 31
0.0
  0
LINE
  5
470
330
1E
100
AcDbEntity
  8
0
  6
DASHED
 62
     1
100
AcDbLine
 10
-179.1764799999999
 20
-46.28852
 30
0.0
 11
-179.1764799999999
 21
-32.44964
 31
0.0
  0
LINE
  5
471
330
1E
100
AcDbEntity
  8
0
  6
CONTINUOUS
 62
     1
100
AcDbLine
 10
-178.7764799999999
 20
-64.64964000000001
 30
0.0
 11
-178.7764799999999
 21
-32.44964
 31
0.0
  0
LINE
  5
472
330
1E
100
AcDbEntity
  8
0
  6
DASHED
 62
     1
100
AcDbLine
 10
-187.17648
 20
-46.28852
 30
0.0
 11
-187.17648
 21
-32.44964
 31
0.0
  0
LINE
  5
473
330
1E
100
AcDbEntity
  8
0
  6
CONTINUOUS
 62
     1
100
AcDbLine
 10
-186.7764799999999
 20
-64.64964000000001
 30
0.0
 11
-186.7764799999999
 21
-32.44964
 31
0.0
  0
LINE
  5
474
330
1E
100
AcDbEntity
  8
0
  6
CONTINUOUS
 62
     1
100
AcDbLine
 10
-210.7764799999999
 20
-96.64964000000001
 30
0.0
 11
-210.7764799999999
 21
-32.44964
 31
0.0
  0
LINE
  5
475
330
1E
100
AcDbEntity
  8
0
  6
CONTINUOUS
 62
     1
100
AcDbLine
 10
-202.7764799999999
 20
-96.64964000000001
 30
0.0
 11
-202.7764799999999
 21
-32.44964
 31
0.0
  0
LINE
  5
476
330
1E
100
AcDbEntity
  8
0
  6
CONTINUOUS
 62
     1
100
AcDbLine
 10
-194.77648
 20
-96.64964000000001
 30
0.0
 11
-194.77648
 21
-32.44964
 31
0.0
  0
LINE
  5
477
330
1E
100
AcDbEntity
  8
0
  6
CONTINUOUS
 62
     7
100
AcDbLine
 10
-178.7764799999999
 20
-60.5808
 30
0.0
 11
-186.7764799999999
 21
-60.5808
 31
0.0
  0
LINE
  5
478
330
1E
100
AcDbEntity
  8
0
  6
CONTINUOUS
 62
     7
100
AcDbLine
 10
-185.576
 20
-60.25846
 30
0.0
 11
-186.7759999999999
 21
-60.57999999999999
 31
0.0
  0
LINE
  5
479
330
1E
100
AcDbEntity
  8
0
  6
CONTINUOUS
 62
     7
100
AcDbLine
 10
-186.7759999999999
 20
-60.57999999999999
 30
0.0
 11
-185.576
 21
-60.90153
 31
0.0
  0
LINE
  5
47A
330
1E
100
AcDbEntity
  8
0
  6
CONTINUOUS
 62
     7
100
AcDbLine
 10
-186.7764799999999
 20
-60.5808
 30
0.0
 11
-194.77648
 21
-60.5808
 31
0.0
  0
LINE
  5
47B
330
1E
100
AcDbEntity
  8
0
  6
CONTINUOUS
 62
     7
100
AcDbLine
 10
-193.5759999999999
 20
-60.25846
 30
0.0
 11
-194.7759999999999
 21
-60.57999999999999
 31
0.0
  0
LINE
  5
47C
330
1E
100
AcDbEntity
  8
0
  6
CONTINUOUS
 62
     7
100
AcDbLine
 10
-194.7759999999999
 20
-60.57999999999999
 30
0.0
 11
-193.5759999999999
 21
-60.90153
 31
0.0
  0
LINE
  5
47D
330
1E
100
AcDbEntity
  8
0
  6
CONTINUOUS
 62
     7
100
AcDbLine
 10
-194.77648
 20
-60.5808
 30
0.0
 11
-202.7764799999999
 21
-60.5808
 31
0.0
  0
LINE
  5
47E
330
1E
100
AcDbEntity
  8
0
  6
CONTINUOUS
 62
     7
100
AcDbLine
 10
-201.5759999999999
 20
-60.25846
 30
0.0
 11
-202.7759999999999
 21
-60.57999999999999
 31
0.0
  0
LINE
  5
47F
330
1E
100
AcDbEntity
  8
0
  6
CONTINUOUS
 62
     7
100
AcDbLine
 10
-202.7759999999999
 20
-60.57999999999999
 30
0.0
 11
-201.5759999999999
 21
-60.90153
 31
0.0
  0
LINE
  5
480
330
1E
100
AcDbEntity
  8
0
  6
CONTINUOUS
 62
     7
100
AcDbLine
 10
-202.7764799999999
 20
-60.5808
 30
0.0
 11
-210.7764799999999
 21
-60.5808
 31
0.0
  0
LINE
  5
481
330
1E
100
AcDbEntity
  8
0
  6
CONTINUOUS
 62
     7
100
AcDbLine
 10
-209.5759999999999
 20
-60.25846
 30
0.0
 11
-210.7759999999999
 21
-60.57999999999999
 31
0.0
  0
LINE
  5
482
330
1E
100
AcDbEntity
  8
0
  6
CONTINUOUS
 62
     7
100
AcDbLine
 10
-210.7759999999999
 20
-60.57999999999999
 30
0.0
 11
-209.5759999999999
 21
-60.90153
 31
0.0
  0
LINE
  5
483
330
1E
100
AcDbEntity
  8
0
  6
CONTINUOUS
 62
     7
100
AcDbLine
 10
-210.7764799999999
 20
-60.5808
 30
0.0
 11
-218.77648
 21
-60.5808
 31
0.0
  0
LINE
  5
484
330
1E
100
AcDbEntity
  8
0
  6
CONTINUOUS
 62
     7
100
AcDbLine
 10
-217.5759999999999
 20
-60.25846
 30
0.0
 11
-218.7759999999999
 21
-60.57999999999999
 31
0.0
  0
LINE
  5
485
330
1E
100
AcDbEntity
  8
0
  6
CONTINUOUS
 62
     7
100
AcDbLine
 10
-218.7759999999999
 20
-60.57999999999999
 30
0.0
 11
-217.5759999999999
 21
-60.90153
 31
0.0
  0
LINE
  5
486
330
1E
100
AcDbEntity
  8
0
  6
CONTINUOUS
 62
     7
100
AcDbLine
 10
-198.56984
 20
-96.652
 30
0.0
 11
-198.56984
 21
-88.64964
 31
0.0
  0
LINE
  5
487
330
1E
100
AcDbEntity
  8
0
  6
CONTINUOUS
 62
     7
100
AcDbLine
 10
-198.24746
 20
-89.84900000000001
 30
0.0
 11
-198.5689999999999
 21
-88.649
 31
0.0
  0
LINE
  5
488
330
1E
100
AcDbEntity
  8
0
  6
CONTINUOUS
 62
     7
100
AcDbLine
 10
-198.5689999999999
 20
-88.649
 30
0.0
 11
-198.89053
 21
-89.84900000000001
 31
0.0
  0
LINE
  5
489
330
1E
100
AcDbEntity
  8
0
  6
CONTINUOUS
 62
     1
100
AcDbLine
 10
-226.9764799999999
 20
-72.64964
 30
0.0
 11
-194.7656
 21
-72.64964
 31
0.0
  0
LINE
  5
48A
330
1E
100
AcDbEntity
  8
0
  6
CONTINUOUS
 62
     7
100
AcDbLine
 10
-198.56984
 20
-88.65199999999999
 30
0.0
 11
-198.56984
 21
-80.64964000000001
 31
0.0
  0
LINE
  5
48B
330
1E
100
AcDbEntity
  8
0
  6
CONTINUOUS
 62
     7
100
AcDbLine
 10
-198.24746
 20
-81.84899999999997
 30
0.0
 11
-198.5689999999999
 21
-80.64899999999999
 31
0.0
  0
LINE
  5
48C
330
1E
100
AcDbEntity
  8
0
  6
CONTINUOUS
 62
     7
100
AcDbLine
 10
-198.5689999999999
 20
-80.64899999999999
 30
0.0
 11
-198.89053
 21
-81.84899999999997
 31
0.0
  0
LINE
  5
48D
330
1E
100
AcDbEntity
  8
0
  6
CONTINUOUS
 62
     7
100
AcDbLine
 10
-198.56984
 20
-80.652
 30
0.0
 11
-198.56984
 21
-72.64964
 31
0.0
  0
LINE
  5
48E
330
1E
100
AcDbEntity
  8
0
  6
CONTINUOUS
 62
     7
100
AcDbLine
 10
-198.24746
 20
-73.84899999999998
 30
0.0
 11
-198.5689999999999
 21
-72.649
 31
0.0
  0
LINE
  5
48F
330
1E
100
AcDbEntity
  8
0
  6
CONTINUOUS
 62
     7
100
AcDbLine
 10
-198.5689999999999
 20
-72.649
 30
0.0
 11
-198.89053
 21
-73.84899999999998
 31
0.0
  0
LINE
  5
490
330
1E
100
AcDbEntity
  8
0
  6
CONTINUOUS
 62
     7
100
AcDbLine
 10
-198.56984
 20
-72.652
 30
0.0
 11
-198.56984
 21
-64.64964000000001
 31
0.0
  0
LINE
  5
491
330
1E
100
AcDbEntity
  8
0
  6
CONTINUOUS
 62
     7
100
AcDbLine
 10
-198.24746
 20
-65.84900000000001
 30
0.0
 11
-198.5689999999999
 21
-64.649
 31
0.0
  0
LINE
  5
492
330
1E
100
AcDbEntity
  8
0
  6
CONTINUOUS
 62
     7
100
AcDbLine
 10
-198.5689999999999
 20
-64.649
 30
0.0
 11
-198.89053
 21
-65.84900000000001
 31
0.0
  0
LINE
  5
493
330
1E
100
AcDbEntity
  8
0
  6
CONTINUOUS
 62
     7
100
AcDbLine
 10
-198.56984
 20
-64.652
 30
0.0
 11
-198.56984
 21
-56.64964000000001
 31
0.0
  0
LINE
  5
494
330
1E
100
AcDbEntity
  8
0
  6
CONTINUOUS
 62
     7
100
AcDbLine
 10
-198.56984
 20
-56.64964000000001
 30
0.0
 11
-198.56984
 21
-54.24964
 31
0.0
  0
LINE
  5
495
330
1E
100
AcDbEntity
  8
0
  6
CONTINUOUS
 62
     7
100
AcDbLine
 10
-198.24746
 20
-57.849
 30
0.0
 11
-198.5689999999999
 21
-56.64899999999999
 31
0.0
  0
LINE
  5
496
330
1E
100
AcDbEntity
  8
0
  6
CONTINUOUS
 62
     7
100
AcDbLine
 10
-198.5689999999999
 20
-56.64899999999999
 30
0.0
 11
-198.89053
 21
-57.849
 31
0.0
  0
LINE
  5
497
330
1E
100
AcDbEntity
  8
0
  6
CONTINUOUS
 62
     7
100
AcDbLine
 10
-198.56984
 20
-56.652
 30
0.0
 11
-198.56984
 21
-48.64964
 31
0.0
  0
LINE
  5
498
330
1E
100
AcDbEntity
  8
0
  6
CONTINUOUS
 62
     7
100
AcDbLine
 10
-198.24746
 20
-49.84899999999999
 30
0.0
 11
-198.5689999999999
 21
-48.64899999999999
 31
0.0
  0
LINE
  5
499
330
1E
100
AcDbEntity
  8
0
  6
CONTINUOUS
 62
     7
100
AcDbLine
 10
-198.5689999999999
 20
-48.64899999999999
 30
0.0
 11
-198.89053
 21
-49.84899999999999
 31
0.0
  0
LINE
  5
49A
330
1E
100
AcDbEntity
  8
0
  6
CONTINUOUS
 62
     7
100
AcDbLine
 10
-198.56984
 20
-48.652
 30
0.0
 11
-198.56984
 21
-40.64964
 31
0.0
  0
LINE
  5
49B
330
1E
100
AcDbEntity
  8
0
  6
CONTINUOUS
 62
     7
100
AcDbLine
 10
-198.24746
 20
-41.84899999999998
 30
0.0
 11
-198.5689999999999
 21
-40.649
 31
0.0
  0
LINE
  5
49C
330
1E
100
AcDbEntity
  8
0
  6
CONTINUOUS
 62
     7
100
AcDbLine
 10
-198.5689999999999
 20
-40.649
 30
0.0
 11
-198.89053
 21
-41.84899999999998
 31
0.0
  0
LINE
  5
49D
330
1E
100
AcDbEntity
  8
0
  6
DASHED
 62
     1
100
AcDbLine
 10
-195.17648
 20
-46.28852
 30
0.0
 11
-195.17648
 21
-32.44964
 31
0.0
  0
LINE
  5
49E
330
1E
100
AcDbEntity
  8
0
  6
DASHED
 62
     1
100
AcDbLine
 10
-203.1764799999999
 20
-46.28852
 30
0.0
 11
-203.1764799999999
 21
-32.44964
 31
0.0
  0
LINE
  5
49F
330
1E
100
AcDbEntity
  8
0
  6
CONTINUOUS
 62
     7
100
AcDbLine
 10
-187.17648
 20
-43.52544
 30
0.0
 11
-195.17648
 21
-43.52544
 31
0.0
  0
LINE
  5
4A0
330
1E
100
AcDbEntity
  8
0
  6
CONTINUOUS
 62
     7
100
AcDbLine
 10
-193.9759999999999
 20
-43.20345999999999
 30
0.0
 11
-195.1759999999999
 21
-43.525
 31
0.0
  0
LINE
  5
4A1
330
1E
100
AcDbEntity
  8
0
  6
CONTINUOUS
 62
     7
100
AcDbLine
 10
-195.1759999999999
 20
-43.525
 30
0.0
 11
-193.9759999999999
 21
-43.84653
 31
0.0
  0
LINE
  5
4A2
330
1E
100
AcDbEntity
  8
0
  6
CONTINUOUS
 62
     7
100
AcDbLine
 10
-215.4157999999999
 20
-96.26112
 30
0.0
 11
-215.4157999999999
 21
-88.24963999999999
 31
0.0
  0
LINE
  5
4A3
330
1E
100
AcDbEntity
  8
0
  6
CONTINUOUS
 62
     7
100
AcDbLine
 10
-215.09346
 20
-89.449
 30
0.0
 11
-215.415
 21
-88.24899999999997
 31
0.0
  0
LINE
  5
4A4
330
1E
100
AcDbEntity
  8
0
  6
CONTINUOUS
 62
     7
100
AcDbLine
 10
-215.415
 20
-88.24899999999997
 30
0.0
 11
-215.7365299999999
 21
-89.449
 31
0.0
  0
LINE
  5
4A5
330
1E
100
AcDbEntity
  8
0
  6
CONTINUOUS
 62
     7
100
AcDbLine
 10
-215.4157999999999
 20
-88.26112
 30
0.0
 11
-215.4157999999999
 21
-80.24964
 31
0.0
  0
LINE
  5
4A6
330
1E
100
AcDbEntity
  8
0
  6
CONTINUOUS
 62
     7
100
AcDbLine
 10
-215.09346
 20
-81.44899999999998
 30
0.0
 11
-215.415
 21
-80.249
 31
0.0
  0
LINE
  5
4A7
330
1E
100
AcDbEntity
  8
0
  6
CONTINUOUS
 62
     7
100
AcDbLine
 10
-215.415
 20
-80.249
 30
0.0
 11
-215.7365299999999
 21
-81.44899999999998
 31
0.0
  0
LINE
  5
4A8
330
1E
100
AcDbEntity
  8
0
  6
CONTINUOUS
 62
     7
100
AcDbLine
 10
-215.4157999999999
 20
-80.26111999999997
 30
0.0
 11
-215.4157999999999
 21
-72.24963999999999
 31
0.0
  0
LINE
  5
4A9
330
1E
100
AcDbEntity
  8
0
  6
CONTINUOUS
 62
     7
100
AcDbLine
 10
-215.09346
 20
-73.44899999999999
 30
0.0
 11
-215.415
 21
-72.24899999999998
 31
0.0
  0
LINE
  5
4AA
330
1E
100
AcDbEntity
  8
0
  6
CONTINUOUS
 62
     7
100
AcDbLine
 10
-215.415
 20
-72.24899999999998
 30
0.0
 11
-215.7365299999999
 21
-73.44899999999999
 31
0.0
  0
LINE
  5
4AB
330
1E
100
AcDbEntity
  8
0
  6
CONTINUOUS
 62
     7
100
AcDbLine
 10
-215.4157999999999
 20
-72.26111999999997
 30
0.0
 11
-215.4157999999999
 21
-64.24964
 31
0.0
  0
LINE
  5
4AC
330
1E
100
AcDbEntity
  8
0
  6
CONTINUOUS
 62
     7
100
AcDbLine
 10
-215.09346
 20
-65.449
 30
0.0
 11
-215.415
 21
-64.249
 31
0.0
  0
LINE
  5
4AD
330
1E
100
AcDbEntity
  8
0
  6
CONTINUOUS
 62
     7
100
AcDbLine
 10
-215.415
 20
-64.249
 30
0.0
 11
-215.7365299999999
 21
-65.449
 31
0.0
  0
LINE
  5
4AE
330
1E
100
AcDbEntity
  8
0
  6
CONTINUOUS
 62
     7
100
AcDbLine
 10
-215.4157999999999
 20
-64.26111999999999
 30
0.0
 11
-215.4157999999999
 21
-56.24964
 31
0.0
  0
LINE
  5
4AF
330
1E
100
AcDbEntity
  8
0
  6
CONTINUOUS
 62
     7
100
AcDbLine
 10
-215.09346
 20
-57.449
 30
0.0
 11
-215.415
 21
-56.249
 31
0.0
  0
LINE
  5
4B0
330
1E
100
AcDbEntity
  8
0
  6
CONTINUOUS
 62
     7
100
AcDbLine
 10
-215.415
 20
-56.249
 30
0.0
 11
-215.7365299999999
 21
-57.449
 31
0.0
  0
CIRCLE
  5
4B1
330
1E
100
AcDbEntity
  8
0
  6
CONTINUOUS
 62
     7
100
AcDbCircle
 10
17.40552
 20
105.915
 30
0.0
 40
2.5
  0
TEXT
  5
4B2
330
1E
100
AcDbEntity
  8
0
  6
CONTINUOUS
 62
     7
100
AcDbText
 10
18.94536
 20
109.55088
 30
0.0
 40
3.2
  1
D10
 50
90.0
  7
BIGFONT
100
AcDbText
  0
LINE
  5
4B3
330
1E
100
AcDbEntity
  8
0
  6
CONTINUOUS
 62
     7
100
AcDbLine
 10
19.88588
 20
102.5905199999999
 30
0.0
 11
19.88588
 21
118.59052
 31
0.0
  0
TEXT
  5
4B4
330
1E
100
AcDbEntity
  8
0
  6
CONTINUOUS
 62
     7
100
AcDbText
 10
-204.8576399999999
 20
-22.81664
 30
0.0
 40
3.2
  1
7×200=1400
  7
BIGFONT
100
AcDbText
  0
LINE
  5
4B5
330
1E
100
AcDbEntity
  8
0
  6
CONTINUOUS
 62
     1
100
AcDbLine
 10
-226.9764799999999
 20
-34.80964
 30
0.0
 11
-162.77648
 21
-34.80964
 31
0.0
  0
LINE
  5
4B6
330
1E
100
AcDbEntity
  8
0
  6
CONTINUOUS
 62
     1
100
AcDbLine
 10
-224.6164799999998
 20
-96.64964000000001
 30
0.0
 11
-224.6164799999998
 21
-32.44964
 31
0.0
  0
LINE
  5
4B7
330
1E
100
AcDbEntity
  8
0
  6
CONTINUOUS
 62
     1
100
AcDbLine
 10
-102.4516399999999
 20
-96.64964000000001
 30
0.0
 11
-102.4516399999999
 21
-32.84964
 31
0.0
  0
LINE
  5
4B8
330
1E
100
AcDbEntity
  8
0
  6
CONTINUOUS
 62
     1
100
AcDbLine
 10
-104.41164
 20
-34.80964
 30
0.0
 11
-40.61164
 21
-34.80964
 31
0.0
  0
LINE
  5
4B9
330
1E
100
AcDbEntity
  8
0
  6
CONTINUOUS
 62
     7
100
AcDbLine
 10
-224.5898399999999
 20
-23.24964
 30
0.0
 11
-218.74092
 21
-23.24964
 31
0.0
  0
LINE
  5
4BA
330
1E
100
AcDbEntity
  8
0
  6
CONTINUOUS
 62
     7
100
AcDbLine
 10
-218.74092
 20
-29.64964
 30
0.0
 11
-218.74092
 21
-22.44963999999999
 31
0.0
  0
LINE
  5
4BB
330
1E
100
AcDbEntity
  8
0
  6
CONTINUOUS
 62
     7
100
AcDbLine
 10
-224.5898399999999
 20
-29.64964
 30
0.0
 11
-224.5898399999999
 21
-22.44963999999999
 31
0.0
  0
LINE
  5
4BC
330
1E
100
AcDbEntity
  8
0
  6
CONTINUOUS
 62
     7
100
AcDbLine
 10
-219.94
 20
-23.57053
 30
0.0
 11
-218.74
 21
-23.24899999999999
 31
0.0
  0
LINE
  5
4BD
330
1E
100
AcDbEntity
  8
0
  6
CONTINUOUS
 62
     7
100
AcDbLine
 10
-218.74
 20
-23.24899999999999
 30
0.0
 11
-219.94
 21
-22.92746
 31
0.0
  0
LINE
  5
4BE
330
1E
100
AcDbEntity
  8
0
  6
CONTINUOUS
 62
     7
100
AcDbLine
 10
-223.389
 20
-22.92746
 30
0.0
 11
-224.589
 21
-23.24899999999999
 31
0.0
  0
LINE
  5
4BF
330
1E
100
AcDbEntity
  8
0
  6
CONTINUOUS
 62
     7
100
AcDbLine
 10
-224.589
 20
-23.24899999999999
 30
0.0
 11
-223.389
 21
-23.57053
 31
0.0
  0
TEXT
  5
4C0
330
1E
100
AcDbEntity
  8
0
  6
CONTINUOUS
 62
     7
100
AcDbText
 10
-224.4789743398447
 20
-22.84963999999999
 30
0.0
 40
3.2
  1
148
 41
0.8125
  7
BIGFONT
100
AcDbText
  0
LINE
  5
4C1
330
1E
100
AcDbEntity
  8
0
  6
CONTINUOUS
 62
     7
100
AcDbLine
 10
-218.74092
 20
-23.24964
 30
0.0
 11
-162.8154399999999
 21
-23.24964
 31
0.0
  0
LINE
  5
4C2
330
1E
100
AcDbEntity
  8
0
  6
CONTINUOUS
 62
     7
100
AcDbLine
 10
-162.8154399999999
 20
-29.64964
 30
0.0
 11
-162.8154399999999
 21
-22.44963999999999
 31
0.0
  0
LINE
  5
4C3
330
1E
100
AcDbEntity
  8
0
  6
CONTINUOUS
 62
     7
100
AcDbLine
 10
-164.015
 20
-23.57053
 30
0.0
 11
-162.8149999999999
 21
-23.24899999999999
 31
0.0
  0
LINE
  5
4C4
330
1E
100
AcDbEntity
  8
0
  6
CONTINUOUS
 62
     7
100
AcDbLine
 10
-162.8149999999999
 20
-23.24899999999999
 30
0.0
 11
-164.015
 21
-22.92746
 31
0.0
  0
LINE
  5
4C5
330
1E
100
AcDbEntity
  8
0
  6
CONTINUOUS
 62
     7
100
AcDbLine
 10
-217.5399999999999
 20
-22.92746
 30
0.0
 11
-218.74
 21
-23.24899999999999
 31
0.0
  0
LINE
  5
4C6
330
1E
100
AcDbEntity
  8
0
  6
CONTINUOUS
 62
     7
100
AcDbLine
 10
-218.74
 20
-23.24899999999999
 30
0.0
 11
-217.5399999999999
 21
-23.57053
 31
0.0
  0
LINE
  5
4C7
330
1E
100
AcDbEntity
  8
0
  6
CONTINUOUS
 62
     7
100
AcDbLine
 10
-162.8154399999999
 20
-23.24964
 30
0.0
 11
-160.7764799999999
 21
-23.24964
 31
0.0
  0
LINE
  5
4C8
330
1E
100
AcDbEntity
  8
0
  6
CONTINUOUS
 62
     7
100
AcDbLine
 10
-160.7764799999999
 20
-26.67807999999999
 30
0.0
 11
-160.7764799999999
 21
-22.44963999999999
 31
0.0
  0
LINE
  5
4C9
330
1E
100
AcDbEntity
  8
0
  6
CONTINUOUS
 62
     7
100
AcDbLine
 10
-158.37648
 20
-23.24964
 30
0.0
 11
-160.7764799999999
 21
-23.24964
 31
0.0
  0
LINE
  5
4CA
330
1E
100
AcDbEntity
  8
0
  6
CONTINUOUS
 62
     7
100
AcDbLine
 10
-159.576
 20
-22.92746
 30
0.0
 11
-160.776
 21
-23.24899999999999
 31
0.0
  0
LINE
  5
4CB
330
1E
100
AcDbEntity
  8
0
  6
CONTINUOUS
 62
     7
100
AcDbLine
 10
-160.776
 20
-23.24899999999999
 30
0.0
 11
-159.576
 21
-23.57053
 31
0.0
  0
LINE
  5
4CC
330
1E
100
AcDbEntity
  8
0
  6
CONTINUOUS
 62
     7
100
AcDbLine
 10
-162.8154399999999
 20
-23.24964
 30
0.0
 11
-165.21544
 21
-23.24964
 31
0.0
  0
LINE
  5
4CD
330
1E
100
AcDbEntity
  8
0
  6
CONTINUOUS
 62
     7
100
AcDbLine
 10
-164.015
 20
-23.57053
 30
0.0
 11
-162.8149999999999
 21
-23.24899999999999
 31
0.0
  0
LINE
  5
4CE
330
1E
100
AcDbEntity
  8
0
  6
CONTINUOUS
 62
     7
100
AcDbLine
 10
-162.8149999999999
 20
-23.24899999999999
 30
0.0
 11
-164.015
 21
-22.92746
 31
0.0
  0
LINE
  5
4CF
330
1E
100
AcDbEntity
  8
0
  6
CONTINUOUS
 62
     7
100
AcDbLine
 10
-158.37648
 20
-23.24964
 30
0.0
 11
-152.97648
 21
-23.24964
 31
0.0
  0
TEXT
  5
4D0
330
1E
100
AcDbEntity
  8
0
  6
CONTINUOUS
 62
     7
100
AcDbText
 10
-158.17648
 20
-22.84963999999999
 30
0.0
 40
3.2
  1
50
 41
0.8125
  7
BIGFONT
100
AcDbText
  0
LINE
  5
4D1
330
1E
100
AcDbEntity
  8
0
  6
CONTINUOUS
 62
     7
100
AcDbLine
 10
-198.56984
 20
-40.64964
 30
0.0
 11
-198.56984
 21
-34.80964
 31
0.0
  0
LINE
  5
4D2
330
1E
100
AcDbEntity
  8
0
  6
CONTINUOUS
 62
     7
100
AcDbLine
 10
-198.24746
 20
-36.009
 30
0.0
 11
-198.5689999999999
 21
-34.809
 31
0.0
  0
LINE
  5
4D3
330
1E
100
AcDbEntity
  8
0
  6
CONTINUOUS
 62
     7
100
AcDbLine
 10
-198.5689999999999
 20
-34.809
 30
0.0
 11
-198.89053
 21
-36.009
 31
0.0
  0
LINE
  5
4D4
330
1E
100
AcDbEntity
  8
0
  6
CONTINUOUS
 62
     7
100
AcDbLine
 10
-218.7576399999999
 20
-60.5808
 30
0.0
 11
-224.6164799999998
 21
-60.56924
 31
0.0
  0
LINE
  5
4D5
330
1E
100
AcDbEntity
  8
0
  6
CONTINUOUS
 62
     7
100
AcDbLine
 10
-223.41536
 20
-60.24981999999999
 30
0.0
 11
-224.6159999999999
 21
-60.56899999999998
 31
0.0
  0
LINE
  5
4D6
330
1E
100
AcDbEntity
  8
0
  6
CONTINUOUS
 62
     7
100
AcDbLine
 10
-224.6159999999999
 20
-60.56899999999998
 30
0.0
 11
-223.4166299999999
 21
-60.8929
 31
0.0
  0
LINE
  5
4D7
330
1E
100
AcDbEntity
  8
0
  6
CONTINUOUS
 62
     1
100
AcDbLine
 10
-226.7796799999999
 20
56.61031999999998
 30
0.0
 11
-162.4100799999999
 21
56.61031999999998
 31
0.0
  0
LINE
  5
4D8
330
1E
100
AcDbEntity
  8
0
  6
CONTINUOUS
 62
     1
100
AcDbLine
 10
-226.7796799999999
 20
68.61032
 30
0.0
 11
-162.4100799999999
 21
68.61032
 31
0.0
  0
LINE
  5
4D9
330
1E
100
AcDbEntity
  8
0
  6
CONTINUOUS
 62
     1
100
AcDbLine
 10
-226.7796799999999
 20
80.61032
 30
0.0
 11
-162.4100799999999
 21
80.61032
 31
0.0
  0
LINE
  5
4DA
330
1E
100
AcDbEntity
  8
0
  6
CONTINUOUS
 62
     1
100
AcDbLine
 10
-226.7796799999999
 20
92.61032
 30
0.0
 11
-162.4100799999999
 21
92.61032
 31
0.0
  0
LINE
  5
4DB
330
1E
100
AcDbEntity
  8
0
  6
CONTINUOUS
 62
     7
100
AcDbLine
 10
-228.77648
 20
38.01032
 30
0.0
 11
-226.7952399999999
 21
38.01032
 31
0.0
  0
LINE
  5
4DC
330
1E
100
AcDbEntity
  8
0
  6
CONTINUOUS
 62
     7
100
AcDbLine
 10
-226.7952399999999
 20
51.01032
 30
0.0
 11
-226.7952399999999
 21
37.21032
 31
0.0
  0
LINE
  5
4DD
330
1E
100
AcDbEntity
  8
0
  6
CONTINUOUS
 62
     7
100
AcDbLine
 10
-228.77648
 20
41.17784
 30
0.0
 11
-228.77648
 21
37.21032
 31
0.0
  0
LINE
  5
4DE
330
1E
100
AcDbEntity
  8
0
  6
CONTINUOUS
 62
     7
100
AcDbLine
 10
-224.3952399999999
 20
38.01032
 30
0.0
 11
-226.7952399999999
 21
38.01032
 31
0.0
  0
LINE
  5
4DF
330
1E
100
AcDbEntity
  8
0
  6
CONTINUOUS
 62
     7
100
AcDbLine
 10
-225.5949999999999
 20
38.33153
 30
0.0
 11
-226.7949999999999
 21
38.01
 31
0.0
  0
LINE
  5
4E0
330
1E
100
AcDbEntity
  8
0
  6
CONTINUOUS
 62
     7
100
AcDbLine
 10
-226.7949999999999
 20
38.01
 30
0.0
 11
-225.5949999999999
 21
37.68845999999999
 31
0.0
  0
LINE
  5
4E1
330
1E
100
AcDbEntity
  8
0
  6
CONTINUOUS
 62
     7
100
AcDbLine
 10
-228.77648
 20
38.01032
 30
0.0
 11
-231.1764799999999
 21
38.01032
 31
0.0
  0
LINE
  5
4E2
330
1E
100
AcDbEntity
  8
0
  6
CONTINUOUS
 62
     7
100
AcDbLine
 10
-229.976
 20
37.68845999999999
 30
0.0
 11
-228.776
 21
38.01
 31
0.0
  0
LINE
  5
4E3
330
1E
100
AcDbEntity
  8
0
  6
CONTINUOUS
 62
     7
100
AcDbLine
 10
-228.776
 20
38.01
 30
0.0
 11
-229.976
 21
38.33153
 31
0.0
  0
LINE
  5
4E4
330
1E
100
AcDbEntity
  8
0
  6
CONTINUOUS
 62
     7
100
AcDbLine
 10
-231.1764799999999
 20
38.01032
 30
0.0
 11
-236.57648
 21
38.01032
 31
0.0
  0
TEXT
  5
4E5
330
1E
100
AcDbEntity
  8
0
  6
CONTINUOUS
 62
     7
100
AcDbText
 10
-236.57648
 20
38.41032
 30
0.0
 40
3.2
  1
50
 41
0.8125
  7
BIGFONT
100
AcDbText
  0
LINE
  5
4E6
330
1E
100
AcDbEntity
  8
0
  6
CONTINUOUS
 62
     7
100
AcDbLine
 10
-226.7952399999999
 20
38.01032
 30
0.0
 11
-170.7830399999999
 21
38.01032
 31
0.0
  0
LINE
  5
4E7
330
1E
100
AcDbEntity
  8
0
  6
CONTINUOUS
 62
     7
100
AcDbLine
 10
-170.7830399999999
 20
51.01032
 30
0.0
 11
-170.7830399999999
 21
37.21032
 31
0.0
  0
LINE
  5
4E8
330
1E
100
AcDbEntity
  8
0
  6
CONTINUOUS
 62
     7
100
AcDbLine
 10
-171.9829999999999
 20
37.68845999999999
 30
0.0
 11
-170.7829999999999
 21
38.01
 31
0.0
  0
LINE
  5
4E9
330
1E
100
AcDbEntity
  8
0
  6
CONTINUOUS
 62
     7
100
AcDbLine
 10
-170.7829999999999
 20
38.01
 30
0.0
 11
-171.9829999999999
 21
38.33153
 31
0.0
  0
LINE
  5
4EA
330
1E
100
AcDbEntity
  8
0
  6
CONTINUOUS
 62
     7
100
AcDbLine
 10
-225.5949999999999
 20
38.33153
 30
0.0
 11
-226.7949999999999
 21
38.01
 31
0.0
  0
LINE
  5
4EB
330
1E
100
AcDbEntity
  8
0
  6
CONTINUOUS
 62
     7
100
AcDbLine
 10
-226.7949999999999
 20
38.01
 30
0.0
 11
-225.5949999999999
 21
37.68845999999999
 31
0.0
  0
LINE
  5
4EC
330
1E
100
AcDbEntity
  8
0
  6
CONTINUOUS
 62
     1
100
AcDbLine
 10
-164.93968
 20
53.81032
 30
0.0
 11
-164.93968
 21
100.0103199999999
 31
0.0
  0
LINE
  5
4ED
330
1E
100
AcDbEntity
  8
0
  6
CONTINUOUS
 62
     7
100
AcDbLine
 10
-170.7830399999999
 20
38.01032
 30
0.0
 11
-164.9338399999999
 21
38.01032
 31
0.0
  0
LINE
  5
4EE
330
1E
100
AcDbEntity
  8
0
  6
CONTINUOUS
 62
     7
100
AcDbLine
 10
-164.9338399999999
 20
51.01032
 30
0.0
 11
-164.9338399999999
 21
37.21032
 31
0.0
  0
LINE
  5
4EF
330
1E
100
AcDbEntity
  8
0
  6
CONTINUOUS
 62
     7
100
AcDbLine
 10
-170.7830399999999
 20
41.40039999999999
 30
0.0
 11
-170.7830399999999
 21
37.21032
 31
0.0
  0
LINE
  5
4F0
330
1E
100
AcDbEntity
  8
0
  6
CONTINUOUS
 62
     7
100
AcDbLine
 10
-166.1329999999999
 20
37.68845999999999
 30
0.0
 11
-164.9329999999999
 21
38.01
 31
0.0
  0
LINE
  5
4F1
330
1E
100
AcDbEntity
  8
0
  6
CONTINUOUS
 62
     7
100
AcDbLine
 10
-164.9329999999999
 20
38.01
 30
0.0
 11
-166.1329999999999
 21
38.33153
 31
0.0
  0
LINE
  5
4F2
330
1E
100
AcDbEntity
  8
0
  6
CONTINUOUS
 62
     7
100
AcDbLine
 10
-169.5829999999999
 20
38.33153
 30
0.0
 11
-170.7829999999999
 21
38.01
 31
0.0
  0
LINE
  5
4F3
330
1E
100
AcDbEntity
  8
0
  6
CONTINUOUS
 62
     7
100
AcDbLine
 10
-170.7829999999999
 20
38.01
 30
0.0
 11
-169.5829999999999
 21
37.68845999999999
 31
0.0
  0
TEXT
  5
4F4
330
1E
100
AcDbEntity
  8
0
  6
CONTINUOUS
 62
     7
100
AcDbText
 10
-170.3315662033508
 20
38.41032
 30
0.0
 40
3.2
  1
148
 41
0.8125
  7
BIGFONT
100
AcDbText
  0
LINE
  5
4F5
330
1E
100
AcDbEntity
  8
0
  6
CONTINUOUS
 62
     1
100
AcDbLine
 10
-42.77164
 20
53.81032
 30
0.0
 11
-42.77164
 21
130.01032
 31
0.0
  0
LINE
  5
4F6
330
1E
100
AcDbEntity
  8
0
  6
CONTINUOUS
 62
     1
100
AcDbLine
 10
-104.61164
 20
54.21032
 30
0.0
 11
-42.77164
 21
54.21032
 31
0.0
  0
LINE
  5
4F7
330
1E
100
AcDbEntity
  8
0
  6
CONTINUOUS
 62
     1
100
AcDbLine
 10
-104.61164
 20
130.01032
 30
0.0
 11
-42.77164
 21
130.01032
 31
0.0
  0
LINE
  5
4F8
330
1E
100
AcDbEntity
  8
0
  6
CONTINUOUS
 62
     7
100
AcDbLine
 10
-64.61164000000001
 20
-60.62248
 30
0.0
 11
-72.61164
 21
-60.62248
 31
0.0
  0
LINE
  5
4F9
330
1E
100
AcDbEntity
  8
0
  6
CONTINUOUS
 62
     7
100
AcDbLine
 10
-71.411
 20
-60.30046
 30
0.0
 11
-72.611
 21
-60.622
 31
0.0
  0
LINE
  5
4FA
330
1E
100
AcDbEntity
  8
0
  6
CONTINUOUS
 62
     7
100
AcDbLine
 10
-72.611
 20
-60.622
 30
0.0
 11
-71.411
 21
-60.94353
 31
0.0
  0
LINE
  5
4FB
330
1E
100
AcDbEntity
  8
0
  6
CONTINUOUS
 62
     7
100
AcDbLine
 10
-56.61164
 20
-60.62248
 30
0.0
 11
-64.61164000000001
 21
-60.62248
 31
0.0
  0
LINE
  5
4FC
330
1E
100
AcDbEntity
  8
0
  6
CONTINUOUS
 62
     7
100
AcDbLine
 10
-63.411
 20
-60.30046
 30
0.0
 11
-64.611
 21
-60.622
 31
0.0
  0
LINE
  5
4FD
330
1E
100
AcDbEntity
  8
0
  6
CONTINUOUS
 62
     7
100
AcDbLine
 10
-64.611
 20
-60.622
 30
0.0
 11
-63.411
 21
-60.94353
 31
0.0
  0
LINE
  5
4FE
330
1E
100
AcDbEntity
  8
0
  6
CONTINUOUS
 62
     7
100
AcDbLine
 10
-48.61164
 20
-60.62248
 30
0.0
 11
-56.61164
 21
-60.62248
 31
0.0
  0
LINE
  5
4FF
330
1E
100
AcDbEntity
  8
0
  6
CONTINUOUS
 62
     7
100
AcDbLine
 10
-55.411
 20
-60.30046
 30
0.0
 11
-56.61100000000001
 21
-60.622
 31
0.0
  0
LINE
  5
500
330
1E
100
AcDbEntity
  8
0
  6
CONTINUOUS
 62
     7
100
AcDbLine
 10
-56.61100000000001
 20
-60.622
 30
0.0
 11
-55.411
 21
-60.94353
 31
0.0
  0
LINE
  5
501
330
1E
100
AcDbEntity
  8
0
  6
CONTINUOUS
 62
     7
100
AcDbLine
 10
-104.37844
 20
-29.65152
 30
0.0
 11
-104.37844
 21
-22.49696
 31
0.0
  0
LINE
  5
502
330
1E
100
AcDbEntity
  8
0
  6
CONTINUOUS
 62
     7
100
AcDbLine
 10
-114.53496
 20
-23.24964
 30
0.0
 11
-106.6116399999999
 21
-23.24964
 31
0.0
  0
LINE
  5
503
330
1E
100
AcDbEntity
  8
0
  6
CONTINUOUS
 62
     7
100
AcDbLine
 10
-107.811
 20
-23.57053
 30
0.0
 11
-106.611
 21
-23.24899999999999
 31
0.0
  0
LINE
  5
504
330
1E
100
AcDbEntity
  8
0
  6
CONTINUOUS
 62
     7
100
AcDbLine
 10
-106.611
 20
-23.24899999999999
 30
0.0
 11
-107.811
 21
-22.92746
 31
0.0
  0
LINE
  5
505
330
1E
100
AcDbEntity
  8
0
  6
CONTINUOUS
 62
     7
100
AcDbLine
 10
-106.6116399999999
 20
-23.24964
 30
0.0
 11
-102.44876
 21
-23.24964
 31
0.0
  0
POINT
  5
506
330
1E
100
AcDbEntity
  8
0
  6
CONTINUOUS
 62
     7
100
AcDbPoint
 10
-104.37844
 20
-23.24964
 30
0.0
  0
LINE
  5
507
330
1E
100
AcDbEntity
  8
0
  6
CONTINUOUS
 62
     7
100
AcDbLine
 10
-76.88148000000002
 20
-56.64964000000001
 30
0.0
 11
-76.88148000000002
 21
-48.64964
 31
0.0
  0
LINE
  5
508
330
1E
100
AcDbEntity
  8
0
  6
CONTINUOUS
 62
     7
100
AcDbLine
 10
-76.55946
 20
-49.84899999999999
 30
0.0
 11
-76.881
 21
-48.64899999999999
 31
0.0
  0
LINE
  5
509
330
1E
100
AcDbEntity
  8
0
  6
CONTINUOUS
 62
     7
100
AcDbLine
 10
-76.881
 20
-48.64899999999999
 30
0.0
 11
-77.20253000000003
 21
-49.84899999999999
 31
0.0
  0
LINE
  5
50A
330
1E
100
AcDbEntity
  8
0
  6
CONTINUOUS
 62
     7
100
AcDbLine
 10
-76.88148000000002
 20
-64.64964000000001
 30
0.0
 11
-76.88148000000002
 21
-56.64964000000001
 31
0.0
  0
LINE
  5
50B
330
1E
100
AcDbEntity
  8
0
  6
CONTINUOUS
 62
     7
100
AcDbLine
 10
-76.55946
 20
-57.849
 30
0.0
 11
-76.881
 21
-56.64899999999999
 31
0.0
  0
LINE
  5
50C
330
1E
100
AcDbEntity
  8
0
  6
CONTINUOUS
 62
     7
100
AcDbLine
 10
-76.881
 20
-56.64899999999999
 30
0.0
 11
-77.20253000000003
 21
-57.849
 31
0.0
  0
LINE
  5
50D
330
1E
100
AcDbEntity
  8
0
  6
CONTINUOUS
 62
     7
100
AcDbLine
 10
-76.88148000000002
 20
-72.64964
 30
0.0
 11
-76.88148000000002
 21
-64.64964000000001
 31
0.0
  0
LINE
  5
50E
330
1E
100
AcDbEntity
  8
0
  6
CONTINUOUS
 62
     7
100
AcDbLine
 10
-76.55946
 20
-65.84900000000001
 30
0.0
 11
-76.881
 21
-64.649
 31
0.0
  0
LINE
  5
50F
330
1E
100
AcDbEntity
  8
0
  6
CONTINUOUS
 62
     7
100
AcDbLine
 10
-76.881
 20
-64.649
 30
0.0
 11
-77.20253000000003
 21
-65.84900000000001
 31
0.0
  0
LINE
  5
510
330
1E
100
AcDbEntity
  8
0
  6
CONTINUOUS
 62
     7
100
AcDbLine
 10
-76.88148000000002
 20
-80.64964000000001
 30
0.0
 11
-76.88148000000002
 21
-72.64964
 31
0.0
  0
LINE
  5
511
330
1E
100
AcDbEntity
  8
0
  6
CONTINUOUS
 62
     7
100
AcDbLine
 10
-76.55946
 20
-73.84899999999998
 30
0.0
 11
-76.881
 21
-72.649
 31
0.0
  0
LINE
  5
512
330
1E
100
AcDbEntity
  8
0
  6
CONTINUOUS
 62
     7
100
AcDbLine
 10
-76.881
 20
-72.649
 30
0.0
 11
-77.20253000000003
 21
-73.84899999999998
 31
0.0
  0
TEXT
  5
513
330
1E
100
AcDbEntity
  8
0
  6
CONTINUOUS
 62
     7
100
AcDbText
 10
-114.33176
 20
-22.83792
 30
0.0
 40
3.2
  1
55
  7
BIGFONT
100
AcDbText
  0
TEXT
  5
514
330
1E
100
AcDbEntity
  8
0
  6
CONTINUOUS
 62
     7
100
AcDbText
 10
-106.2265697049319
 20
-26.85564
 30
0.0
 40
3.2
  1
49
  7
BIGFONT
100
AcDbText
  0
LINE
  5
515
330
1E
100
AcDbEntity
  8
0
  6
CONTINUOUS
 62
     7
100
AcDbLine
 10
-42.77164
 20
91.69124
 30
0.0
 11
-48.65728
 21
91.69124
 31
0.0
  0
LINE
  5
516
330
1E
100
AcDbEntity
  8
0
  6
CONTINUOUS
 62
     7
100
AcDbLine
 10
-47.457
 20
92.01252999999999
 30
0.0
 11
-48.657
 21
91.691
 31
0.0
  0
LINE
  5
517
330
1E
100
AcDbEntity
  8
0
  6
CONTINUOUS
 62
     7
100
AcDbLine
 10
-48.657
 20
91.691
 30
0.0
 11
-47.457
 21
91.36946
 31
0.0
  0
LINE
  5
518
330
1E
100
AcDbEntity
  8
0
  6
CONTINUOUS
 62
     7
100
AcDbLine
 10
-29.24092
 20
91.69124
 30
0.0
 11
-42.80187999999998
 21
91.69124
 31
0.0
  0
LINE
  5
519
330
1E
100
AcDbEntity
  8
0
  6
CONTINUOUS
 62
     7
100
AcDbLine
 10
-41.60099999999999
 20
92.01252999999999
 30
0.0
 11
-42.801
 21
91.691
 31
0.0
  0
LINE
  5
51A
330
1E
100
AcDbEntity
  8
0
  6
CONTINUOUS
 62
     7
100
AcDbLine
 10
-42.801
 20
91.691
 30
0.0
 11
-41.60099999999999
 21
91.36946
 31
0.0
  0
LINE
  5
51B
330
1E
100
AcDbEntity
  8
0
  6
DASHED
 62
     1
100
AcDbLine
 10
-226.9764799999999
 20
-64.24964
 30
0.0
 11
-213.1375999999999
 21
-64.24964
 31
0.0
  0
LINE
  5
51C
330
1E
100
AcDbEntity
  8
0
  6
DASHED
 62
     1
100
AcDbLine
 10
-226.9764799999999
 20
-72.24963999999999
 30
0.0
 11
-213.1375999999999
 21
-72.24963999999999
 31
0.0
  0
LINE
  5
51D
330
1E
100
AcDbEntity
  8
0
  6
DASHED
 62
     1
100
AcDbLine
 10
-226.9764799999999
 20
-80.24964
 30
0.0
 11
-213.1375999999999
 21
-80.24964
 31
0.0
  0
LINE
  5
51E
330
1E
100
AcDbEntity
  8
0
  6
DASHED
 62
     1
100
AcDbLine
 10
-226.9764799999999
 20
-88.24963999999999
 30
0.0
 11
-213.1375999999999
 21
-88.24963999999999
 31
0.0
  0
LINE
  5
51F
330
1E
100
AcDbEntity
  8
0
  6
DASHED
 62
     1
100
AcDbLine
 10
-226.9764799999999
 20
-96.24964
 30
0.0
 11
-213.1375999999999
 21
-96.24964
 31
0.0
  0
LINE
  5
520
330
1E
100
AcDbEntity
  8
0
  6
CONTINUOUS
 62
     1
100
AcDbLine
 10
-80.61164000000003
 20
53.81032
 30
0.0
 11
-80.61164000000003
 21
130.01032
 31
0.0
  0
LINE
  5
521
330
1E
100
AcDbEntity
  8
0
  6
CONTINUOUS
 62
     7
100
AcDbLine
 10
-151.35668
 20
87.38812000000001
 30
0.0
 11
-164.9655199999999
 21
87.38812000000001
 31
0.0
  0
LINE
  5
522
330
1E
100
AcDbEntity
  8
0
  6
CONTINUOUS
 62
     7
100
AcDbLine
 10
-163.7649999999998
 20
87.70953
 30
0.0
 11
-164.965
 21
87.38800000000003
 31
0.0
  0
LINE
  5
523
330
1E
100
AcDbEntity
  8
0
  6
CONTINUOUS
 62
     7
100
AcDbLine
 10
-164.965
 20
87.38800000000003
 30
0.0
 11
-163.7649999999998
 21
87.06645999999997
 31
0.0
  0
LINE
  5
524
330
1E
100
AcDbEntity
  8
0
  6
CONTINUOUS
 62
     1
100
AcDbLine
 10
-96.61163999999999
 20
-96.64964000000001
 30
0.0
 11
-96.61163999999999
 21
-32.84964
 31
0.0
  0
LINE
  5
525
330
1E
100
AcDbEntity
  8
0
  6
CONTINUOUS
 62
     1
100
AcDbLine
 10
-88.61164
 20
-96.64964000000001
 30
0.0
 11
-88.61164
 21
-32.84964
 31
0.0
  0
LINE
  5
526
330
1E
100
AcDbEntity
  8
0
  6
CONTINUOUS
 62
     1
100
AcDbLine
 10
-80.61164000000003
 20
-96.64964000000001
 30
0.0
 11
-80.61164000000003
 21
-32.84964
 31
0.0
  0
LINE
  5
527
330
1E
100
AcDbEntity
  8
0
  6
CONTINUOUS
 62
     1
100
AcDbLine
 10
-72.61164
 20
-96.64964000000001
 30
0.0
 11
-72.61164
 21
-32.84964
 31
0.0
  0
LINE
  5
528
330
1E
100
AcDbEntity
  8
0
  6
CONTINUOUS
 62
     1
100
AcDbLine
 10
-64.61164000000001
 20
-96.64964000000001
 30
0.0
 11
-64.61164000000001
 21
-32.84964
 31
0.0
  0
LINE
  5
529
330
1E
100
AcDbEntity
  8
0
  6
CONTINUOUS
 62
     1
100
AcDbLine
 10
-56.61164
 20
-96.64964000000001
 30
0.0
 11
-56.61164
 21
-32.84964
 31
0.0
  0
LINE
  5
52A
330
1E
100
AcDbEntity
  8
0
  6
CONTINUOUS
 62
     1
100
AcDbLine
 10
-104.41164
 20
-40.64964
 30
0.0
 11
-40.61164
 21
-40.64964
 31
0.0
  0
LINE
  5
52B
330
1E
100
AcDbEntity
  8
0
  6
CONTINUOUS
 62
     1
100
AcDbLine
 10
-104.41164
 20
-48.64964
 30
0.0
 11
-40.61164
 21
-48.64964
 31
0.0
  0
LINE
  5
52C
330
1E
100
AcDbEntity
  8
0
  6
CONTINUOUS
 62
     1
100
AcDbLine
 10
-104.41164
 20
-56.64964000000001
 30
0.0
 11
-40.61164
 21
-56.64964000000001
 31
0.0
  0
LINE
  5
52D
330
1E
100
AcDbEntity
  8
0
  6
CONTINUOUS
 62
     1
100
AcDbLine
 10
-104.41164
 20
-64.64964000000001
 30
0.0
 11
-40.61164
 21
-64.64964000000001
 31
0.0
  0
LINE
  5
52E
330
1E
100
AcDbEntity
  8
0
  6
CONTINUOUS
 62
     1
100
AcDbLine
 10
-104.41164
 20
-72.64964
 30
0.0
 11
-40.61164
 21
-72.64964
 31
0.0
  0
LINE
  5
52F
330
1E
100
AcDbEntity
  8
0
  6
CONTINUOUS
 62
     1
100
AcDbLine
 10
-104.41164
 20
-80.64964000000001
 30
0.0
 11
-40.61164
 21
-80.64964000000001
 31
0.0
  0
LINE
  5
530
330
1E
100
AcDbEntity
  8
0
  6
CONTINUOUS
 62
     1
100
AcDbLine
 10
-104.41164
 20
-88.64964
 30
0.0
 11
-45.44004
 21
-88.64964
 31
0.0
  0
LINE
  5
531
330
1E
100
AcDbEntity
  8
0
  6
CONTINUOUS
 62
     1
100
AcDbLine
 10
-48.61164
 20
-91.82123999999999
 30
0.0
 11
-48.61164
 21
-32.84964
 31
0.0
  0
LINE
  5
532
330
1E
100
AcDbEntity
  8
0
  6
CONTINUOUS
 62
     7
100
AcDbLine
 10
-72.61164
 20
-60.62248
 30
0.0
 11
-80.61164000000003
 21
-60.62248
 31
0.0
  0
LINE
  5
533
330
1E
100
AcDbEntity
  8
0
  6
CONTINUOUS
 62
     7
100
AcDbLine
 10
-79.411
 20
-60.30046
 30
0.0
 11
-80.61100000000001
 21
-60.622
 31
0.0
  0
LINE
  5
534
330
1E
100
AcDbEntity
  8
0
  6
CONTINUOUS
 62
     7
100
AcDbLine
 10
-80.61100000000001
 20
-60.622
 30
0.0
 11
-79.411
 21
-60.94353
 31
0.0
  0
LINE
  5
535
330
1E
100
AcDbEntity
  8
0
  6
CONTINUOUS
 62
     7
100
AcDbLine
 10
-80.61164000000003
 20
-60.62248
 30
0.0
 11
-88.61164
 21
-60.62248
 31
0.0
  0
LINE
  5
536
330
1E
100
AcDbEntity
  8
0
  6
CONTINUOUS
 62
     7
100
AcDbLine
 10
-87.41100000000001
 20
-60.30046
 30
0.0
 11
-88.611
 21
-60.622
 31
0.0
  0
LINE
  5
537
330
1E
100
AcDbEntity
  8
0
  6
CONTINUOUS
 62
     7
100
AcDbLine
 10
-88.611
 20
-60.622
 30
0.0
 11
-87.41100000000001
 21
-60.94353
 31
0.0
  0
LINE
  5
538
330
1E
100
AcDbEntity
  8
0
  6
CONTINUOUS
 62
     7
100
AcDbLine
 10
-88.61164
 20
-60.62248
 30
0.0
 11
-96.61163999999999
 21
-60.62248
 31
0.0
  0
LINE
  5
539
330
1E
100
AcDbEntity
  8
0
  6
CONTINUOUS
 62
     7
100
AcDbLine
 10
-95.411
 20
-60.30046
 30
0.0
 11
-96.61100000000001
 21
-60.622
 31
0.0
  0
LINE
  5
53A
330
1E
100
AcDbEntity
  8
0
  6
CONTINUOUS
 62
     7
100
AcDbLine
 10
-96.61100000000001
 20
-60.622
 30
0.0
 11
-95.411
 21
-60.94353
 31
0.0
  0
LINE
  5
53B
330
1E
100
AcDbEntity
  8
0
  6
CONTINUOUS
 62
     7
100
AcDbLine
 10
-40.61164
 20
-60.62248
 30
0.0
 11
-48.61164
 21
-60.62248
 31
0.0
  0
LINE
  5
53C
330
1E
100
AcDbEntity
  8
0
  6
CONTINUOUS
 62
     7
100
AcDbLine
 10
-47.411
 20
-60.30046
 30
0.0
 11
-48.611
 21
-60.622
 31
0.0
  0
LINE
  5
53D
330
1E
100
AcDbEntity
  8
0
  6
CONTINUOUS
 62
     7
100
AcDbLine
 10
-48.611
 20
-60.622
 30
0.0
 11
-47.411
 21
-60.94353
 31
0.0
  0
LINE
  5
53E
330
1E
100
AcDbEntity
  8
0
  6
CONTINUOUS
 62
     7
100
AcDbLine
 10
-76.88148000000002
 20
-96.68224000000002
 30
0.0
 11
-76.88148000000002
 21
-88.64964
 31
0.0
  0
LINE
  5
53F
330
1E
100
AcDbEntity
  8
0
  6
CONTINUOUS
 62
     7
100
AcDbLine
 10
-76.55946
 20
-89.84900000000001
 30
0.0
 11
-76.881
 21
-88.649
 31
0.0
  0
LINE
  5
540
330
1E
100
AcDbEntity
  8
0
  6
CONTINUOUS
 62
     7
100
AcDbLine
 10
-76.881
 20
-88.649
 30
0.0
 11
-77.20253000000003
 21
-89.84900000000001
 31
0.0
  0
LINE
  5
541
330
1E
100
AcDbEntity
  8
0
  6
CONTINUOUS
 62
     7
100
AcDbLine
 10
-76.88148000000002
 20
-88.64964
 30
0.0
 11
-76.88148000000002
 21
-80.64964000000001
 31
0.0
  0
LINE
  5
542
330
1E
100
AcDbEntity
  8
0
  6
CONTINUOUS
 62
     7
100
AcDbLine
 10
-76.55946
 20
-81.84899999999997
 30
0.0
 11
-76.881
 21
-80.64899999999999
 31
0.0
  0
LINE
  5
543
330
1E
100
AcDbEntity
  8
0
  6
CONTINUOUS
 62
     7
100
AcDbLine
 10
-76.881
 20
-80.64899999999999
 30
0.0
 11
-77.20253000000003
 21
-81.84899999999997
 31
0.0
  0
LINE
  5
544
330
1E
100
AcDbEntity
  8
0
  6
CONTINUOUS
 62
     7
100
AcDbLine
 10
-76.88148000000002
 20
-40.68211999999999
 30
0.0
 11
-76.88148000000002
 21
-34.80964
 31
0.0
  0
LINE
  5
545
330
1E
100
AcDbEntity
  8
0
  6
CONTINUOUS
 62
     7
100
AcDbLine
 10
-76.55946
 20
-36.009
 30
0.0
 11
-76.881
 21
-34.809
 31
0.0
  0
LINE
  5
546
330
1E
100
AcDbEntity
  8
0
  6
CONTINUOUS
 62
     7
100
AcDbLine
 10
-76.881
 20
-34.809
 30
0.0
 11
-77.20253000000003
 21
-36.009
 31
0.0
  0
LINE
  5
547
330
1E
100
AcDbEntity
  8
0
  6
CONTINUOUS
 62
     7
100
AcDbLine
 10
-96.61163999999999
 20
-60.62248
 30
0.0
 11
-102.4516399999999
 21
-60.62248
 31
0.0
  0
LINE
  5
548
330
1E
100
AcDbEntity
  8
0
  6
CONTINUOUS
 62
     7
100
AcDbLine
 10
-101.251
 20
-60.30046
 30
0.0
 11
-102.451
 21
-60.622
 31
0.0
  0
LINE
  5
549
330
1E
100
AcDbEntity
  8
0
  6
CONTINUOUS
 62
     7
100
AcDbLine
 10
-102.451
 20
-60.622
 30
0.0
 11
-101.251
 21
-60.94353
 31
0.0
  0
TEXT
  5
54A
330
1E
100
AcDbEntity
  8
0
  6
CONTINUOUS
 62
     7
100
AcDbText
 10
-83.41494851841535
 20
-22.87223999999999
 30
0.0
 40
3.2
  1
7×200=1400
  7
BIGFONT
100
AcDbText
  0
LINE
  5
54B
330
1E
100
AcDbEntity
  8
0
  6
CONTINUOUS
 62
     7
100
AcDbLine
 10
-102.4500399999999
 20
-23.24964
 30
0.0
 11
-96.62696
 21
-23.24964
 31
0.0
  0
LINE
  5
54C
330
1E
100
AcDbEntity
  8
0
  6
CONTINUOUS
 62
     7
100
AcDbLine
 10
-96.62696
 20
-29.64964
 30
0.0
 11
-96.62696
 21
-22.44963999999999
 31
0.0
  0
LINE
  5
54D
330
1E
100
AcDbEntity
  8
0
  6
CONTINUOUS
 62
     7
100
AcDbLine
 10
-102.4500399999999
 20
-29.64964
 30
0.0
 11
-102.4500399999999
 21
-22.44963999999999
 31
0.0
  0
LINE
  5
54E
330
1E
100
AcDbEntity
  8
0
  6
CONTINUOUS
 62
     7
100
AcDbLine
 10
-97.82600000000002
 20
-23.57053
 30
0.0
 11
-96.62600000000001
 21
-23.24899999999999
 31
0.0
  0
LINE
  5
54F
330
1E
100
AcDbEntity
  8
0
  6
CONTINUOUS
 62
     7
100
AcDbLine
 10
-96.62600000000001
 20
-23.24899999999999
 30
0.0
 11
-97.82600000000002
 21
-22.92746
 31
0.0
  0
LINE
  5
550
330
1E
100
AcDbEntity
  8
0
  6
CONTINUOUS
 62
     7
100
AcDbLine
 10
-101.2499999999999
 20
-22.92746
 30
0.0
 11
-102.4499999999999
 21
-23.24899999999999
 31
0.0
  0
LINE
  5
551
330
1E
100
AcDbEntity
  8
0
  6
CONTINUOUS
 62
     7
100
AcDbLine
 10
-102.4499999999999
 20
-23.24899999999999
 30
0.0
 11
-101.2499999999999
 21
-23.57053
 31
0.0
  0
TEXT
  5
552
330
1E
100
AcDbEntity
  8
0
  6
CONTINUOUS
 62
     7
100
AcDbText
 10
-102.3963969532307
 20
-22.84963999999999
 30
0.0
 40
3.2
  1
146
 41
0.8125
  7
BIGFONT
100
AcDbText
  0
LINE
  5
553
330
1E
100
AcDbEntity
  8
0
  6
CONTINUOUS
 62
     7
100
AcDbLine
 10
-96.62696
 20
-23.24964
 30
0.0
 11
-40.60912
 21
-23.24964
 31
0.0
  0
LINE
  5
554
330
1E
100
AcDbEntity
  8
0
  6
CONTINUOUS
 62
     7
100
AcDbLine
 10
-40.60912
 20
-29.64964
 30
0.0
 11
-40.60912
 21
-22.44963999999999
 31
0.0
  0
LINE
  5
555
330
1E
100
AcDbEntity
  8
0
  6
CONTINUOUS
 62
     7
100
AcDbLine
 10
-41.809
 20
-23.57053
 30
0.0
 11
-40.609
 21
-23.24899999999999
 31
0.0
  0
LINE
  5
556
330
1E
100
AcDbEntity
  8
0
  6
CONTINUOUS
 62
     7
100
AcDbLine
 10
-40.609
 20
-23.24899999999999
 30
0.0
 11
-41.809
 21
-22.92746
 31
0.0
  0
LINE
  5
557
330
1E
100
AcDbEntity
  8
0
  6
CONTINUOUS
 62
     7
100
AcDbLine
 10
-95.426
 20
-22.92746
 30
0.0
 11
-96.62600000000001
 21
-23.24899999999999
 31
0.0
  0
LINE
  5
558
330
1E
100
AcDbEntity
  8
0
  6
CONTINUOUS
 62
     7
100
AcDbLine
 10
-96.62600000000001
 20
-23.24899999999999
 30
0.0
 11
-95.426
 21
-23.57053
 31
0.0
  0
LINE
  5
559
330
1E
100
AcDbEntity
  8
0
  6
CONTINUOUS
 62
     7
100
AcDbLine
 10
-40.60912
 20
-23.24964
 30
0.0
 11
-38.61164
 21
-23.24964
 31
0.0
  0
LINE
  5
55A
330
1E
100
AcDbEntity
  8
0
  6
CONTINUOUS
 62
     7
100
AcDbLine
 10
-38.61164
 20
-26.35688
 30
0.0
 11
-38.61164
 21
-22.44963999999999
 31
0.0
  0
LINE
  5
55B
330
1E
100
AcDbEntity
  8
0
  6
CONTINUOUS
 62
     7
100
AcDbLine
 10
-36.21164
 20
-23.24964
 30
0.0
 11
-38.61164
 21
-23.24964
 31
0.0
  0
LINE
  5
55C
330
1E
100
AcDbEntity
  8
0
  6
CONTINUOUS
 62
     7
100
AcDbLine
 10
-37.411
 20
-22.92746
 30
0.0
 11
-38.611
 21
-23.24899999999999
 31
0.0
  0
LINE
  5
55D
330
1E
100
AcDbEntity
  8
0
  6
CONTINUOUS
 62
     7
100
AcDbLine
 10
-38.611
 20
-23.24899999999999
 30
0.0
 11
-37.411
 21
-23.57053
 31
0.0
  0
LINE
  5
55E
330
1E
100
AcDbEntity
  8
0
  6
CONTINUOUS
 62
     7
100
AcDbLine
 10
-40.60912
 20
-23.24964
 30
0.0
 11
-43.00912
 21
-23.24964
 31
0.0
  0
LINE
  5
55F
330
1E
100
AcDbEntity
  8
0
  6
CONTINUOUS
 62
     7
100
AcDbLine
 10
-41.809
 20
-23.57053
 30
0.0
 11
-40.609
 21
-23.24899999999999
 31
0.0
  0
LINE
  5
560
330
1E
100
AcDbEntity
  8
0
  6
CONTINUOUS
 62
     7
100
AcDbLine
 10
-40.609
 20
-23.24899999999999
 30
0.0
 11
-41.809
 21
-22.92746
 31
0.0
  0
LINE
  5
561
330
1E
100
AcDbEntity
  8
0
  6
CONTINUOUS
 62
     7
100
AcDbLine
 10
-36.21164
 20
-23.24964
 30
0.0
 11
-31.59164
 21
-23.24964
 31
0.0
  0
TEXT
  5
562
330
1E
100
AcDbEntity
  8
0
  6
CONTINUOUS
 62
     7
100
AcDbText
 10
-36.15174191798367
 20
-22.84963999999999
 30
0.0
 40
3.2
  1
50
 41
0.8125
  7
BIGFONT
100
AcDbText
  0
LINE
  5
563
330
1E
100
AcDbEntity
  8
0
  6
CONTINUOUS
 62
     1
100
AcDbLine
 10
-104.61164
 20
55.65031999999999
 30
0.0
 11
-42.77164
 21
55.65031999999999
 31
0.0
  0
LINE
  5
564
330
1E
100
AcDbEntity
  8
0
  6
CONTINUOUS
 62
     7
100
AcDbLine
 10
-108.6116399999999
 20
139.4103199999999
 30
0.0
 11
-92.61164
 21
139.4103199999999
 31
0.0
  0
TEXT
  5
565
330
1E
100
AcDbEntity
  8
0
  6
CONTINUOUS
 62
     7
100
AcDbText
 10
-101.6685599999999
 20
140.21948
 30
0.0
 40
3.2
  1
D13
  7
BIGFONT
100
AcDbText
  0
CIRCLE
  5
566
330
1E
100
AcDbEntity
  8
0
  6
CONTINUOUS
 62
     7
100
AcDbCircle
 10
-105.6466399999999
 20
141.90948
 30
0.0
 40
2.5
  0
TEXT
  5
567
330
1E
100
AcDbEntity
  8
0
  6
CONTINUOUS
 62
     7
100
AcDbText
 10
-107.2622799999999
 20
140.25228
 30
0.0
 40
3.2
  1
２
  7
BIGFONT
100
AcDbText
  0
CIRCLE
  5
568
330
1E
100
AcDbEntity
  8
0
  6
CONTINUOUS
 62
     7
100
AcDbCircle
 10
-72.74715999999997
 20
46.51068
 30
0.0
 40
2.5
  0
TEXT
  5
569
330
1E
100
AcDbEntity
  8
0
  6
CONTINUOUS
 62
     7
100
AcDbText
 10
-74.36539999999998
 20
44.7616
 30
0.0
 40
3.2
  1
３
  7
BIGFONT
100
AcDbText
  0
TEXT
  5
56A
330
1E
100
AcDbEntity
  8
0
  6
CONTINUOUS
 62
     7
100
AcDbText
 10
-69.11128000000001
 20
44.85084
 30
0.0
 40
3.2
  1
D10
  7
BIGFONT
100
AcDbText
  0
LINE
  5
56B
330
1E
100
AcDbEntity
  8
0
  6
CONTINUOUS
 62
     7
100
AcDbLine
 10
-76.61164000000002
 20
44.01031999999999
 30
0.0
 11
-60.61164
 21
44.01031999999999
 31
0.0
  0
LINE
  5
56C
330
1E
100
AcDbEntity
  8
0
  6
CONTINUOUS
 62
     7
100
AcDbLine
 10
-76.61164000000002
 20
44.01031999999999
 30
0.0
 11
-76.61164000000002
 21
54.21032
 31
0.0
  0
LINE
  5
56D
330
1E
100
AcDbEntity
  8
0
  6
CONTINUOUS
 62
     7
100
AcDbLine
 10
-76.28945999999998
 20
53.01
 30
0.0
 11
-76.61100000000002
 21
54.21
 31
0.0
  0
LINE
  5
56E
330
1E
100
AcDbEntity
  8
0
  6
CONTINUOUS
 62
     7
100
AcDbLine
 10
-76.61100000000002
 20
54.21
 30
0.0
 11
-76.93253
 21
53.01
 31
0.0
  0
LINE
  5
56F
330
1E
100
AcDbEntity
  8
0
  6
CONTINUOUS
 62
     7
100
AcDbLine
 10
-92.61164
 20
139.4103199999999
 30
0.0
 11
-92.61164
 21
55.65031999999999
 31
0.0
  0
LINE
  5
570
330
1E
100
AcDbEntity
  8
0
  6
CONTINUOUS
 62
     7
100
AcDbLine
 10
-92.93252999999999
 20
56.85
 30
0.0
 11
-92.611
 21
55.65
 31
0.0
  0
LINE
  5
571
330
1E
100
AcDbEntity
  8
0
  6
CONTINUOUS
 62
     7
100
AcDbLine
 10
-92.611
 20
55.65
 30
0.0
 11
-92.28945999999998
 21
56.85
 31
0.0
  0
LINE
  5
572
330
1E
100
AcDbEntity
  8
0
  6
CONTINUOUS
 62
     1
100
AcDbLine
 10
-104.61164
 20
65.65031999999999
 30
0.0
 11
-42.77164
 21
65.65031999999999
 31
0.0
  0
LINE
  5
573
330
1E
100
AcDbEntity
  8
0
  6
CONTINUOUS
 62
     1
100
AcDbLine
 10
-104.61164
 20
75.65031999999998
 30
0.0
 11
-42.77164
 21
75.65031999999998
 31
0.0
  0
LINE
  5
574
330
1E
100
AcDbEntity
  8
0
  6
CONTINUOUS
 62
     1
100
AcDbLine
 10
-104.61164
 20
85.65032
 30
0.0
 11
-42.77164
 21
85.65032
 31
0.0
  0
LINE
  5
575
330
1E
100
AcDbEntity
  8
0
  6
CONTINUOUS
 62
     1
100
AcDbLine
 10
-104.61164
 20
95.65032
 30
0.0
 11
-42.77164
 21
95.65032
 31
0.0
  0
LINE
  5
576
330
1E
100
AcDbEntity
  8
0
  6
CONTINUOUS
 62
     1
100
AcDbLine
 10
-104.61164
 20
105.6503199999999
 30
0.0
 11
-42.77164
 21
105.6503199999999
 31
0.0
  0
LINE
  5
577
330
1E
100
AcDbEntity
  8
0
  6
CONTINUOUS
 62
     1
100
AcDbLine
 10
-104.61164
 20
115.6503199999999
 30
0.0
 11
-42.77164
 21
115.6503199999999
 31
0.0
  0
LINE
  5
578
330
1E
100
AcDbEntity
  8
0
  6
CONTINUOUS
 62
     1
100
AcDbLine
 10
-104.61164
 20
125.65032
 30
0.0
 11
-42.77164
 21
125.65032
 31
0.0
  0
LINE
  5
579
330
1E
100
AcDbEntity
  8
0
  6
CONTINUOUS
 62
     7
100
AcDbLine
 10
-76.61164000000002
 20
85.65032
 30
0.0
 11
-76.61164000000002
 21
75.65031999999998
 31
0.0
  0
LINE
  5
57A
330
1E
100
AcDbEntity
  8
0
  6
CONTINUOUS
 62
     7
100
AcDbLine
 10
-76.93253
 20
76.84999999999998
 30
0.0
 11
-76.61100000000002
 21
75.65000000000002
 31
0.0
  0
LINE
  5
57B
330
1E
100
AcDbEntity
  8
0
  6
CONTINUOUS
 62
     7
100
AcDbLine
 10
-76.61100000000002
 20
75.65000000000002
 30
0.0
 11
-76.28945999999998
 21
76.84999999999998
 31
0.0
  0
LINE
  5
57C
330
1E
100
AcDbEntity
  8
0
  6
CONTINUOUS
 62
     7
100
AcDbLine
 10
-76.61164000000002
 20
95.65032
 30
0.0
 11
-76.61164000000002
 21
85.65032
 31
0.0
  0
LINE
  5
57D
330
1E
100
AcDbEntity
  8
0
  6
CONTINUOUS
 62
     7
100
AcDbLine
 10
-76.93253
 20
86.85
 30
0.0
 11
-76.61100000000002
 21
85.65000000000003
 31
0.0
  0
LINE
  5
57E
330
1E
100
AcDbEntity
  8
0
  6
CONTINUOUS
 62
     7
100
AcDbLine
 10
-76.61100000000002
 20
85.65000000000003
 30
0.0
 11
-76.28945999999998
 21
86.85
 31
0.0
  0
LINE
  5
57F
330
1E
100
AcDbEntity
  8
0
  6
CONTINUOUS
 62
     7
100
AcDbLine
 10
-76.61164000000002
 20
105.6503199999999
 30
0.0
 11
-76.61164000000002
 21
95.65032
 31
0.0
  0
LINE
  5
580
330
1E
100
AcDbEntity
  8
0
  6
CONTINUOUS
 62
     7
100
AcDbLine
 10
-76.93253
 20
96.85
 30
0.0
 11
-76.61100000000002
 21
95.65000000000001
 31
0.0
  0
LINE
  5
581
330
1E
100
AcDbEntity
  8
0
  6
CONTINUOUS
 62
     7
100
AcDbLine
 10
-76.61100000000002
 20
95.65000000000001
 30
0.0
 11
-76.28945999999998
 21
96.85
 31
0.0
  0
LINE
  5
582
330
1E
100
AcDbEntity
  8
0
  6
CONTINUOUS
 62
     7
100
AcDbLine
 10
-76.61164000000002
 20
115.6503199999999
 30
0.0
 11
-76.61164000000002
 21
105.6503199999999
 31
0.0
  0
LINE
  5
583
330
1E
100
AcDbEntity
  8
0
  6
CONTINUOUS
 62
     7
100
AcDbLine
 10
-76.93253
 20
106.85
 30
0.0
 11
-76.61100000000002
 21
105.6499999999999
 31
0.0
  0
LINE
  5
584
330
1E
100
AcDbEntity
  8
0
  6
CONTINUOUS
 62
     7
100
AcDbLine
 10
-76.61100000000002
 20
105.6499999999999
 30
0.0
 11
-76.28945999999998
 21
106.85
 31
0.0
  0
LINE
  5
585
330
1E
100
AcDbEntity
  8
0
  6
CONTINUOUS
 62
     7
100
AcDbLine
 10
-76.61164000000002
 20
125.65032
 30
0.0
 11
-76.61164000000002
 21
115.6503199999999
 31
0.0
  0
LINE
  5
586
330
1E
100
AcDbEntity
  8
0
  6
CONTINUOUS
 62
     7
100
AcDbLine
 10
-76.93253
 20
116.8499999999999
 30
0.0
 11
-76.61100000000002
 21
115.65
 31
0.0
  0
LINE
  5
587
330
1E
100
AcDbEntity
  8
0
  6
CONTINUOUS
 62
     7
100
AcDbLine
 10
-76.61100000000002
 20
115.65
 30
0.0
 11
-76.28945999999998
 21
116.8499999999999
 31
0.0
  0
LINE
  5
588
330
1E
100
AcDbEntity
  8
0
  6
CONTINUOUS
 62
     7
100
AcDbLine
 10
-114.0116399999999
 20
55.60836
 30
0.0
 11
-114.0116399999999
 21
125.6544399999999
 31
0.0
  0
LINE
  5
589
330
1E
100
AcDbEntity
  8
0
  6
CONTINUOUS
 62
     7
100
AcDbLine
 10
-107.6116399999999
 20
125.6544399999999
 30
0.0
 11
-114.8116399999999
 21
125.6544399999999
 31
0.0
  0
LINE
  5
58A
330
1E
100
AcDbEntity
  8
0
  6
CONTINUOUS
 62
     7
100
AcDbLine
 10
-107.6116399999999
 20
55.60836
 30
0.0
 11
-114.8116399999999
 21
55.60836
 31
0.0
  0
LINE
  5
58B
330
1E
100
AcDbEntity
  8
0
  6
CONTINUOUS
 62
     7
100
AcDbLine
 10
-113.68946
 20
124.4539999999999
 30
0.0
 11
-114.0109999999999
 21
125.6539999999999
 31
0.0
  0
LINE
  5
58C
330
1E
100
AcDbEntity
  8
0
  6
CONTINUOUS
 62
     7
100
AcDbLine
 10
-114.0109999999999
 20
125.6539999999999
 30
0.0
 11
-114.33253
 21
124.4539999999999
 31
0.0
  0
LINE
  5
58D
330
1E
100
AcDbEntity
  8
0
  6
CONTINUOUS
 62
     7
100
AcDbLine
 10
-114.33253
 20
56.808
 30
0.0
 11
-114.0109999999999
 21
55.608
 31
0.0
  0
LINE
  5
58E
330
1E
100
AcDbEntity
  8
0
  6
CONTINUOUS
 62
     7
100
AcDbLine
 10
-114.0109999999999
 20
55.608
 30
0.0
 11
-113.68946
 21
56.808
 31
0.0
  0
LINE
  5
58F
330
1E
100
AcDbEntity
  8
0
  6
CONTINUOUS
 62
     7
100
AcDbLine
 10
-114.0116399999999
 20
125.6544399999999
 30
0.0
 11
-114.0116399999999
 21
129.9950399999999
 31
0.0
  0
LINE
  5
590
330
1E
100
AcDbEntity
  8
0
  6
CONTINUOUS
 62
     7
100
AcDbLine
 10
-107.6116399999999
 20
129.9950399999999
 30
0.0
 11
-114.8116399999999
 21
129.9950399999999
 31
0.0
  0
LINE
  5
591
330
1E
100
AcDbEntity
  8
0
  6
CONTINUOUS
 62
     7
100
AcDbLine
 10
-113.68946
 20
128.7949999999999
 30
0.0
 11
-114.0109999999999
 21
129.995
 31
0.0
  0
LINE
  5
592
330
1E
100
AcDbEntity
  8
0
  6
CONTINUOUS
 62
     7
100
AcDbLine
 10
-114.0109999999999
 20
129.995
 30
0.0
 11
-114.33253
 21
128.7949999999999
 31
0.0
  0
LINE
  5
593
330
1E
100
AcDbEntity
  8
0
  6
CONTINUOUS
 62
     7
100
AcDbLine
 10
-114.33253
 20
126.854
 30
0.0
 11
-114.0109999999999
 21
125.6539999999999
 31
0.0
  0
LINE
  5
594
330
1E
100
AcDbEntity
  8
0
  6
CONTINUOUS
 62
     7
100
AcDbLine
 10
-114.0109999999999
 20
125.6539999999999
 30
0.0
 11
-113.68946
 21
126.854
 31
0.0
  0
LINE
  5
595
330
1E
100
AcDbEntity
  8
0
  6
CONTINUOUS
 62
     7
100
AcDbLine
 10
-114.0116399999999
 20
125.6544399999999
 30
0.0
 11
-114.0116399999999
 21
122.7944399999999
 31
0.0
  0
TEXT
  5
596
330
1E
100
AcDbEntity
  8
0
  6
CONTINUOUS
 62
     7
100
AcDbText
 10
-114.4116399999999
 20
124.8206654335157
 30
0.0
 40
3.2
  1
109
 50
90.0
 41
0.8125
  7
BIGFONT
100
AcDbText
  0
LINE
  5
597
330
1E
100
AcDbEntity
  8
0
  6
CONTINUOUS
 62
     7
100
AcDbLine
 10
-114.0116399999999
 20
129.9950399999999
 30
0.0
 11
-114.0116399999999
 21
132.01032
 31
0.0
  0
LINE
  5
598
330
1E
100
AcDbEntity
  8
0
  6
CONTINUOUS
 62
     7
100
AcDbLine
 10
-111.6471999999999
 20
132.01032
 30
0.0
 11
-114.8116399999999
 21
132.01032
 31
0.0
  0
LINE
  5
599
330
1E
100
AcDbEntity
  8
0
  6
CONTINUOUS
 62
     7
100
AcDbLine
 10
-114.0116399999999
 20
134.4103199999999
 30
0.0
 11
-114.0116399999999
 21
132.01032
 31
0.0
  0
LINE
  5
59A
330
1E
100
AcDbEntity
  8
0
  6
CONTINUOUS
 62
     7
100
AcDbLine
 10
-114.33253
 20
133.21
 30
0.0
 11
-114.0109999999999
 21
132.0099999999999
 31
0.0
  0
LINE
  5
59B
330
1E
100
AcDbEntity
  8
0
  6
CONTINUOUS
 62
     7
100
AcDbLine
 10
-114.0109999999999
 20
132.0099999999999
 30
0.0
 11
-113.68946
 21
133.21
 31
0.0
  0
LINE
  5
59C
330
1E
100
AcDbEntity
  8
0
  6
CONTINUOUS
 62
     7
100
AcDbLine
 10
-114.0116399999999
 20
129.9950399999999
 30
0.0
 11
-114.0116399999999
 21
127.5950399999999
 31
0.0
  0
LINE
  5
59D
330
1E
100
AcDbEntity
  8
0
  6
CONTINUOUS
 62
     7
100
AcDbLine
 10
-113.68946
 20
128.7949999999999
 30
0.0
 11
-114.0109999999999
 21
129.995
 31
0.0
  0
LINE
  5
59E
330
1E
100
AcDbEntity
  8
0
  6
CONTINUOUS
 62
     7
100
AcDbLine
 10
-114.0109999999999
 20
129.995
 30
0.0
 11
-114.33253
 21
128.7949999999999
 31
0.0
  0
LINE
  5
59F
330
1E
100
AcDbEntity
  8
0
  6
CONTINUOUS
 62
     7
100
AcDbLine
 10
-114.0116399999999
 20
134.4103199999999
 30
0.0
 11
-114.0116399999999
 21
138.77032
 31
0.0
  0
TEXT
  5
5A0
330
1E
100
AcDbEntity
  8
0
  6
CONTINUOUS
 62
     7
100
AcDbText
 10
-114.4116399999999
 20
133.57032
 30
0.0
 40
3.2
  1
50
 50
90.0
 41
0.8125
  7
BIGFONT
100
AcDbText
  0
LINE
  5
5A1
330
1E
100
AcDbEntity
  8
0
  6
CONTINUOUS
 62
     7
100
AcDbLine
 10
-114.7944399999999
 20
54.20251999999999
 30
0.0
 11
-107.55436
 21
54.20251999999999
 31
0.0
  0
POINT
  5
5A2
330
1E
100
AcDbEntity
  8
0
  6
CONTINUOUS
 62
     7
100
AcDbPoint
 10
-114.0116399999999
 20
54.20251999999999
 30
0.0
  0
LINE
  5
5A3
330
1E
100
AcDbEntity
  8
0
  6
CONTINUOUS
 62
     7
100
AcDbLine
 10
-114.0116399999999
 20
52.01032
 30
0.0
 11
-114.0116399999999
 21
57.78739999999999
 31
0.0
  0
TEXT
  5
5A4
330
1E
100
AcDbEntity
  8
0
  6
CONTINUOUS
 62
     7
100
AcDbText
 10
-114.4015199999999
 20
52.67216
 30
0.0
 40
3.2
  1
36
 50
90.0
  7
BIGFONT
100
AcDbText
  0
TEXT
  5
5A5
330
1E
100
AcDbEntity
  8
0
  6
CONTINUOUS
 62
     7
100
AcDbText
 10
-114.3824799999999
 20
45.03668
 30
0.0
 40
3.2
  1
55
 50
90.0
  7
BIGFONT
100
AcDbText
  0
LINE
  5
5A6
330
1E
100
AcDbEntity
  8
0
  6
CONTINUOUS
 62
     7
100
AcDbLine
 10
-114.0116399999999
 20
45.5414
 30
0.0
 11
-114.0116399999999
 21
52.01032
 31
0.0
  0
LINE
  5
5A7
330
1E
100
AcDbEntity
  8
0
  6
CONTINUOUS
 62
     7
100
AcDbLine
 10
-113.68946
 20
50.81
 30
0.0
 11
-114.0109999999999
 21
52.01
 31
0.0
  0
LINE
  5
5A8
330
1E
100
AcDbEntity
  8
0
  6
CONTINUOUS
 62
     7
100
AcDbLine
 10
-114.0109999999999
 20
52.01
 30
0.0
 11
-114.33253
 21
50.81
 31
0.0
  0
LINE
  5
5A9
330
1E
100
AcDbEntity
  8
0
  6
CONTINUOUS
 62
     7
100
AcDbLine
 10
-114.0116399999999
 20
44.3828776380917
 30
0.0
 11
-114.0116399999999
 21
52.01032
 31
0.0
  0
LINE
  5
5AA
330
1E
100
AcDbEntity
  8
0
  6
CONTINUOUS
 62
     7
100
AcDbLine
 10
-113.68946
 20
50.81
 30
0.0
 11
-114.0109999999999
 21
52.01
 31
0.0
  0
LINE
  5
5AB
330
1E
100
AcDbEntity
  8
0
  6
CONTINUOUS
 62
     7
100
AcDbLine
 10
-114.0109999999999
 20
52.01
 30
0.0
 11
-114.33253
 21
50.81
 31
0.0
  0
POINT
  5
5AC
330
1E
100
AcDbEntity
  8
0
  6
CONTINUOUS
 62
     1
100
AcDbPoint
 10
31.10088
 20
125.65032
 30
0.0
  0
POINT
  5
5AD
330
1E
100
AcDbEntity
  8
0
  6
CONTINUOUS
 62
     1
100
AcDbPoint
 10
31.10088
 20
115.6503199999999
 30
0.0
  0
POINT
  5
5AE
330
1E
100
AcDbEntity
  8
0
  6
CONTINUOUS
 62
     7
100
AcDbPoint
 10
31.10088
 20
105.6503199999999
 30
0.0
  0
POINT
  5
5AF
330
1E
100
AcDbEntity
  8
0
  6
CONTINUOUS
 62
     1
100
AcDbPoint
 10
31.10088
 20
95.65032
 30
0.0
  0
POINT
  5
5B0
330
1E
100
AcDbEntity
  8
0
  6
CONTINUOUS
 62
     1
100
AcDbPoint
 10
31.10088
 20
85.65032
 30
0.0
  0
POINT
  5
5B1
330
1E
100
AcDbEntity
  8
0
  6
CONTINUOUS
 62
     1
100
AcDbPoint
 10
31.10088
 20
75.65031999999998
 30
0.0
  0
POINT
  5
5B2
330
1E
100
AcDbEntity
  8
0
  6
CONTINUOUS
 62
     1
100
AcDbPoint
 10
31.10088
 20
65.65031999999999
 30
0.0
  0
POINT
  5
5B3
330
1E
100
AcDbEntity
  8
0
  6
CONTINUOUS
 62
     1
100
AcDbPoint
 10
31.24087999999999
 20
55.83184
 30
0.0
  0
LINE
  5
5B4
330
1E
100
AcDbEntity
  8
0
  6
CONTINUOUS
 62
     7
100
AcDbLine
 10
43.70487999999999
 20
75.5742
 30
0.0
 11
33.4744
 21
59.07119999999999
 31
0.0
  0
LINE
  5
5B5
330
1E
100
AcDbEntity
  8
0
  6
CONTINUOUS
 62
     7
100
AcDbLine
 10
33.83297
 20
60.26033
 30
0.0
 11
33.47399999999999
 21
59.07099999999999
 31
0.0
  0
LINE
  5
5B6
330
1E
100
AcDbEntity
  8
0
  6
CONTINUOUS
 62
     7
100
AcDbLine
 10
33.47399999999999
 20
59.07099999999999
 30
0.0
 11
34.37955
 21
59.9215
 31
0.0
  0
LINE
  5
5B7
330
1E
100
AcDbEntity
  8
0
  6
CONTINUOUS
 62
     7
100
AcDbLine
 10
64.69152
 20
65.59088
 30
0.0
 11
61.08088000000001
 21
55.83184
 31
0.0
  0
LINE
  5
5B8
330
1E
100
AcDbEntity
  8
0
  6
CONTINUOUS
 62
     7
100
AcDbLine
 10
61.19481999999999
 20
57.06801
 30
0.0
 11
61.08
 21
55.831
 31
0.0
  0
LINE
  5
5B9
330
1E
100
AcDbEntity
  8
0
  6
CONTINUOUS
 62
     7
100
AcDbLine
 10
61.08
 20
55.831
 30
0.0
 11
61.79795
 21
56.84486999999999
 31
0.0
  0
LINE
  5
5BA
330
1E
100
AcDbEntity
  8
0
  6
CONTINUOUS
 62
     7
100
AcDbLine
 10
64.69152
 20
65.59088
 30
0.0
 11
56.80340000000001
 21
56.21031999999999
 31
0.0
  0
LINE
  5
5BB
330
1E
100
AcDbEntity
  8
0
  6
CONTINUOUS
 62
     7
100
AcDbLine
 10
57.32921999999999
 20
57.33537
 30
0.0
 11
56.80299999999999
 21
56.21
 31
0.0
  0
LINE
  5
5BC
330
1E
100
AcDbEntity
  8
0
  6
CONTINUOUS
 62
     7
100
AcDbLine
 10
56.80299999999999
 20
56.21
 30
0.0
 11
57.82141
 21
56.92149
 31
0.0
  0
LINE
  5
5BD
330
1E
100
AcDbEntity
  8
0
  6
CONTINUOUS
 62
     7
100
AcDbLine
 10
47.92855999999999
 20
44.01031999999999
 30
0.0
 11
40.61724
 21
53.81032
 31
0.0
  0
LINE
  5
5BE
330
1E
100
AcDbEntity
  8
0
  6
CONTINUOUS
 62
     7
100
AcDbLine
 10
41.59228
 20
53.04045
 30
0.0
 11
40.617
 21
53.81
 31
0.0
  0
LINE
  5
5BF
330
1E
100
AcDbEntity
  8
0
  6
CONTINUOUS
 62
     7
100
AcDbLine
 10
40.617
 20
53.81
 30
0.0
 11
41.07684
 21
52.6559
 31
0.0
  0
LINE
  5
5C0
330
1E
100
AcDbEntity
  8
0
  6
CONTINUOUS
 62
     7
100
AcDbLine
 10
47.93628
 20
44.01031999999999
 30
0.0
 11
45.08087999999999
 21
54.19031999999999
 31
0.0
  0
LINE
  5
5C1
330
1E
100
AcDbEntity
  8
0
  6
CONTINUOUS
 62
     7
100
AcDbLine
 10
45.71367
 20
53.12141999999999
 30
0.0
 11
45.08
 21
54.19
 31
0.0
  0
LINE
  5
5C2
330
1E
100
AcDbEntity
  8
0
  6
CONTINUOUS
 62
     7
100
AcDbLine
 10
45.08
 20
54.19
 30
0.0
 11
45.09449
 21
52.94775
 31
0.0
  0
LINE
  5
5C3
330
1E
100
AcDbEntity
  8
0
  6
CONTINUOUS
 62
     7
100
AcDbLine
 10
-76.61164000000002
 20
130.01032
 30
0.0
 11
-76.61164000000002
 21
125.65032
 31
0.0
  0
LINE
  5
5C4
330
1E
100
AcDbEntity
  8
0
  6
CONTINUOUS
 62
     7
100
AcDbLine
 10
-76.93253
 20
126.8499999999999
 30
0.0
 11
-76.61100000000002
 21
125.65
 31
0.0
  0
LINE
  5
5C5
330
1E
100
AcDbEntity
  8
0
  6
CONTINUOUS
 62
     7
100
AcDbLine
 10
-76.61100000000002
 20
125.65
 30
0.0
 11
-76.28945999999998
 21
126.8499999999999
 31
0.0
  0
LINE
  5
5C6
330
1E
100
AcDbEntity
  8
0
  6
CONTINUOUS
 62
     7
100
AcDbLine
 10
229.88268
 20
-92.20215999999998
 30
0.0
 11
236.22
 21
-84.64964
 31
0.0
  0
LINE
  5
5C7
330
1E
100
AcDbEntity
  8
0
  6
CONTINUOUS
 62
     7
100
AcDbLine
 10
222.2199999999999
 20
-98.64964
 30
0.0
 11
229.88268
 21
-92.20215999999998
 31
0.0
  0
LINE
  5
5C8
330
1E
100
AcDbEntity
  8
0
  6
CONTINUOUS
 62
     7
100
AcDbLine
 10
174.2199999999999
 20
-41.74055999999999
 30
0.0
 11
179.3196
 21
-36.64964
 31
0.0
  0
LINE
  5
5C9
330
1E
100
AcDbEntity
  8
0
  6
CONTINUOUS
 62
     7
100
AcDbLine
 10
179.3196
 20
-36.64964
 30
0.0
 11
236.22
 21
-36.64964
 31
0.0
  0
LINE
  5
5CA
330
1E
100
AcDbEntity
  8
0
  6
CONTINUOUS
 62
     7
100
AcDbLine
 10
174.2199999999999
 20
-98.64964
 30
0.0
 11
174.2199999999999
 21
-41.74055999999999
 31
0.0
  0
LINE
  5
5CB
330
1E
100
AcDbEntity
  8
0
  6
CONTINUOUS
 62
     7
100
AcDbLine
 10
181.6712799999999
 20
-49.20487999999998
 30
0.0
 11
186.7709899999999
 21
-44.11405
 31
0.0
  0
LINE
  5
5CC
330
1E
100
AcDbEntity
  8
0
  6
CONTINUOUS
 62
     7
100
AcDbLine
 10
180.02608
 20
-37.35736
 30
0.0
 11
187.3361799999999
 21
-44.68023
 31
0.0
  0
LINE
  5
5CD
330
1E
100
AcDbEntity
  8
0
  6
CONTINUOUS
 62
     7
100
AcDbLine
 10
174.9264799999999
 20
-42.44828
 30
0.0
 11
182.2364699999999
 21
-49.77105
 31
0.0
  0
LINE
  5
5CE
330
1E
100
AcDbEntity
  8
0
  6
CONTINUOUS
 62
     7
100
AcDbLine
 10
186.1478899999999
 20
-45.18934
 30
0.0
 11
186.77
 21
-44.11399999999999
 31
0.0
  0
LINE
  5
5CF
330
1E
100
AcDbEntity
  8
0
  6
CONTINUOUS
 62
     7
100
AcDbLine
 10
186.77
 20
-44.11399999999999
 30
0.0
 11
185.69356
 21
-44.73422
 31
0.0
  0
LINE
  5
5D0
330
1E
100
AcDbEntity
  8
0
  6
CONTINUOUS
 62
     7
100
AcDbLine
 10
182.2931
 20
-48.12865
 30
0.0
 11
181.671
 21
-49.20399999999999
 31
0.0
  0
LINE
  5
5D1
330
1E
100
AcDbEntity
  8
0
  6
CONTINUOUS
 62
     7
100
AcDbLine
 10
181.671
 20
-49.20399999999999
 30
0.0
 11
182.74743
 21
-48.58377
 31
0.0
  0
TEXT
  5
5D2
330
1E
100
AcDbEntity
  8
0
  6
CONTINUOUS
 62
     7
100
AcDbText
 10
185.0071001120408
 20
-51.96258
 30
0.0
 40
3.2
  1
180
 50
44.95
 41
0.8125
  7
BIGFONT
100
AcDbText
  0
LINE
  5
5D3
330
1E
100
AcDbEntity
  8
0
  6
CONTINUOUS
 62
     7
100
AcDbLine
 10
229.88268
 20
52.01032
 30
0.0
 11
229.88268
 21
58.01031999999999
 31
0.0
  0
ARC
  5
5D4
330
1E
100
AcDbEntity
  8
0
  6
CONTINUOUS
 62
     7
100
AcDbCircle
 10
229.8842
 20
-92.20036
 30
0.0
 40
2.610879999999998
100
AcDbArc
 50
50.0
 51
220.08
  0
ARC
  5
5D5
330
1E
100
AcDbEntity
  8
0
  6
CONTINUOUS
 62
     7
100
AcDbCircle
 10
230.45881
 20
-92.56615
 30
0.0
 40
2.610679999999999
100
AcDbArc
 50
65.00335000000001
 51
91.33931000000002
  0
ARC
  5
5D6
330
1E
100
AcDbEntity
  8
0
  6
CONTINUOUS
 62
     7
100
AcDbCircle
 10
229.4235299999999
 20
-91.69755
 30
0.0
 40
2.610679999999999
100
AcDbArc
 50
35.00334999999999
 51
61.33931
  0
ARC
  5
5D7
330
1E
100
AcDbEntity
  8
0
  6
CONTINUOUS
 62
     7
100
AcDbCircle
 10
229.3808399999999
 20
-91.74015
 30
0.0
 40
2.611079999999998
100
AcDbArc
 50
208.74334
 51
235.0752799999999
  0
ARC
  5
5D8
330
1E
100
AcDbEntity
  8
0
  6
CONTINUOUS
 62
     7
100
AcDbCircle
 10
230.2509899999999
 20
-92.77438999999999
 30
0.0
 40
2.611079999999998
100
AcDbArc
 50
178.7433399999999
 51
205.07528
  0
TEXT
  5
5D9
330
1E
100
AcDbEntity
  8
0
  6
CONTINUOUS
 62
     7
100
AcDbText
 10
225.5117799939438
 20
-91.60562906520413
 30
0.0
 40
3.2
  1
170°
 50
45.03
 41
0.8125
  7
BIGFONT
100
AcDbText
  0
LINE
  5
5DA
330
1E
100
AcDbEntity
  8
0
  6
CONTINUOUS
 62
     7
100
AcDbLine
 10
-167.1138
 20
-92.20215999999998
 30
0.0
 11
-160.7764799999999
 21
-84.64964
 31
0.0
  0
LINE
  5
5DB
330
1E
100
AcDbEntity
  8
0
  6
CONTINUOUS
 62
     7
100
AcDbLine
 10
-174.7764799999999
 20
-98.64964
 30
0.0
 11
-167.1138
 21
-92.20215999999998
 31
0.0
  0
LINE
  5
5DC
330
1E
100
AcDbEntity
  8
0
  6
CONTINUOUS
 62
     7
100
AcDbLine
 10
-44.94824
 20
-92.20144000000001
 30
0.0
 11
-38.61092
 21
-84.64891999999997
 31
0.0
  0
LINE
  5
5DD
330
1E
100
AcDbEntity
  8
0
  6
CONTINUOUS
 62
     7
100
AcDbLine
 10
-52.61091999999999
 20
-98.64892000000001
 30
0.0
 11
-44.94824
 21
-92.20144000000001
 31
0.0
  0
TEXT
  5
5EC
330
1E
100
AcDbEntity
  8
2
  6
CONTINUOUS
 62
     7
100
AcDbText
 10
-5.238999999999998
 20
-46.3112
 30
0.0
 40
5.0
  1
鉄筋表
  7
BIGFONT
100
AcDbText
  0
LINE
  5
61E
330
1E
100
AcDbEntity
  8
2
  6
CONTINUOUS
 62
     7
100
AcDbLine
 10
66.4421
 20
-142.3682
 30
0.0
 11
134.4421
 21
-142.3682
 31
0.0
  0
LINE
  5
61F
330
1E
100
AcDbEntity
  8
2
  6
CONTINUOUS
 62
     7
100
AcDbLine
 10
134.4421
 20
-167.3682
 30
0.0
 11
134.4421
 21
-142.3682
 31
0.0
  0
LINE
  5
620
330
1E
100
AcDbEntity
  8
2
  6
CONTINUOUS
 62
     7
100
AcDbLine
 10
66.4421
 20
-167.3682
 30
0.0
 11
134.4421
 21
-167.3682
 31
0.0
  0
LINE
  5
621
330
1E
100
AcDbEntity
  8
2
  6
CONTINUOUS
 62
     7
100
AcDbLine
 10
66.4421
 20
-167.3682
 30
0.0
 11
66.4421
 21
-142.3682
 31
0.0
  0
LINE
  5
622
330
1E
100
AcDbEntity
  8
2
  6
CONTINUOUS
 62
     7
100
AcDbLine
 10
66.4421
 20
-149.3681999999999
 30
0.0
 11
134.4421
 21
-149.3681999999999
 31
0.0
  0
LINE
  5
623
330
1E
100
AcDbEntity
  8
2
  6
CONTINUOUS
 62
     7
100
AcDbLine
 10
66.4421
 20
-155.3682
 30
0.0
 11
134.4421
 21
-155.3682
 31
0.0
  0
LINE
  5
624
330
1E
100
AcDbEntity
  8
2
  6
CONTINUOUS
 62
     7
100
AcDbLine
 10
66.4421
 20
-161.3682
 30
0.0
 11
134.4421
 21
-161.3682
 31
0.0
  0
LINE
  5
625
330
1E
100
AcDbEntity
  8
2
  6
CONTINUOUS
 62
     7
100
AcDbLine
 10
114.4420999999999
 20
-167.3682
 30
0.0
 11
114.4420999999999
 21
-149.3681999999999
 31
0.0
  0
TEXT
  5
626
330
1E
100
AcDbEntity
  8
2
  6
CONTINUOUS
 62
     7
100
AcDbText
 10
72.2886
 20
-154.3681999999999
 30
0.0
 40
4.0
  1
鉄　　筋
  7
BIGFONT
100
AcDbText
  0
TEXT
  5
627
330
1E
100
AcDbEntity
  8
2
  6
CONTINUOUS
 62
     7
100
AcDbText
 10
72.2886
 20
-160.3682
 30
0.0
 40
4.0
  1
コンクリート容積
  7
BIGFONT
100
AcDbText
  0
TEXT
  5
628
330
1E
100
AcDbEntity
  8
2
  6
CONTINUOUS
 62
     7
100
AcDbText
 10
72.2886
 20
-166.3682
 30
0.0
 40
4.0
  1
総　重　量
  7
BIGFONT
100
AcDbText
  0
TEXT
  5
629
330
1E
100
AcDbEntity
  8
2
  6
CONTINUOUS
 62
     7
100
AcDbText
 10
74.22
 20
-148.1526999999998
 30
0.0
 40
5.0
  1
重　量　内　訳　表
  7
BIGFONT
100
AcDbText
  0
TEXT
  5
62A
330
1E
100
AcDbEntity
  8
2
  6
CONTINUOUS
 62
     7
100
AcDbText
 10
115.1936
 20
-154.3681999999999
 30
0.0
 40
3.2
  1
127.22
 41
0.9
  7
BIGFONT
100
AcDbText
  0
TEXT
  5
62B
330
1E
100
AcDbEntity
  8
2
  6
CONTINUOUS
 62
     7
100
AcDbText
 10
129.5196
 20
-154.3681999999999
 30
0.0
 40
2.799999999999998
  1
ｋｇ
 41
0.7
  7
BIGFONT
100
AcDbText
  0
TEXT
  5
62C
330
1E
100
AcDbEntity
  8
2
  6
CONTINUOUS
 62
     7
100
AcDbText
 10
116.6935999999999
 20
-160.4968
 30
0.0
 40
3.2
  1
1.339
  7
BIGFONT
100
AcDbText
  0
TEXT
  5
62D
330
1E
100
AcDbEntity
  8
2
  6
CONTINUOUS
 62
     7
100
AcDbText
 10
117.5935999999999
 20
-166.4968
 30
0.0
 40
3.2
  1
3210
  7
BIGFONT
100
AcDbText
  0
TEXT
  5
62E
330
1E
100
AcDbEntity
  8
2
  6
CONTINUOUS
 62
     7
100
AcDbText
 10
129.4685
 20
-166.3682
 30
0.0
 40
2.799999999999998
  1
ｋｇ
 41
0.7
  7
BIGFONT
100
AcDbText
  0
TEXT
  5
62F
330
1E
100
AcDbEntity
  8
2
  6
CONTINUOUS
 62
     7
100
AcDbText
 10
129.7203
 20
-160.3682
 30
0.0
 40
2.799999999999998
  1
ｍ
 41
0.7
  7
BIGFONT
100
AcDbText
  0
TEXT
  5
630
330
1E
100
AcDbEntity
  8
2
  6
CONTINUOUS
 62
     7
100
AcDbText
 10
131.4448622997007
 20
-159.165
 30
0.0
 40
1.199999999999999
  1
３
 41
0.8
  7
BIGFONT
100
AcDbText
  0
LINE
  5
6F9
330
1E
100
AcDbEntity
  8
2
  6
CONTINUOUS
 62
     7
100
AcDbLine
 10
-12.55790000000001
 20
-49.3682
 30
0.0
 11
134.4420999999996
 21
-49.3682
 31
0.0
  0
LINE
  5
6FA
330
1E
100
AcDbEntity
  8
2
  6
CONTINUOUS
 62
     7
100
AcDbLine
 10
-12.55790000000001
 20
-65.3682
 30
0.0
 11
134.4420999999996
 21
-65.3682
 31
0.0
  0
LINE
  5
6FB
330
1E
100
AcDbEntity
  8
2
  6
CONTINUOUS
 62
     7
100
AcDbLine
 10
-12.55790000000001
 20
-57.3682
 30
0.0
 11
134.4420999999996
 21
-57.3682
 31
0.0
  0
LINE
  5
6FC
330
1E
100
AcDbEntity
  8
2
  6
CONTINUOUS
 62
     7
100
AcDbLine
 10
-12.55790000000001
 20
-104.3681999999998
 30
0.0
 11
134.4420999999996
 21
-104.3681999999998
 31
0.0
  0
LINE
  5
6FD
330
1E
100
AcDbEntity
  8
2
  6
CONTINUOUS
 62
     7
100
AcDbLine
 10
-12.55790000000001
 20
-83.36820000000001
 30
0.0
 11
134.4420999999996
 21
-83.36820000000001
 31
0.0
  0
LINE
  5
6FE
330
1E
100
AcDbEntity
  8
2
  6
CONTINUOUS
 62
     7
100
AcDbLine
 10
-12.55790000000001
 20
-96.3682
 30
0.0
 11
134.4420999999996
 21
-96.3682
 31
0.0
  0
LINE
  5
6FF
330
1E
100
AcDbEntity
  8
2
  6
CONTINUOUS
 62
     7
100
AcDbLine
 10
-12.55790000000001
 20
-112.3681999999996
 30
0.0
 11
134.4420999999996
 21
-112.3681999999996
 31
0.0
  0
LINE
  5
700
330
1E
100
AcDbEntity
  8
2
  6
CONTINUOUS
 62
     7
100
AcDbLine
 10
-12.55790000000001
 20
-120.3682
 30
0.0
 11
134.4420999999996
 21
-120.3682
 31
0.0
  0
LINE
  5
701
330
1E
100
AcDbEntity
  8
2
  6
CONTINUOUS
 62
     7
100
AcDbLine
 10
-12.55790000000001
 20
-128.3681999999999
 30
0.0
 11
134.4420999999996
 21
-128.3681999999999
 31
0.0
  0
LINE
  5
702
330
1E
100
AcDbEntity
  8
2
  6
CONTINUOUS
 62
     7
100
AcDbLine
 10
-12.55790000000001
 20
-136.3681999999998
 30
0.0
 11
134.4420999999996
 21
-136.3681999999998
 31
0.0
  0
LINE
  5
704
330
1E
100
AcDbEntity
  8
2
  6
CONTINUOUS
 62
     7
100
AcDbLine
 10
-12.55790000000001
 20
-136.3681999999998
 30
0.0
 11
-12.55790000000001
 21
-104.3681999999998
 31
0.0
  0
LINE
  5
705
330
1E
100
AcDbEntity
  8
2
  6
CONTINUOUS
 62
     7
100
AcDbLine
 10
-12.55790000000001
 20
-104.3681999999998
 30
0.0
 11
-12.55790000000001
 21
-65.3682
 31
0.0
  0
TEXT
  5
706
330
1E
100
AcDbEntity
  8
2
  6
CONTINUOUS
 62
     7
100
AcDbText
 10
-9.111800000000011
 20
-101.8539
 30
0.0
 40
3.5
  1
４
  7
BIGFONT
100
AcDbText
  0
TEXT
  5
707
330
1E
100
AcDbEntity
  8
2
  6
CONTINUOUS
 62
     7
100
AcDbText
 10
-9.111800000000011
 20
-117.8538999999998
 30
0.0
 40
3.5
  1
６
  7
BIGFONT
100
AcDbText
  0
TEXT
  5
708
330
1E
100
AcDbEntity
  8
2
  6
CONTINUOUS
 62
     7
100
AcDbText
 10
-9.111800000000011
 20
-125.8539
 30
0.0
 40
3.5
  1
７
  7
BIGFONT
100
AcDbText
  0
TEXT
  5
709
330
1E
100
AcDbEntity
  8
2
  6
CONTINUOUS
 62
     7
100
AcDbText
 10
-9.111800000000011
 20
-109.8538999999999
 30
0.0
 40
3.5
  1
５
  7
BIGFONT
100
AcDbText
  0
TEXT
  5
70A
330
1E
100
AcDbEntity
  8
2
  6
CONTINUOUS
 62
     7
100
AcDbText
 10
-9.07650000000001
 20
-88.7353
 30
0.0
 40
3.5
  1
３
  7
BIGFONT
100
AcDbText
  0
TEXT
  5
70B
330
1E
100
AcDbEntity
  8
2
  6
CONTINUOUS
 62
     7
100
AcDbText
 10
-9.07650000000001
 20
-71.23529999999998
 30
0.0
 40
3.5
  1
２
  7
BIGFONT
100
AcDbText
  0
LINE
  5
70C
330
1E
100
AcDbEntity
  8
2
  6
CONTINUOUS
 62
     7
100
AcDbLine
 10
-12.55790000000001
 20
-65.3682
 30
0.0
 11
-12.55790000000001
 21
-49.3682
 31
0.0
  0
TEXT
  5
70D
330
1E
100
AcDbEntity
  8
2
  6
CONTINUOUS
 62
     7
100
AcDbText
 10
-9.111800000000011
 20
-62.85390000000001
 30
0.0
 40
3.5
  1
１
  7
BIGFONT
100
AcDbText
  0
TEXT
  5
70E
330
1E
100
AcDbEntity
  8
2
  6
CONTINUOUS
 62
     7
100
AcDbText
 10
-11.8351
 20
-55.69740000000002
 30
0.0
 40
4.0
  1
番号
  7
BIGFONT
100
AcDbText
  0
TEXT
  5
70F
330
1E
100
AcDbEntity
  8
2
  6
CONTINUOUS
 62
     7
100
AcDbText
 10
128.0920727605088
 20
-134.6256999999999
 30
0.0
 40
3.2
  1
ｋｇ
 41
0.8
  7
BIGFONT
100
AcDbText
  0
TEXT
  5
710
330
1E
100
AcDbEntity
  8
2
  6
CONTINUOUS
 62
     7
100
AcDbText
 10
111.9874999999997
 20
-134.6256999999999
 30
0.0
 40
3.2
  1
127.22
  7
BIGFONT
100
AcDbText
  0
TEXT
  5
711
330
1E
100
AcDbEntity
  8
2
  6
CONTINUOUS
 62
     7
100
AcDbText
 10
82.17689999999993
 20
-134.6256999999999
 30
0.0
 40
4.0
  1
合計
  7
BIGFONT
100
AcDbText
  0
LINE
  5
712
330
1E
100
AcDbEntity
  8
2
  6
CONTINUOUS
 62
     7
100
AcDbLine
 10
99.44209999999987
 20
-136.3681999999998
 30
0.0
 11
99.44209999999987
 21
-49.3682
 31
0.0
  0
LINE
  5
713
330
1E
100
AcDbEntity
  8
2
  6
CONTINUOUS
 62
     7
100
AcDbLine
 10
134.4420999999996
 20
-136.3681999999998
 30
0.0
 11
134.4420999999996
 21
-104.3681999999998
 31
0.0
  0
TEXT
  5
714
330
1E
100
AcDbEntity
  8
2
  6
CONTINUOUS
 62
     7
100
AcDbText
 10
85.21016550422723
 20
-81.9069044033449
 30
0.0
 40
3.5
  1
1738
  7
BIGFONT
100
AcDbText
  0
TEXT
  5
715
330
1E
100
AcDbEntity
  8
2
  6
CONTINUOUS
 62
     7
100
AcDbText
 10
88.14549999999995
 20
-55.91159999999999
 30
0.0
 40
4.0
  1
Ｌ
  7
BIGFONT
100
AcDbText
  0
TEXT
  5
716
330
1E
100
AcDbEntity
  8
2
  6
CONTINUOUS
 62
     7
100
AcDbText
 10
85.56103276430055
 20
-62.89179999999999
 30
0.0
 40
3.5
  1
2018
  7
BIGFONT
100
AcDbText
  0
TEXT
  5
717
330
1E
100
AcDbEntity
  8
2
  6
CONTINUOUS
 62
     7
100
AcDbText
 10
85.21016550422723
 20
-70.07982932312746
 30
0.0
 40
3.5
  1
1428
  7
BIGFONT
100
AcDbText
  0
TEXT
  5
718
330
1E
100
AcDbEntity
  8
2
  6
CONTINUOUS
 62
     7
100
AcDbText
 10
85.21016550422723
 20
-88.07982932312745
 30
0.0
 40
3.5
  1
1945
  7
BIGFONT
100
AcDbText
  0
TEXT
  5
719
330
1E
100
AcDbEntity
  8
2
  6
CONTINUOUS
 62
     7
100
AcDbText
 10
83.97675985707634
 20
-94.59038950402726
 30
0.0
 40
3.5
  1
2755
  7
BIGFONT
100
AcDbText
  0
TEXT
  5
71A
330
1E
100
AcDbEntity
  8
2
  6
CONTINUOUS
 62
     7
100
AcDbText
 10
85.21016550422723
 20
-76.59038950402726
 30
0.0
 40
3.5
  1
1628
  7
BIGFONT
100
AcDbText
  0
TEXT
  5
71B
330
1E
100
AcDbEntity
  8
2
  6
CONTINUOUS
 62
     7
100
AcDbText
 10
87.51227154924867
 20
-101.8917999999995
 30
0.0
 40
3.5
  1
549
  7
BIGFONT
100
AcDbText
  0
TEXT
  5
71C
330
1E
100
AcDbEntity
  8
2
  6
CONTINUOUS
 62
     7
100
AcDbText
 10
87.52300644163744
 20
-125.8917999999999
 30
0.0
 40
3.5
  1
482
  7
BIGFONT
100
AcDbText
  0
TEXT
  5
71D
330
1E
100
AcDbEntity
  8
2
  6
CONTINUOUS
 62
     7
100
AcDbText
 10
85.20077386873685
 20
-117.8917999999999
 30
0.0
 40
3.5
  1
3195
  7
BIGFONT
100
AcDbText
  0
TEXT
  5
71E
330
1E
100
AcDbEntity
  8
2
  6
CONTINUOUS
 62
     7
100
AcDbText
 10
85.21016550422723
 20
-109.8917999999999
 30
0.0
 40
3.5
  1
3097
  7
BIGFONT
100
AcDbText
  0
LINE
  5
71F
330
1E
100
AcDbEntity
  8
2
  6
CONTINUOUS
 62
     7
100
AcDbLine
 10
12.44209999999998
 20
-128.3681999999999
 30
0.0
 11
12.44209999999998
 21
-49.3682
 31
0.0
  0
LINE
  5
720
330
1E
100
AcDbEntity
  8
2
  6
CONTINUOUS
 62
     7
100
AcDbLine
 10
81.44209999999999
 20
-128.3681999999999
 30
0.0
 11
81.44209999999999
 21
-49.3682
 31
0.0
  0
LINE
  5
721
330
1E
100
AcDbEntity
  8
2
  6
CONTINUOUS
 62
     7
100
AcDbLine
 10
66.44209999999998
 20
-128.3681999999999
 30
0.0
 11
66.44209999999998
 21
-49.3682
 31
0.0
  0
LINE
  5
722
330
1E
100
AcDbEntity
  8
2
  6
CONTINUOUS
 62
     7
100
AcDbLine
 10
48.44209999999998
 20
-128.3681999999999
 30
0.0
 11
48.44209999999998
 21
-49.3682
 31
0.0
  0
LINE
  5
723
330
1E
100
AcDbEntity
  8
2
  6
CONTINUOUS
 62
     7
100
AcDbLine
 10
30.44209999999998
 20
-128.3681999999999
 30
0.0
 11
30.44209999999998
 21
-49.3682
 31
0.0
  0
LINE
  5
724
330
1E
100
AcDbEntity
  8
2
  6
CONTINUOUS
 62
     7
100
AcDbLine
 10
-2.557900000000016
 20
-128.3681999999999
 30
0.0
 11
-2.557900000000016
 21
-49.3682
 31
0.0
  0
TEXT
  5
725
330
1E
100
AcDbEntity
  8
2
  6
CONTINUOUS
 62
     7
100
AcDbText
 10
38.15319154709936
 20
-81.70482444617983
 30
0.0
 40
3.5
  1
57
  7
BIGFONT
100
AcDbText
  0
TEXT
  5
726
330
1E
100
AcDbEntity
  8
2
  6
CONTINUOUS
 62
     7
100
AcDbText
 10
38.15319154709936
 20
-70.50975091359839
 30
0.0
 40
3.5
  1
57
  7
BIGFONT
100
AcDbText
  0
TEXT
  5
727
330
1E
100
AcDbEntity
  8
2
  6
CONTINUOUS
 62
     7
100
AcDbText
 10
38.15319154709936
 20
-94.38830954686215
 30
0.0
 40
3.5
  1
55
  7
BIGFONT
100
AcDbText
  0
TEXT
  5
728
330
1E
100
AcDbEntity
  8
2
  6
CONTINUOUS
 62
     7
100
AcDbText
 10
38.15319154709936
 20
-88.5097509135984
 30
0.0
 40
3.5
  1
55
  7
BIGFONT
100
AcDbText
  0
TEXT
  5
729
330
1E
100
AcDbEntity
  8
2
  6
CONTINUOUS
 62
     7
100
AcDbText
 10
38.15319154709936
 20
-76.38830954686216
 30
0.0
 40
3.5
  1
57
  7
BIGFONT
100
AcDbText
  0
TEXT
  5
72A
330
1E
100
AcDbEntity
  8
2
  6
CONTINUOUS
 62
     7
100
AcDbText
 10
38.15319154709936
 20
-109.8917999999999
 30
0.0
 40
3.5
  1
57
  7
BIGFONT
100
AcDbText
  0
TEXT
  5
72B
330
1E
100
AcDbEntity
  8
2
  6
CONTINUOUS
 62
     7
100
AcDbText
 10
35.85658306665596
 20
-101.8917999999995
 30
0.0
 40
3.5
  1
341
  7
BIGFONT
100
AcDbText
  0
TEXT
  5
72C
330
1E
100
AcDbEntity
  8
2
  6
CONTINUOUS
 62
     7
100
AcDbText
 10
42.14203794601529
 20
-125.8917999999999
 30
0.0
 40
3.5
  1
0
  7
BIGFONT
100
AcDbText
  0
TEXT
  5
72D
330
1E
100
AcDbEntity
  8
2
  6
CONTINUOUS
 62
     7
100
AcDbText
 10
38.15319154709936
 20
-117.8917999999999
 30
0.0
 40
3.5
  1
55
  7
BIGFONT
100
AcDbText
  0
TEXT
  5
72E
330
1E
100
AcDbEntity
  8
2
  6
CONTINUOUS
 62
     7
100
AcDbText
 10
21.29192941860787
 20
-101.8917999999995
 30
0.0
 40
3.5
  1
104
  7
BIGFONT
100
AcDbText
  0
TEXT
  5
72F
330
1E
100
AcDbEntity
  8
2
  6
CONTINUOUS
 62
     7
100
AcDbText
 10
0.8881999999999834
 20
-101.8539
 30
0.0
 40
3.5
  1
D13
  7
BIGFONT
100
AcDbText
  0
TEXT
  5
730
330
1E
100
AcDbEntity
  8
2
  6
CONTINUOUS
 62
     7
100
AcDbText
 10
17.41571425204597
 20
-109.8917999999999
 30
0.0
 40
3.5
  1
1520
  7
BIGFONT
100
AcDbText
  0
TEXT
  5
731
330
1E
100
AcDbEntity
  8
2
  6
CONTINUOUS
 62
     7
100
AcDbText
 10
17.55316492347787
 20
-117.8917999999999
 30
0.0
 40
3.5
  1
1570
  7
BIGFONT
100
AcDbText
  0
TEXT
  5
732
330
1E
100
AcDbEntity
  8
2
  6
CONTINUOUS
 62
     7
100
AcDbText
 10
0.8881999999999834
 20
-117.8538999999998
 30
0.0
 40
3.5
  1
D10
  7
BIGFONT
100
AcDbText
  0
TEXT
  5
733
330
1E
100
AcDbEntity
  8
2
  6
CONTINUOUS
 62
     7
100
AcDbText
 10
0.8881999999999834
 20
-125.8539
 30
0.0
 40
3.5
  1
D10
  7
BIGFONT
100
AcDbText
  0
TEXT
  5
734
330
1E
100
AcDbEntity
  8
2
  6
CONTINUOUS
 62
     7
100
AcDbText
 10
0.8881999999999834
 20
-109.8538999999999
 30
0.0
 40
3.5
  1
D13
  7
BIGFONT
100
AcDbText
  0
TEXT
  5
735
330
1E
100
AcDbEntity
  8
2
  6
CONTINUOUS
 62
     7
100
AcDbText
 10
19.5608484051688
 20
-125.8917999999999
 30
0.0
 40
3.5
  1
482
  7
BIGFONT
100
AcDbText
  0
TEXT
  5
736
330
1E
100
AcDbEntity
  8
2
  6
CONTINUOUS
 62
     7
100
AcDbText
 10
17.05639056883885
 20
-81.70482444617983
 30
0.0
 40
3.5
  1
1577
  7
BIGFONT
100
AcDbText
  0
TEXT
  5
737
330
1E
100
AcDbEntity
  8
2
  6
CONTINUOUS
 62
     7
100
AcDbText
 10
19.8096616293435
 20
-88.5097509135984
 30
0.0
 40
3.5
  1
770
  7
BIGFONT
100
AcDbText
  0
TEXT
  5
738
330
1E
100
AcDbEntity
  8
2
  6
CONTINUOUS
 62
     7
100
AcDbText
 10
17.55596492573909
 20
-94.38830954686215
 30
0.0
 40
3.5
  1
1580
  7
BIGFONT
100
AcDbText
  0
TEXT
  5
739
330
1E
100
AcDbEntity
  8
2
  6
CONTINUOUS
 62
     7
100
AcDbText
 10
17.33273125710297
 20
-76.38830954686216
 30
0.0
 40
3.5
  1
1467
  7
BIGFONT
100
AcDbText
  0
TEXT
  5
73A
330
1E
100
AcDbEntity
  8
2
  6
CONTINUOUS
 62
     7
100
AcDbText
 10
17.33520381723951
 20
-70.50975091359839
 30
0.0
 40
3.5
  1
1267
  7
BIGFONT
100
AcDbText
  0
TEXT
  5
73B
330
1E
100
AcDbEntity
  8
2
  6
CONTINUOUS
 62
     7
100
AcDbText
 10
0.9234999999999899
 20
-93.42859999999999
 30
0.0
 40
3.5
  1
D10
  7
BIGFONT
100
AcDbText
  0
TEXT
  5
73C
330
1E
100
AcDbEntity
  8
2
  6
CONTINUOUS
 62
     7
100
AcDbText
 10
0.9234999999999899
 20
-88.7353
 30
0.0
 40
3.5
  1
D10
  7
BIGFONT
100
AcDbText
  0
TEXT
  5
73D
330
1E
100
AcDbEntity
  8
2
  6
CONTINUOUS
 62
     7
100
AcDbText
 10
0.9234999999999899
 20
-81.24511489931768
 30
0.0
 40
3.5
  1
D13
  7
BIGFONT
100
AcDbText
  0
TEXT
  5
73E
330
1E
100
AcDbEntity
  8
2
  6
CONTINUOUS
 62
     7
100
AcDbText
 10
0.9234999999999899
 20
-75.92860000000001
 30
0.0
 40
3.5
  1
D13
  7
BIGFONT
100
AcDbText
  0
TEXT
  5
73F
330
1E
100
AcDbEntity
  8
2
  6
CONTINUOUS
 62
     7
100
AcDbText
 10
0.9234999999999899
 20
-71.23529999999998
 30
0.0
 40
3.5
  1
D13
  7
BIGFONT
100
AcDbText
  0
TEXT
  5
740
330
1E
100
AcDbEntity
  8
2
  6
CONTINUOUS
 62
     7
100
AcDbText
 10
74.42817511317048
 20
-101.8917999999995
 30
0.0
 40
3.5
  1
0
  7
BIGFONT
100
AcDbText
  0
TEXT
  5
741
330
1E
100
AcDbEntity
  8
2
  6
CONTINUOUS
 62
     7
100
AcDbText
 10
55.0806920545158
 20
-101.8917999999995
 30
0.0
 40
3.5
  1
104
  7
BIGFONT
100
AcDbText
  0
TEXT
  5
742
330
1E
100
AcDbEntity
  8
2
  6
CONTINUOUS
 62
     7
100
AcDbText
 10
51.53592068952161
 20
-117.8917999999999
 30
0.0
 40
3.5
  1
1570
  7
BIGFONT
100
AcDbText
  0
TEXT
  5
743
330
1E
100
AcDbEntity
  8
2
  6
CONTINUOUS
 62
     7
100
AcDbText
 10
60.89485355243619
 20
-125.8917999999999
 30
0.0
 40
3.5
  1
0
  7
BIGFONT
100
AcDbText
  0
TEXT
  5
744
330
1E
100
AcDbEntity
  8
2
  6
CONTINUOUS
 62
     7
100
AcDbText
 10
51.53592068952161
 20
-109.8917999999999
 30
0.0
 40
3.5
  1
1520
  7
BIGFONT
100
AcDbText
  0
TEXT
  5
745
330
1E
100
AcDbEntity
  8
2
  6
CONTINUOUS
 62
     7
100
AcDbText
 10
70.90218515869151
 20
-117.8917999999999
 30
0.0
 40
3.5
  1
30
  7
BIGFONT
100
AcDbText
  0
TEXT
  5
746
330
1E
100
AcDbEntity
  8
2
  6
CONTINUOUS
 62
     7
100
AcDbText
 10
74.42817511317038
 20
-125.8917999999999
 30
0.0
 40
3.5
  1
0
  7
BIGFONT
100
AcDbText
  0
TEXT
  5
747
330
1E
100
AcDbEntity
  8
2
  6
CONTINUOUS
 62
     7
100
AcDbText
 10
70.90218515869151
 20
-109.8917999999999
 30
0.0
 40
3.5
  1
30
  7
BIGFONT
100
AcDbText
  0
TEXT
  5
748
330
1E
100
AcDbEntity
  8
2
  6
CONTINUOUS
 62
     7
100
AcDbText
 10
52.95817486126246
 20
-88.5097509135984
 30
0.0
 40
3.5
  1
1120
  7
BIGFONT
100
AcDbText
  0
TEXT
  5
749
330
1E
100
AcDbEntity
  8
2
  6
CONTINUOUS
 62
     7
100
AcDbText
 10
52.95817486126246
 20
-94.38830954686215
 30
0.0
 40
3.5
  1
1120
  7
BIGFONT
100
AcDbText
  0
TEXT
  5
74A
330
1E
100
AcDbEntity
  8
2
  6
CONTINUOUS
 62
     7
100
AcDbText
 10
55.06191064400059
 20
-81.70482444617983
 30
0.0
 40
3.5
  1
104
  7
BIGFONT
100
AcDbText
  0
TEXT
  5
74B
330
1E
100
AcDbEntity
  8
2
  6
CONTINUOUS
 62
     7
100
AcDbText
 10
55.06191064400059
 20
-70.50975091359839
 30
0.0
 40
3.5
  1
104
  7
BIGFONT
100
AcDbText
  0
TEXT
  5
74C
330
1E
100
AcDbEntity
  8
2
  6
CONTINUOUS
 62
     7
100
AcDbText
 10
55.06191064400059
 20
-76.38830954686216
 30
0.0
 40
3.5
  1
104
  7
BIGFONT
100
AcDbText
  0
TEXT
  5
74D
330
1E
100
AcDbEntity
  8
2
  6
CONTINUOUS
 62
     7
100
AcDbText
 10
70.90218515869151
 20
-94.59038950402726
 30
0.0
 40
3.5
  1
30
  7
BIGFONT
100
AcDbText
  0
TEXT
  5
74E
330
1E
100
AcDbEntity
  8
2
  6
CONTINUOUS
 62
     7
100
AcDbText
 10
70.90218515869151
 20
-88.07982932312745
 30
0.0
 40
3.5
  1
30
  7
BIGFONT
100
AcDbText
  0
TEXT
  5
74F
330
1E
100
AcDbEntity
  8
2
  6
CONTINUOUS
 62
     7
100
AcDbText
 10
70.90218515869151
 20
-76.59038950402726
 30
0.0
 40
3.5
  1
30
  7
BIGFONT
100
AcDbText
  0
TEXT
  5
750
330
1E
100
AcDbEntity
  8
2
  6
CONTINUOUS
 62
     7
100
AcDbText
 10
70.90218515869151
 20
-81.9069044033449
 30
0.0
 40
3.5
  1
30
  7
BIGFONT
100
AcDbText
  0
TEXT
  5
751
330
1E
100
AcDbEntity
  8
2
  6
CONTINUOUS
 62
     7
100
AcDbText
 10
70.90218515869151
 20
-70.07982932312746
 30
0.0
 40
3.5
  1
30
  7
BIGFONT
100
AcDbText
  0
TEXT
  5
752
330
1E
100
AcDbEntity
  8
2
  6
CONTINUOUS
 62
     7
100
AcDbText
 10
35.88469999999995
 20
-55.91159999999999
 30
0.0
 40
4.0
  1
Ｌ２
  7
BIGFONT
100
AcDbText
  0
TEXT
  5
753
330
1E
100
AcDbEntity
  8
2
  6
CONTINUOUS
 62
     7
100
AcDbText
 10
38.15319154709936
 20
-62.89179999999999
 30
0.0
 40
3.5
  1
57
  7
BIGFONT
100
AcDbText
  0
TEXT
  5
754
330
1E
100
AcDbEntity
  8
2
  6
CONTINUOUS
 62
     7
100
AcDbText
 10
18.18589999999994
 20
-55.87619999999998
 30
0.0
 40
4.0
  1
Ｌ１
  7
BIGFONT
100
AcDbText
  0
TEXT
  5
755
330
1E
100
AcDbEntity
  8
2
  6
CONTINUOUS
 62
     7
100
AcDbText
 10
17.24238468265798
 20
-62.89179999999999
 30
0.0
 40
3.5
  1
1857
  7
BIGFONT
100
AcDbText
  0
TEXT
  5
756
330
1E
100
AcDbEntity
  8
2
  6
CONTINUOUS
 62
     7
100
AcDbText
 10
0.8881999999999834
 20
-62.85390000000001
 30
0.0
 40
3.5
  1
D13
  7
BIGFONT
100
AcDbText
  0
TEXT
  5
757
330
1E
100
AcDbEntity
  8
2
  6
CONTINUOUS
 62
     7
100
AcDbText
 10
3.204899999999951
 20
-55.87310000000002
 30
0.0
 40
4.0
  1
径
  7
BIGFONT
100
AcDbText
  0
TEXT
  5
758
330
1E
100
AcDbEntity
  8
2
  6
CONTINUOUS
 62
     7
100
AcDbText
 10
53.07420000000002
 20
-55.8407
 30
0.0
 40
4.0
  1
Ｌ３
  7
BIGFONT
100
AcDbText
  0
TEXT
  5
759
330
1E
100
AcDbEntity
  8
2
  6
CONTINUOUS
 62
     7
100
AcDbText
 10
55.06191064400059
 20
-62.89179999999999
 30
0.0
 40
3.5
  1
104
  7
BIGFONT
100
AcDbText
  0
TEXT
  5
75A
330
1E
100
AcDbEntity
  8
2
  6
CONTINUOUS
 62
     7
100
AcDbText
 10
70.90218515869151
 20
-62.89179999999999
 30
0.0
 40
3.5
  1
30
  7
BIGFONT
100
AcDbText
  0
TEXT
  5
75B
330
1E
100
AcDbEntity
  8
2
  6
CONTINUOUS
 62
     7
100
AcDbText
 10
72.24440000000004
 20
-55.87619999999998
 30
0.0
 40
4.0
  1
Ｒ
  7
BIGFONT
100
AcDbText
  0
LINE
  5
75C
330
1E
100
AcDbEntity
  8
2
  6
CONTINUOUS
 62
     7
100
AcDbLine
 10
134.4420999999996
 20
-104.3681999999998
 30
0.0
 11
134.4420999999996
 21
-65.3682
 31
0.0
  0
LINE
  5
75D
330
1E
100
AcDbEntity
  8
2
  6
CONTINUOUS
 62
     7
100
AcDbLine
 10
114.4420999999999
 20
-128.3681999999999
 30
0.0
 11
114.4420999999999
 21
-49.3682
 31
0.0
  0
TEXT
  5
75E
330
1E
100
AcDbEntity
  8
2
  6
CONTINUOUS
 62
     7
100
AcDbText
 10
120.7049680854636
 20
-101.8917999999995
 30
0.0
 40
3.5
  1
6.56
  7
BIGFONT
100
AcDbText
  0
TEXT
  5
75F
330
1E
100
AcDbEntity
  8
2
  6
CONTINUOUS
 62
     7
100
AcDbText
 10
103.8818192694682
 20
-101.8917999999995
 30
0.0
 40
3.5
  1
12
  7
BIGFONT
100
AcDbText
  0
TEXT
  5
760
330
1E
100
AcDbEntity
  8
2
  6
CONTINUOUS
 62
     7
100
AcDbText
 10
105.8263492117893
 20
-117.8917999999999
 30
0.0
 40
3.5
  1
4
  7
BIGFONT
100
AcDbText
  0
TEXT
  5
761
330
1E
100
AcDbEntity
  8
2
  6
CONTINUOUS
 62
     7
100
AcDbText
 10
106.7035182922059
 20
-125.8917999999999
 30
0.0
 40
3.5
  1
1
  7
BIGFONT
100
AcDbText
  0
TEXT
  5
762
330
1E
100
AcDbEntity
  8
2
  6
CONTINUOUS
 62
     7
100
AcDbText
 10
105.8263492117893
 20
-109.8917999999999
 30
0.0
 40
3.5
  1
8
  7
BIGFONT
100
AcDbText
  0
TEXT
  5
763
330
1E
100
AcDbEntity
  8
2
  6
CONTINUOUS
 62
     7
100
AcDbText
 10
120.7049680854636
 20
-117.8917999999999
 30
0.0
 40
3.5
  1
7.16
  7
BIGFONT
100
AcDbText
  0
TEXT
  5
764
330
1E
100
AcDbEntity
  8
2
  6
CONTINUOUS
 62
     7
100
AcDbText
 10
121.3964923648064
 20
-125.8917999999999
 30
0.0
 40
3.5
  1
0.27
  7
BIGFONT
100
AcDbText
  0
TEXT
  5
765
330
1E
100
AcDbEntity
  8
2
  6
CONTINUOUS
 62
     7
100
AcDbText
 10
117.2057857249535
 20
-109.8917999999999
 30
0.0
 40
3.5
  1
24.65
  7
BIGFONT
100
AcDbText
  0
TEXT
  5
766
330
1E
100
AcDbEntity
  8
2
  6
CONTINUOUS
 62
     7
100
AcDbText
 10
103.8965764906871
 20
-94.59038950402726
 30
0.0
 40
3.5
  1
10
  7
BIGFONT
100
AcDbText
  0
TEXT
  5
767
330
1E
100
AcDbEntity
  8
2
  6
CONTINUOUS
 62
     7
100
AcDbText
 10
105.8263492117893
 20
-88.07982932312745
 30
0.0
 40
3.5
  1
8
  7
BIGFONT
100
AcDbText
  0
TEXT
  5
768
330
1E
100
AcDbEntity
  8
2
  6
CONTINUOUS
 62
     7
100
AcDbText
 10
105.8263492117893
 20
-76.59038950402726
 30
0.0
 40
3.5
  1
2
  7
BIGFONT
100
AcDbText
  0
TEXT
  5
769
330
1E
100
AcDbEntity
  8
2
  6
CONTINUOUS
 62
     7
100
AcDbText
 10
103.8818192694682
 20
-81.9069044033449
 30
0.0
 40
3.5
  1
14
  7
BIGFONT
100
AcDbText
  0
TEXT
  5
76A
330
1E
100
AcDbEntity
  8
2
  6
CONTINUOUS
 62
     7
100
AcDbText
 10
105.8263492117893
 20
-70.07982932312746
 30
0.0
 40
3.5
  1
2
  7
BIGFONT
100
AcDbText
  0
TEXT
  5
76B
330
1E
100
AcDbEntity
  8
2
  6
CONTINUOUS
 62
     7
100
AcDbText
 10
120.7049680854636
 20
-88.07982932312745
 30
0.0
 40
3.5
  1
8.71
  7
BIGFONT
100
AcDbText
  0
TEXT
  5
76C
330
1E
100
AcDbEntity
  8
2
  6
CONTINUOUS
 62
     7
100
AcDbText
 10
118.3202387179095
 20
-94.59038950402726
 30
0.0
 40
3.5
  1
15.43
  7
BIGFONT
100
AcDbText
  0
TEXT
  5
76D
330
1E
100
AcDbEntity
  8
2
  6
CONTINUOUS
 62
     7
100
AcDbText
 10
117.2187010842199
 20
-81.9069044033449
 30
0.0
 40
3.5
  1
24.22
  7
BIGFONT
100
AcDbText
  0
TEXT
  5
76E
330
1E
100
AcDbEntity
  8
2
  6
CONTINUOUS
 62
     7
100
AcDbText
 10
120.7049680854636
 20
-70.07982932312746
 30
0.0
 40
3.5
  1
2.84
  7
BIGFONT
100
AcDbText
  0
TEXT
  5
76F
330
1E
100
AcDbEntity
  8
2
  6
CONTINUOUS
 62
     7
100
AcDbText
 10
120.7049680854636
 20
-76.59038950402726
 30
0.0
 40
3.5
  1
3.24
  7
BIGFONT
100
AcDbText
  0
TEXT
  5
770
330
1E
100
AcDbEntity
  8
2
  6
CONTINUOUS
 62
     7
100
AcDbText
 10
103.8818192694682
 20
-62.89179999999999
 30
0.0
 40
3.5
  1
17
  7
BIGFONT
100
AcDbText
  0
TEXT
  5
771
330
1E
100
AcDbEntity
  8
2
  6
CONTINUOUS
 62
     7
100
AcDbText
 10
102.0980999999999
 20
-55.7731
 30
0.0
 40
4.0
  1
本数
  7
BIGFONT
100
AcDbText
  0
LINE
  5
772
330
1E
100
AcDbEntity
  8
2
  6
CONTINUOUS
 62
     7
100
AcDbLine
 10
134.4420999999996
 20
-65.3682
 30
0.0
 11
134.4420999999996
 21
-49.3682
 31
0.0
  0
TEXT
  5
773
330
1E
100
AcDbEntity
  8
2
  6
CONTINUOUS
 62
     7
100
AcDbText
 10
118.5410999999999
 20
-55.7732
 30
0.0
 40
4.0
  1
重量
  7
BIGFONT
100
AcDbText
  0
TEXT
  5
774
330
1E
100
AcDbEntity
  8
2
  6
CONTINUOUS
 62
     7
100
AcDbText
 10
117.2631941434042
 20
-62.89179999999999
 30
0.0
 40
3.5
  1
34.14
  7
BIGFONT
100
AcDbText
  0
ENDSEC
  0
SECTION
  2
OBJECTS
  0
DICTIONARY
  5
C
330
0
100
AcDbDictionary
  3
ACAD_GROUP
350
D
  3
ACAD_LAYOUT
350
19
  3
ACAD_MLINESTYLE
350
16
  3
ACAD_PLOTSETTINGS
350
18
1001
ACAD
1000
TREAT_AS_HARD
1070
     0
1000
TREAT_AS_HARD
1070
     0
1000
TREAT_AS_HARD
1070
     0
1000
TREAT_AS_HARD
1070
     0
1000
TREAT_AS_HARD
1070
     0
1000
TREAT_AS_HARD
1070
     0
  0
DICTIONARY
  5
781
330
1E
100
AcDbDictionary
  3
ACAD_LAYOUTSELFREF
350
7BE
1001
ACAD
1000
TREAT_AS_HARD
1070
     0
1000
TREAT_AS_HARD
1070
     0
1000
TREAT_AS_HARD
1070
     0
1000
TREAT_AS_HARD
1070
     0
1000
TREAT_AS_HARD
1070
     0
  0
DICTIONARY
  5
77F
330
1A
100
AcDbDictionary
  3
ACAD_LAYOUTSELFREF
350
7BD
1001
ACAD
1000
TREAT_AS_HARD
1070
     0
1000
TREAT_AS_HARD
1070
     0
1000
TREAT_AS_HARD
1070
     0
1000
TREAT_AS_HARD
1070
     0
1000
TREAT_AS_HARD
1070
     0
  0
DICTIONARY
  5
D
102
{ACAD_REACTORS
330
C
102
}
330
C
100
AcDbDictionary
1001
ACAD
1000
TREAT_AS_HARD
1070
     0
1000
TREAT_AS_HARD
1070
     0
1000
TREAT_AS_HARD
1070
     0
1000
TREAT_AS_HARD
1070
     0
1000
TREAT_AS_HARD
1070
     0
1000
TREAT_AS_HARD
1070
     0
  0
DICTIONARY
  5
19
102
{ACAD_REACTORS
330
C
102
}
330
C
100
AcDbDictionary
1001
ACAD
1000
TREAT_AS_HARD
1070
     0
1000
TREAT_AS_HARD
1070
     0
1000
TREAT_AS_HARD
1070
     0
1000
TREAT_AS_HARD
1070
     0
1000
TREAT_AS_HARD
1070
     0
1000
TREAT_AS_HARD
1070
     0
  0
DICTIONARY
  5
16
102
{ACAD_REACTORS
330
C
102
}
330
C
100
AcDbDictionary
  3
STANDARD
350
17
1001
ACAD
1000
TREAT_AS_HARD
1070
     0
1000
TREAT_AS_HARD
1070
     0
1000
TREAT_AS_HARD
1070
     0
1000
TREAT_AS_HARD
1070
     0
1000
TREAT_AS_HARD
1070
     0
1000
TREAT_AS_HARD
1070
     0
  0
DICTIONARY
  5
18
102
{ACAD_REACTORS
330
C
102
}
330
C
100
AcDbDictionary
1001
ACAD
1000
TREAT_AS_HARD
1070
     0
1000
TREAT_AS_HARD
1070
     0
1000
TREAT_AS_HARD
1070
     0
1000
TREAT_AS_HARD
1070
     0
1000
TREAT_AS_HARD
1070
     0
1000
TREAT_AS_HARD
1070
     0
  0
XRECORD
  5
7BE
102
{ACAD_REACTORS
330
781
102
}
330
781
100
AcDbXrecord
340
1E
  0
XRECORD
  5
7BD
102
{ACAD_REACTORS
330
77F
102
}
330
77F
100
AcDbXrecord
340
1A
  0
MLINESTYLE
  5
17
102
{ACAD_REACTORS
330
16
102
}
330
16
100
AcDbMlineStyle
  2
STANDARD
 70
     0
  3

 62
   256
 51
90.0
 52
90.0
 71
     2
 49
0.5
 62
   256
  6
BYLAYER
 49
-0.5
 62
   256
  6
BYLAYER
  0
ENDSEC
  0
EOF
