  0
SECTION
  2
HEADER
  9
$ACADVER
  1
AC1012
  9
$DWGCODEPAGE
  3
dos932
  9
$INSBASE
 10
0.0
 20
0.0
 30
0.0
  9
$EXTMIN
 10
-270.3707871602041
 20
-193.3502187292908
 30
-0.0000000000112498
  9
$EXTMAX
 10
270.2801527190954
 20
193.3502206850682
 30
0.0000000000002956
  9
$LIMMIN
 10
-297.0
 20
-210.0
  9
$LIMMAX
 10
297.0
 20
210.0
  9
$ORTHOMODE
 70
     1
  9
$REGENMODE
 70
     1
  9
$FILLMODE
 70
     1
  9
$QTEXTMODE
 70
     0
  9
$MIRRTEXT
 70
     1
  9
$DRAGMODE
 70
     2
  9
$LTSCALE
 40
1.0
  9
$OSMODE
 70
  2471
  9
$ATTMODE
 70
     1
  9
$TEXTSIZE
 40
1.0
  9
$TRACEWID
 40
0.05
  9
$TEXTSTYLE
  7
BIGFONT
  9
$CLAYER
  8
0
  9
$CELTYPE
  6
CONTINUOUS
  9
$CECOLOR
 62
   256
  9
$CELTSCALE
 40
1.0
  9
$DELOBJ
 70
     1
  9
$DISPSILH
 70
     0
  9
$DIMSCALE
 40
1.0
  9
$DIMASZ
 40
0.18
  9
$DIMEXO
 40
0.0625
  9
$DIMDLI
 40
0.38
  9
$DIMRND
 40
0.0
  9
$DIMDLE
 40
0.0
  9
$DIMEXE
 40
0.18
  9
$DIMTP
 40
0.0
  9
$DIMTM
 40
0.0
  9
$DIMTXT
 40
0.18
  9
$DIMCEN
 40
0.09
  9
$DIMTSZ
 40
0.0
  9
$DIMTOL
 70
     0
  9
$DIMLIM
 70
     0
  9
$DIMTIH
 70
     1
  9
$DIMTOH
 70
     1
  9
$DIMSE1
 70
     0
  9
$DIMSE2
 70
     0
  9
$DIMTAD
 70
     0
  9
$DIMZIN
 70
     0
  9
$DIMBLK
  1

  9
$DIMASO
 70
     1
  9
$DIMSHO
 70
     1
  9
$DIMPOST
  1

  9
$DIMAPOST
  1

  9
$DIMALT
 70
     0
  9
$DIMALTD
 70
     2
  9
$DIMALTF
 40
25.4
  9
$DIMLFAC
 40
1.0
  9
$DIMTOFL
 70
     0
  9
$DIMTVP
 40
0.0
  9
$DIMTIX
 70
     0
  9
$DIMSOXD
 70
     0
  9
$DIMSAH
 70
     0
  9
$DIMBLK1
  1

  9
$DIMBLK2
  1

  9
$DIMSTYLE
  2
STANDARD
  9
$DIMCLRD
 70
     0
  9
$DIMCLRE
 70
     0
  9
$DIMCLRT
 70
     0
  9
$DIMTFAC
 40
1.0
  9
$DIMGAP
 40
0.09
  9
$DIMJUST
 70
     0
  9
$DIMSD1
 70
     0
  9
$DIMSD2
 70
     0
  9
$DIMTOLJ
 70
     1
  9
$DIMTZIN
 70
     0
  9
$DIMALTZ
 70
     0
  9
$DIMALTTZ
 70
     0
  9
$DIMFIT
 70
     3
  9
$DIMUPT
 70
     0
  9
$DIMUNIT
 70
     2
  9
$DIMDEC
 70
     4
  9
$DIMTDEC
 70
     4
  9
$DIMALTU
 70
     2
  9
$DIMALTTD
 70
     2
  9
$DIMTXSTY
  7
STANDARD
  9
$DIMAUNIT
 70
     0
  9
$LUNITS
 70
     2
  9
$LUPREC
 70
     4
  9
$SKETCHINC
 40
0.1
  9
$FILLETRAD
 40
0.0
  9
$AUNITS
 70
     0
  9
$AUPREC
 70
     0
  9
$MENU
  1
.
  9
$ELEVATION
 40
0.0
  9
$PELEVATION
 40
0.0
  9
$THICKNESS
 40
0.0
  9
$LIMCHECK
 70
     0
  9
$BLIPMODE
 70
     0
  9
$CHAMFERA
 40
0.0
  9
$CHAMFERB
 40
0.0
  9
$CHAMFERC
 40
0.0
  9
$CHAMFERD
 40
0.0
  9
$SKPOLY
 70
     0
  9
$TDCREATE
 40
2452131.797919907
  9
$TDUPDATE
 40
2453203.391465509
  9
$TDINDWG
 40
0.0149035880
  9
$TDUSRTIMER
 40
0.0149035880
  9
$USRTIMER
 70
     1
  9
$ANGBASE
 50
0.0
  9
$ANGDIR
 70
     0
  9
$PDMODE
 70
     0
  9
$PDSIZE
 40
0.0
  9
$PLINEWID
 40
0.0
  9
$COORDS
 70
     1
  9
$SPLFRAME
 70
     0
  9
$SPLINETYPE
 70
     6
  9
$SPLINESEGS
 70
     8
  9
$ATTDIA
 70
     0
  9
$ATTREQ
 70
     1
  9
$HANDLING
 70
-16383
  9
$HANDSEED
  5
77C
  9
$SURFTAB1
 70
     6
  9
$SURFTAB2
 70
     6
  9
$SURFTYPE
 70
     6
  9
$SURFU
 70
     6
  9
$SURFV
 70
     6
  9
$UCSNAME
  2

  9
$UCSORG
 10
0.0
 20
0.0
 30
0.0
  9
$UCSXDIR
 10
1.0
 20
0.0
 30
0.0
  9
$UCSYDIR
 10
0.0
 20
1.0
 30
0.0
  9
$PUCSNAME
  2

  9
$PUCSORG
 10
0.0
 20
0.0
 30
0.0
  9
$PUCSXDIR
 10
1.0
 20
0.0
 30
0.0
  9
$PUCSYDIR
 10
0.0
 20
1.0
 30
0.0
  9
$USERI1
 70
     0
  9
$USERI2
 70
     0
  9
$USERI3
 70
     0
  9
$USERI4
 70
     0
  9
$USERI5
 70
     0
  9
$USERR1
 40
0.0
  9
$USERR2
 40
0.0
  9
$USERR3
 40
0.0
  9
$USERR4
 40
0.0
  9
$USERR5
 40
0.0
  9
$WORLDVIEW
 70
     1
  9
$SHADEDGE
 70
     3
  9
$SHADEDIF
 70
    70
  9
$TILEMODE
 70
     1
  9
$MAXACTVP
 70
    64
  9
$PINSBASE
 10
0.0
 20
0.0
 30
0.0
  9
$PLIMCHECK
 70
     0
  9
$PEXTMIN
 10
1.000000000000000E+20
 20
1.000000000000000E+20
 30
1.000000000000000E+20
  9
$PEXTMAX
 10
-1.000000000000000E+20
 20
-1.000000000000000E+20
 30
-1.000000000000000E+20
  9
$PLIMMIN
 10
0.0
 20
0.0
  9
$PLIMMAX
 10
12.0
 20
9.0
  9
$UNITMODE
 70
     0
  9
$VISRETAIN
 70
     1
  9
$PLINEGEN
 70
     0
  9
$PSLTSCALE
 70
     1
  9
$TREEDEPTH
 70
  3020
  9
$PICKSTYLE
 70
     3
  9
$CMLSTYLE
  2
STANDARD
  9
$CMLJUST
 70
     0
  9
$CMLSCALE
 40
1.0
  9
$SAVEIMAGES
 70
     1
  0
ENDSEC
  0
SECTION
  2
CLASSES
  0
CLASS
  1
ACDBDICTIONARYWDFLT
  2
AcDbDictionaryWithDefault
  3
AutoCAD 2000
 90
    32768
280
     0
281
     0
  0
CLASS
  1
ACDBPLACEHOLDER
  2
AcDbPlaceHolder
  3
AutoCAD 2000
 90
    32768
280
     0
281
     0
  0
CLASS
  1
LAYOUT
  2
AcDbLayout
  3
AutoCAD 2000
 90
    32768
280
     0
281
     0
  0
CLASS
  1
LONG_TRANSACTION
  2
AcDbLongTransaction
  3
AutoCAD 2000
 90
    32768
280
     0
281
     0
  0
CLASS
  1
LWPOLYLINE
  2
AcDbPolyline
  3
AutoCAD 2000
 90
    32768
280
     0
281
     1
  0
CLASS
  1
HATCH
  2
AcDbHatch
  3
AutoCAD 2000
 90
    32768
280
     0
281
     1
  0
CLASS
  1
XRECORD
  2
AcDbXrecord
  3
AutoCAD 2000
 90
    32768
280
     0
281
     0
  0
CLASS
  1
LONG_TRANSACTION
  2
AcDbLongTransaction
  3
AutoCAD 2000
 90
    32768
280
     0
281
     0
  0
CLASS
  1
LWPOLYLINE
  2
AcDbPolyline
  3
AutoCAD 2000
 90
    32768
280
     0
281
     1
  0
CLASS
  1
HATCH
  2
AcDbHatch
  3
AutoCAD 2000
 90
    32768
280
     0
281
     1
  0
CLASS
  1
XRECORD
  2
AcDbXrecord
  3
AutoCAD 2000
 90
    32768
280
     0
281
     0
  0
CLASS
  1
LONG_TRANSACTION
  2
AcDbLongTransaction
  3
AutoCAD 2000
 90
    32768
280
     0
281
     0
  0
CLASS
  1
LWPOLYLINE
  2
AcDbPolyline
  3
AutoCAD 2000
 90
    32768
280
     0
281
     1
  0
CLASS
  1
HATCH
  2
AcDbHatch
  3
AutoCAD 2000
 90
    32768
280
     0
281
     1
  0
CLASS
  1
XRECORD
  2
AcDbXrecord
  3
AutoCAD 2000
 90
    32768
280
     0
281
     0
  0
ENDSEC
  0
SECTION
  2
TABLES
  0
TABLE
  2
VPORT
  5
8
330
0
100
AcDbSymbolTable
 70
     2
  0
VPORT
  5
779
330
8
100
AcDbSymbolTableRecord
100
AcDbViewportTableRecord
  2
*ACTIVE
 70
     0
 10
0.0
 20
0.0
 11
1.0
 21
1.0
 12
-0.0453172205543098
 22
0.0000009778887033
 13
0.0
 23
0.0
 14
1.0
 24
1.0
 15
0.0
 25
0.0
 16
0.0
 26
0.0
 36
1.0
 17
0.0
 27
0.0
 37
0.0
 40
391.2144523258108
 41
1.902534113060428
 42
50.0
 43
0.0
 44
0.0
 50
0.0
 51
0.0
 71
     0
 72
   100
 73
     1
 74
     1
 75
     0
 76
     0
 77
     0
 78
     0
  0
ENDTAB
  0
TABLE
  2
LTYPE
  5
5
330
0
100
AcDbSymbolTable
 70
     5
  0
LTYPE
  5
13
330
5
100
AcDbSymbolTableRecord
100
AcDbLinetypeTableRecord
  2
BYBLOCK
 70
     0
  3

 72
    65
 73
     0
 40
0.0
  0
LTYPE
  5
14
330
5
100
AcDbSymbolTableRecord
100
AcDbLinetypeTableRecord
  2
BYLAYER
 70
     0
  3

 72
    65
 73
     0
 40
0.0
  0
LTYPE
  5
15
330
5
100
AcDbSymbolTableRecord
100
AcDbLinetypeTableRecord
  2
CONTINUOUS
 70
     0
  3
実線
 72
    65
 73
     0
 40
0.0
  0
LTYPE
  5
23
330
5
100
AcDbSymbolTableRecord
100
AcDbLinetypeTableRecord
  2
HIDDEN
 70
     0
  3
_ _ _ _ _ _ _ _ _ _ _ _ _ _ _ _ _ _ _ _ _ _ _
 72
    65
 73
     2
 40
0.375
 49
0.25
 74
     0
 49
-0.125
 74
     0
  0
LTYPE
  5
24
330
5
100
AcDbSymbolTableRecord
100
AcDbLinetypeTableRecord
  2
DASHED
 70
     0
  3
__ __ __ __ __ __ __ __ __ __ __ __ __ __ __
 72
    65
 73
     2
 40
0.75
 49
0.5
 74
     0
 49
-0.25
 74
     0
  0
LTYPE
  5
25
330
5
100
AcDbSymbolTableRecord
100
AcDbLinetypeTableRecord
  2
CENTER
 70
     0
  3
____ _ ____ _ ____ _ ____ _ ____ _ ____ _ ____
 72
    65
 73
     4
 40
2.0
 49
1.25
 74
     0
 49
-0.25
 74
     0
 49
0.25
 74
     0
 49
-0.25
 74
     0
  0
LTYPE
  5
26
330
5
100
AcDbSymbolTableRecord
100
AcDbLinetypeTableRecord
  2
PHANTOM
 70
     0
  3
_____ _ _ _____ _ _ _____ _ _ _____ _ _ ____
 72
    65
 73
     6
 40
2.5
 49
1.25
 74
     0
 49
-0.25
 74
     0
 49
0.25
 74
     0
 49
-0.25
 74
     0
 49
0.25
 74
     0
 49
-0.25
 74
     0
  0
ENDTAB
  0
TABLE
  2
LAYER
  5
2
330
0
100
AcDbSymbolTable
 70
     4
  0
LAYER
  5
10
330
2
100
AcDbSymbolTableRecord
100
AcDbLayerTableRecord
  2
0
 70
     0
 62
     7
  6
CONTINUOUS
  0
LAYER
  5
27
330
2
100
AcDbSymbolTableRecord
100
AcDbLayerTableRecord
  2
1
 70
     0
 62
     7
  6
CONTINUOUS
  0
LAYER
  5
28
330
2
100
AcDbSymbolTableRecord
100
AcDbLayerTableRecord
  2
2
 70
     0
 62
     7
  6
CONTINUOUS
  0
LAYER
  5
29
330
2
100
AcDbSymbolTableRecord
100
AcDbLayerTableRecord
  2
3
 70
     0
 62
     7
  6
CONTINUOUS
  0
ENDTAB
  0
TABLE
  2
STYLE
  5
3
330
0
100
AcDbSymbolTable
 70
     2
  0
STYLE
  5
11
330
3
100
AcDbSymbolTableRecord
100
AcDbTextStyleTableRecord
  2
STANDARD
 70
     0
 40
0.0
 41
1.0
 50
0.0
 71
     0
 42
0.2
  3
txt
  4

  0
STYLE
  5
22
330
3
100
AcDbSymbolTableRecord
100
AcDbTextStyleTableRecord
  2
BIGFONT
 70
     0
 40
0.0
 41
1.0
 50
0.0
 71
     0
 42
1.0
  3

  4
bigfont
  0
ENDTAB
  0
TABLE
  2
VIEW
  5
6
330
0
100
AcDbSymbolTable
 70
     0
  0
ENDTAB
  0
TABLE
  2
UCS
  5
7
330
0
100
AcDbSymbolTable
 70
     0
  0
ENDTAB
  0
TABLE
  2
APPID
  5
9
330
0
100
AcDbSymbolTable
 70
     1
  0
APPID
  5
12
330
9
100
AcDbSymbolTableRecord
100
AcDbRegAppTableRecord
  2
ACAD
 70
     0
  0
ENDTAB
  0
TABLE
  2
DIMSTYLE
  5
A
330
0
100
AcDbSymbolTable
 70
     1
  0
DIMSTYLE
105
625
330
A
100
AcDbSymbolTableRecord
100
AcDbDimStyleTableRecord
  2
STANDARD
 70
     0
  3

  4

  5

  6

  7

 40
1.0
 41
0.18
 42
0.0625
 43
0.38
 44
0.18
 45
0.0
 46
0.0
 47
0.0
 48
0.0
140
0.18
141
0.09
142
0.0
143
25.4
144
1.0
145
0.0
146
1.0
147
0.09
 71
     0
 72
     0
 73
     1
 74
     1
 75
     0
 76
     0
 77
     0
 78
     0
170
     0
171
     2
172
     0
173
     0
174
     0
175
     0
176
     0
177
     0
178
     0
270
     2
271
     4
272
     4
273
     2
274
     2
340
11
275
     0
280
     0
281
     0
282
     0
283
     1
284
     0
285
     0
286
     0
287
     3
288
     0
  0
ENDTAB
  0
TABLE
  2
BLOCK_RECORD
  5
1
330
0
100
AcDbSymbolTable
 70
     0
  0
BLOCK_RECORD
  5
1E
102
{ACAD_XDICTIONARY
360
762
102
}
330
1
100
AcDbSymbolTableRecord
100
AcDbBlockTableRecord
  2
*MODEL_SPACE
  0
BLOCK_RECORD
  5
1A
102
{ACAD_XDICTIONARY
360
760
102
}
330
1
100
AcDbSymbolTableRecord
100
AcDbBlockTableRecord
  2
*PAPER_SPACE
  0
ENDTAB
  0
ENDSEC
  0
SECTION
  2
BLOCKS
  0
BLOCK
  5
1F
330
1E
100
AcDbEntity
  8
0
100
AcDbBlockBegin
  2
*MODEL_SPACE
 70
     0
 10
0.0
 20
0.0
 30
0.0
  3
*MODEL_SPACE
  1

  0
ENDBLK
  5
20
330
1E
100
AcDbEntity
  8
0
100
AcDbBlockEnd
  0
BLOCK
  5
1B
330
1A
100
AcDbEntity
 67
     1
  8
0
100
AcDbBlockBegin
  2
*PAPER_SPACE
 70
     0
 10
0.0
 20
0.0
 30
0.0
  3
*PAPER_SPACE
  1

  0
ENDBLK
  5
1C
330
1A
100
AcDbEntity
 67
     1
  8
0
100
AcDbBlockEnd
  0
ENDSEC
  0
SECTION
  2
ENTITIES
  0
LINE
  5
2D
330
1E
100
AcDbEntity
  8
0
  6
CONTINUOUS
 62
     7
100
AcDbLine
 10
227.0
 20
111.0
 30
0.0
 11
227.0
 21
127.0
 31
0.0
  0
LINE
  5
2E
330
1E
100
AcDbEntity
  8
0
  6
CONTINUOUS
 62
     7
100
AcDbLine
 10
226.88
 20
110.88
 30
0.0
 11
227.0
 21
111.0
 31
0.0
  0
LINE
  5
2F
330
1E
100
AcDbEntity
  8
0
  6
CONTINUOUS
 62
     7
100
AcDbLine
 10
226.88
 20
68.71999999999998
 30
0.0
 11
226.88
 21
110.88
 31
0.0
  0
LINE
  5
30
330
1E
100
AcDbEntity
  8
0
  6
CONTINUOUS
 62
     7
100
AcDbLine
 10
226.88
 20
68.71999999999998
 30
0.0
 11
227.0
 21
68.59999999999999
 31
0.0
  0
LINE
  5
31
330
1E
100
AcDbEntity
  8
0
  6
CONTINUOUS
 62
     7
100
AcDbLine
 10
227.0
 20
57.48
 30
0.0
 11
227.0
 21
68.59999999999999
 31
0.0
  0
LINE
  5
32
330
1E
100
AcDbEntity
  8
0
  6
CONTINUOUS
 62
     7
100
AcDbLine
 10
165.2847999999998
 20
96.0
 30
0.0
 11
169.32468
 21
96.0
 31
0.0
  0
LINE
  5
33
330
1E
100
AcDbEntity
  8
0
  6
CONTINUOUS
 62
     7
100
AcDbLine
 10
169.84208
 20
96.0
 30
0.0
 11
169.95216
 21
96.0
 31
0.0
  0
LINE
  5
34
330
1E
100
AcDbEntity
  8
0
  6
CONTINUOUS
 62
     7
100
AcDbLine
 10
170.4
 20
96.0
 30
0.0
 11
174.43232
 21
96.0
 31
0.0
  0
LINE
  5
35
330
1E
100
AcDbEntity
  8
0
  6
CONTINUOUS
 62
     7
100
AcDbLine
 10
167.0
 20
57.0
 30
0.0
 11
227.0
 21
57.0
 31
0.0
  0
LINE
  5
36
330
1E
100
AcDbEntity
  8
0
  6
CONTINUOUS
 62
     7
100
AcDbLine
 10
167.0
 20
57.0
 30
0.0
 11
167.0
 21
126.6399999999999
 31
0.0
  0
LINE
  5
37
330
1E
100
AcDbEntity
  8
0
  6
CONTINUOUS
 62
     7
100
AcDbLine
 10
167.36
 20
127.0
 30
0.0
 11
172.24
 21
127.0
 31
0.0
  0
LINE
  5
38
330
1E
100
AcDbEntity
  8
0
  6
CONTINUOUS
 62
     7
100
AcDbLine
 10
172.24
 20
127.0
 30
0.0
 11
172.5999999999999
 21
126.6399999999999
 31
0.0
  0
LINE
  5
39
330
1E
100
AcDbEntity
  8
0
  6
CONTINUOUS
 62
     7
100
AcDbLine
 10
167.0
 20
126.6399999999999
 30
0.0
 11
167.36
 21
127.0
 31
0.0
  0
LINE
  5
3A
330
1E
100
AcDbEntity
  8
0
  6
CONTINUOUS
 62
     7
100
AcDbLine
 10
141.0
 20
57.0
 30
0.0
 11
141.0
 21
127.0
 31
0.0
  0
LINE
  5
3B
330
1E
100
AcDbEntity
  8
0
  6
CONTINUOUS
 62
     7
100
AcDbLine
 10
166.0
 20
127.0
 30
0.0
 11
140.1999999999999
 21
127.0
 31
0.0
  0
LINE
  5
3C
330
1E
100
AcDbEntity
  8
0
  6
CONTINUOUS
 62
     7
100
AcDbLine
 10
166.0
 20
57.0
 30
0.0
 11
140.1999999999999
 21
57.0
 31
0.0
  0
LINE
  5
3D
330
1E
100
AcDbEntity
  8
0
  6
CONTINUOUS
 62
     7
100
AcDbLine
 10
141.32153
 20
125.8
 30
0.0
 11
141.0
 21
127.0
 31
0.0
  0
LINE
  5
3E
330
1E
100
AcDbEntity
  8
0
  6
CONTINUOUS
 62
     7
100
AcDbLine
 10
141.0
 20
127.0
 30
0.0
 11
140.6784599999999
 21
125.8
 31
0.0
  0
LINE
  5
3F
330
1E
100
AcDbEntity
  8
0
  6
CONTINUOUS
 62
     7
100
AcDbLine
 10
140.6784599999999
 20
58.2
 30
0.0
 11
141.0
 21
57.0
 31
0.0
  0
LINE
  5
40
330
1E
100
AcDbEntity
  8
0
  6
CONTINUOUS
 62
     7
100
AcDbLine
 10
141.0
 20
57.0
 30
0.0
 11
141.32153
 21
58.2
 31
0.0
  0
TEXT
  5
41
330
1E
100
AcDbEntity
  8
0
  6
CONTINUOUS
 62
     7
100
AcDbText
 10
140.5999999999997
 20
87.0
 30
0.0
 40
3.2
  1
1750
 50
90.0
 41
0.78125
  7
BIGFONT
100
AcDbText
  0
LINE
  5
42
330
1E
100
AcDbEntity
  8
0
  6
CONTINUOUS
 62
     7
100
AcDbLine
 10
153.0
 20
57.0
 30
0.0
 11
153.0
 21
68.59999999999999
 31
0.0
  0
LINE
  5
43
330
1E
100
AcDbEntity
  8
0
  6
CONTINUOUS
 62
     7
100
AcDbLine
 10
166.0
 20
68.59999999999999
 30
0.0
 11
152.2
 21
68.59999999999999
 31
0.0
  0
LINE
  5
44
330
1E
100
AcDbEntity
  8
0
  6
CONTINUOUS
 62
     7
100
AcDbLine
 10
153.0
 20
57.0
 30
0.0
 11
153.0
 21
57.0
 31
0.0
  0
LINE
  5
45
330
1E
100
AcDbEntity
  8
0
  6
CONTINUOUS
 62
     7
100
AcDbLine
 10
153.3215299999999
 20
67.40000000000001
 30
0.0
 11
153.0
 21
68.59999999999999
 31
0.0
  0
LINE
  5
46
330
1E
100
AcDbEntity
  8
0
  6
CONTINUOUS
 62
     7
100
AcDbLine
 10
153.0
 20
68.59999999999999
 30
0.0
 11
152.67846
 21
67.40000000000001
 31
0.0
  0
LINE
  5
47
330
1E
100
AcDbEntity
  8
0
  6
CONTINUOUS
 62
     7
100
AcDbLine
 10
152.67846
 20
58.2
 30
0.0
 11
153.0
 21
57.0
 31
0.0
  0
LINE
  5
48
330
1E
100
AcDbEntity
  8
0
  6
CONTINUOUS
 62
     7
100
AcDbLine
 10
153.0
 20
57.0
 30
0.0
 11
153.3215299999999
 21
58.2
 31
0.0
  0
TEXT
  5
49
330
1E
100
AcDbEntity
  8
0
  6
CONTINUOUS
 62
     7
100
AcDbText
 10
152.5999999999999
 20
59.05
 30
0.0
 40
3.2
  1
290
 50
90.0
 41
0.78125
  7
BIGFONT
100
AcDbText
  0
LINE
  5
4A
330
1E
100
AcDbEntity
  8
0
  6
CONTINUOUS
 62
     7
100
AcDbLine
 10
153.0
 20
68.59999999999999
 30
0.0
 11
153.0
 21
111.0
 31
0.0
  0
LINE
  5
4B
330
1E
100
AcDbEntity
  8
0
  6
CONTINUOUS
 62
     7
100
AcDbLine
 10
166.0
 20
111.0
 30
0.0
 11
152.2
 21
111.0
 31
0.0
  0
LINE
  5
4C
330
1E
100
AcDbEntity
  8
0
  6
CONTINUOUS
 62
     7
100
AcDbLine
 10
153.3215299999999
 20
109.8
 30
0.0
 11
153.0
 21
111.0
 31
0.0
  0
LINE
  5
4D
330
1E
100
AcDbEntity
  8
0
  6
CONTINUOUS
 62
     7
100
AcDbLine
 10
153.0
 20
111.0
 30
0.0
 11
152.67846
 21
109.8
 31
0.0
  0
LINE
  5
4E
330
1E
100
AcDbEntity
  8
0
  6
CONTINUOUS
 62
     7
100
AcDbLine
 10
152.67846
 20
69.8
 30
0.0
 11
153.0
 21
68.59999999999999
 31
0.0
  0
LINE
  5
4F
330
1E
100
AcDbEntity
  8
0
  6
CONTINUOUS
 62
     7
100
AcDbLine
 10
153.0
 20
68.59999999999999
 30
0.0
 11
153.3215299999999
 21
69.8
 31
0.0
  0
TEXT
  5
50
330
1E
100
AcDbEntity
  8
0
  6
CONTINUOUS
 62
     7
100
AcDbText
 10
152.5999999999999
 20
84.8
 30
0.0
 40
3.2
  1
1060
 50
90.0
 41
0.78125
  7
BIGFONT
100
AcDbText
  0
LINE
  5
51
330
1E
100
AcDbEntity
  8
0
  6
CONTINUOUS
 62
     7
100
AcDbLine
 10
153.0
 20
111.0
 30
0.0
 11
153.0
 21
127.0
 31
0.0
  0
LINE
  5
52
330
1E
100
AcDbEntity
  8
0
  6
CONTINUOUS
 62
     7
100
AcDbLine
 10
153.0
 20
127.0
 30
0.0
 11
153.0
 21
127.0
 31
0.0
  0
LINE
  5
53
330
1E
100
AcDbEntity
  8
0
  6
CONTINUOUS
 62
     7
100
AcDbLine
 10
153.3215299999999
 20
125.8
 30
0.0
 11
153.0
 21
127.0
 31
0.0
  0
LINE
  5
54
330
1E
100
AcDbEntity
  8
0
  6
CONTINUOUS
 62
     7
100
AcDbLine
 10
153.0
 20
127.0
 30
0.0
 11
152.67846
 21
125.8
 31
0.0
  0
LINE
  5
55
330
1E
100
AcDbEntity
  8
0
  6
CONTINUOUS
 62
     7
100
AcDbLine
 10
152.67846
 20
112.2
 30
0.0
 11
153.0
 21
111.0
 31
0.0
  0
LINE
  5
56
330
1E
100
AcDbEntity
  8
0
  6
CONTINUOUS
 62
     7
100
AcDbLine
 10
153.0
 20
111.0
 30
0.0
 11
153.3215299999999
 21
112.2
 31
0.0
  0
TEXT
  5
57
330
1E
100
AcDbEntity
  8
0
  6
CONTINUOUS
 62
     7
100
AcDbText
 10
152.5999999999999
 20
115.25
 30
0.0
 40
3.2
  1
400
 50
90.0
 41
0.78125
  7
BIGFONT
100
AcDbText
  0
LINE
  5
58
330
1E
100
AcDbEntity
  8
0
  6
CONTINUOUS
 62
     7
100
AcDbLine
 10
167.0
 20
140.6557999999999
 30
0.0
 11
172.5999999999999
 21
140.6557999999999
 31
0.0
  0
LINE
  5
59
330
1E
100
AcDbEntity
  8
0
  6
CONTINUOUS
 62
     7
100
AcDbLine
 10
172.5999999999999
 20
128.0
 30
0.0
 11
172.5999999999999
 21
141.4558
 31
0.0
  0
LINE
  5
5A
330
1E
100
AcDbEntity
  8
0
  6
CONTINUOUS
 62
     7
100
AcDbLine
 10
167.0
 20
128.0
 30
0.0
 11
167.0
 21
141.4558
 31
0.0
  0
LINE
  5
5B
330
1E
100
AcDbEntity
  8
0
  6
CONTINUOUS
 62
     7
100
AcDbLine
 10
171.4
 20
140.3334599999999
 30
0.0
 11
172.5999999999999
 21
140.655
 31
0.0
  0
LINE
  5
5C
330
1E
100
AcDbEntity
  8
0
  6
CONTINUOUS
 62
     7
100
AcDbLine
 10
172.5999999999999
 20
140.655
 30
0.0
 11
171.4
 21
140.9765299999999
 31
0.0
  0
LINE
  5
5D
330
1E
100
AcDbEntity
  8
0
  6
CONTINUOUS
 62
     7
100
AcDbLine
 10
168.1999999999999
 20
140.9765299999999
 30
0.0
 11
167.0
 21
140.655
 31
0.0
  0
LINE
  5
5E
330
1E
100
AcDbEntity
  8
0
  6
CONTINUOUS
 62
     7
100
AcDbLine
 10
167.0
 20
140.655
 30
0.0
 11
168.1999999999999
 21
140.3334599999999
 31
0.0
  0
TEXT
  5
5F
330
1E
100
AcDbEntity
  8
0
  6
CONTINUOUS
 62
     7
100
AcDbText
 10
167.2231767613058
 20
141.0557999999998
 30
0.0
 40
3.2
  1
140
 41
0.78125
  7
BIGFONT
100
AcDbText
  0
LINE
  5
60
330
1E
100
AcDbEntity
  8
0
  6
CONTINUOUS
 62
     7
100
AcDbLine
 10
154.69156
 20
62.6
 30
0.0
 11
166.18892
 21
62.6
 31
0.0
  0
LINE
  5
61
330
1E
100
AcDbEntity
  8
0
  6
CONTINUOUS
 62
     7
100
AcDbLine
 10
203.5285599999999
 20
96.0
 30
0.0
 11
211.06956
 21
96.0
 31
0.0
  0
LINE
  5
62
330
1E
100
AcDbEntity
  8
0
  6
CONTINUOUS
 62
     7
100
AcDbLine
 10
207.0
 20
92.24
 30
0.0
 11
207.0
 21
99.76
 31
0.0
  0
CIRCLE
  5
63
330
1E
100
AcDbEntity
  8
0
  6
CONTINUOUS
 62
     7
100
AcDbCircle
 10
207.0
 20
96.0
 30
0.0
 40
1.5
  0
LINE
  5
64
330
1E
100
AcDbEntity
  8
0
  6
CONTINUOUS
 62
     7
100
AcDbLine
 10
159.04072
 20
113.7709999999999
 30
0.0
 11
159.04072
 21
127.0
 31
0.0
  0
LINE
  5
65
330
1E
100
AcDbEntity
  8
0
  6
CONTINUOUS
 62
     7
100
AcDbLine
 10
159.9772399999999
 20
127.0
 30
0.0
 11
158.2407199999998
 21
127.0
 31
0.0
  0
LINE
  5
66
330
1E
100
AcDbEntity
  8
0
  6
CONTINUOUS
 62
     7
100
AcDbLine
 10
166.0
 20
113.7709999999999
 30
0.0
 11
158.2407199999998
 21
113.7709999999999
 31
0.0
  0
LINE
  5
67
330
1E
100
AcDbEntity
  8
0
  6
CONTINUOUS
 62
     7
100
AcDbLine
 10
159.36153
 20
125.8
 30
0.0
 11
159.0399999999999
 21
127.0
 31
0.0
  0
LINE
  5
68
330
1E
100
AcDbEntity
  8
0
  6
CONTINUOUS
 62
     7
100
AcDbLine
 10
159.0399999999999
 20
127.0
 30
0.0
 11
158.71846
 21
125.8
 31
0.0
  0
LINE
  5
69
330
1E
100
AcDbEntity
  8
0
  6
CONTINUOUS
 62
     7
100
AcDbLine
 10
158.71846
 20
114.971
 30
0.0
 11
159.0399999999999
 21
113.7709999999999
 31
0.0
  0
LINE
  5
6A
330
1E
100
AcDbEntity
  8
0
  6
CONTINUOUS
 62
     7
100
AcDbLine
 10
159.0399999999999
 20
113.7709999999999
 30
0.0
 11
159.36153
 21
114.971
 31
0.0
  0
TEXT
  5
6B
330
1E
100
AcDbEntity
  8
0
  6
CONTINUOUS
 62
     7
100
AcDbText
 10
158.64072
 20
116.6355
 30
0.0
 40
3.2
  1
330
 50
90.0
 41
0.78125
  7
BIGFONT
100
AcDbText
  0
LINE
  5
6C
330
1E
100
AcDbEntity
  8
3
  6
CONTINUOUS
 62
     7
100
AcDbLine
 10
168.5909999999998
 20
-191.627
 30
0.0
 11
168.5909999999998
 21
-141.627
 31
0.0
  0
LINE
  5
6D
330
1E
100
AcDbEntity
  8
3
  6
CONTINUOUS
 62
     7
100
AcDbLine
 10
168.5909999999998
 20
-191.627
 30
0.0
 11
168.5909999999998
 21
-141.627
 31
0.0
  0
LINE
  5
6E
330
1E
100
AcDbEntity
  8
3
  6
CONTINUOUS
 62
     7
100
AcDbLine
 10
168.5909999999998
 20
-191.627
 30
0.0
 11
168.5909999999998
 21
-141.627
 31
0.0
  0
LINE
  5
6F
330
1E
100
AcDbEntity
  8
3
  6
CONTINUOUS
 62
     7
100
AcDbLine
 10
168.5909999999998
 20
-191.627
 30
0.0
 11
168.5909999999998
 21
-141.627
 31
0.0
  0
LINE
  5
70
330
1E
100
AcDbEntity
  8
3
  6
CONTINUOUS
 62
     7
100
AcDbLine
 10
168.5909999999998
 20
-191.627
 30
0.0
 11
168.5909999999998
 21
-141.627
 31
0.0
  0
LINE
  5
71
330
1E
100
AcDbEntity
  8
3
  6
CONTINUOUS
 62
     7
100
AcDbLine
 10
168.5909999999998
 20
-191.627
 30
0.0
 11
168.5909999999998
 21
-141.627
 31
0.0
  0
LINE
  5
72
330
1E
100
AcDbEntity
  8
3
  6
CONTINUOUS
 62
     7
100
AcDbLine
 10
168.5909999999998
 20
-141.627
 30
0.0
 11
268.591
 21
-141.627
 31
0.0
  0
LINE
  5
73
330
1E
100
AcDbEntity
  8
3
  6
CONTINUOUS
 62
     7
100
AcDbLine
 10
268.591
 20
-191.627
 30
0.0
 11
268.591
 21
-141.627
 31
0.0
  0
LINE
  5
74
330
1E
100
AcDbEntity
  8
3
  6
CONTINUOUS
 62
     7
100
AcDbLine
 10
168.5909999999998
 20
-191.627
 30
0.0
 11
268.591
 21
-191.627
 31
0.0
  0
LINE
  5
75
330
1E
100
AcDbEntity
  8
3
  6
CONTINUOUS
 62
     7
100
AcDbLine
 10
168.5909999999998
 20
-191.627
 30
0.0
 11
168.5909999999998
 21
-141.627
 31
0.0
  0
LINE
  5
76
330
1E
100
AcDbEntity
  8
3
  6
CONTINUOUS
 62
     7
100
AcDbLine
 10
168.5909999999998
 20
-191.627
 30
0.0
 11
268.591
 21
-191.627
 31
0.0
  0
LINE
  5
77
330
1E
100
AcDbEntity
  8
3
  6
CONTINUOUS
 62
     7
100
AcDbLine
 10
168.5909999999998
 20
-191.627
 30
0.0
 11
168.5909999999998
 21
-141.627
 31
0.0
  0
LINE
  5
78
330
1E
100
AcDbEntity
  8
3
  6
CONTINUOUS
 62
     7
100
AcDbLine
 10
168.5909999999998
 20
-151.627
 30
0.0
 11
268.591
 21
-151.627
 31
0.0
  0
LINE
  5
79
330
1E
100
AcDbEntity
  8
3
  6
CONTINUOUS
 62
     7
100
AcDbLine
 10
168.5909999999998
 20
-159.627
 30
0.0
 11
268.591
 21
-159.627
 31
0.0
  0
LINE
  5
7A
330
1E
100
AcDbEntity
  8
3
  6
CONTINUOUS
 62
     7
100
AcDbLine
 10
168.5909999999998
 20
-167.627
 30
0.0
 11
268.591
 21
-167.627
 31
0.0
  0
LINE
  5
7B
330
1E
100
AcDbEntity
  8
3
  6
CONTINUOUS
 62
     7
100
AcDbLine
 10
168.5909999999998
 20
-180.6269999999999
 30
0.0
 11
268.591
 21
-180.6269999999999
 31
0.0
  0
LINE
  5
7C
330
1E
100
AcDbEntity
  8
3
  6
CONTINUOUS
 62
     7
100
AcDbLine
 10
195.5909999999999
 20
-180.6269999999999
 30
0.0
 11
195.5909999999999
 21
-141.627
 31
0.0
  0
LINE
  5
7D
330
1E
100
AcDbEntity
  8
3
  6
CONTINUOUS
 62
     7
100
AcDbLine
 10
188.5909999999999
 20
-180.6269999999999
 30
0.0
 11
188.5909999999999
 21
-167.627
 31
0.0
  0
LINE
  5
7E
330
1E
100
AcDbEntity
  8
3
  6
CONTINUOUS
 62
     7
100
AcDbLine
 10
175.5909999999999
 20
-180.6269999999999
 30
0.0
 11
175.5909999999999
 21
-167.627
 31
0.0
  0
LINE
  5
7F
330
1E
100
AcDbEntity
  8
3
  6
CONTINUOUS
 62
     7
100
AcDbLine
 10
208.5909999999999
 20
-180.6269999999999
 30
0.0
 11
208.5909999999999
 21
-167.627
 31
0.0
  0
LINE
  5
80
330
1E
100
AcDbEntity
  8
3
  6
CONTINUOUS
 62
     7
100
AcDbLine
 10
215.5909999999999
 20
-180.6269999999999
 30
0.0
 11
215.5909999999999
 21
-167.627
 31
0.0
  0
LINE
  5
81
330
1E
100
AcDbEntity
  8
3
  6
CONTINUOUS
 62
     7
100
AcDbLine
 10
228.5909999999999
 20
-180.6269999999999
 30
0.0
 11
228.5909999999999
 21
-167.627
 31
0.0
  0
LINE
  5
82
330
1E
100
AcDbEntity
  8
3
  6
CONTINUOUS
 62
     7
100
AcDbLine
 10
235.5909999999999
 20
-180.6269999999999
 30
0.0
 11
235.5909999999999
 21
-167.627
 31
0.0
  0
LINE
  5
83
330
1E
100
AcDbEntity
  8
3
  6
CONTINUOUS
 62
     7
100
AcDbLine
 10
248.591
 20
-180.6269999999999
 30
0.0
 11
248.591
 21
-167.627
 31
0.0
  0
LINE
  5
84
330
1E
100
AcDbEntity
  8
3
  6
CONTINUOUS
 62
     7
100
AcDbLine
 10
255.5909999999999
 20
-180.6269999999999
 30
0.0
 11
255.5909999999999
 21
-167.627
 31
0.0
  0
LINE
  5
85
330
1E
100
AcDbEntity
  8
3
  6
CONTINUOUS
 62
     7
100
AcDbLine
 10
220.5909999999999
 20
-159.627
 30
0.0
 11
220.5909999999999
 21
-151.627
 31
0.0
  0
LINE
  5
86
330
1E
100
AcDbEntity
  8
3
  6
CONTINUOUS
 62
     7
100
AcDbLine
 10
243.5909999999999
 20
-159.627
 30
0.0
 11
243.5909999999999
 21
-151.627
 31
0.0
  0
TEXT
  5
87
330
1E
100
AcDbEntity
  8
3
  6
CONTINUOUS
 62
     7
100
AcDbText
 10
171.9059999999999
 20
-149.491
 30
0.0
 40
5.0
  1
図面名
  7
BIGFONT
100
AcDbText
  0
TEXT
  5
88
330
1E
100
AcDbEntity
  8
3
  6
CONTINUOUS
 62
     7
100
AcDbText
 10
172.3859999999999
 20
-157.8529999999998
 30
0.0
 40
4.0
  1
縮尺
  7
BIGFONT
100
AcDbText
  0
TEXT
  5
89
330
1E
100
AcDbEntity
  8
3
  6
CONTINUOUS
 62
     7
100
AcDbText
 10
222.8219999999999
 20
-157.757
 30
0.0
 40
4.0
  1
図面番号
  7
BIGFONT
100
AcDbText
  0
TEXT
  5
8A
330
1E
100
AcDbEntity
  8
3
  6
CONTINUOUS
 62
     7
100
AcDbText
 10
172.194
 20
-165.8309999999999
 30
0.0
 40
4.0
  1
設計年月日
  7
BIGFONT
100
AcDbText
  0
TEXT
  5
8B
330
1E
100
AcDbEntity
  8
3
  6
CONTINUOUS
 62
     7
100
AcDbText
 10
204.2809999999999
 20
-165.8309999999999
 30
0.0
 40
4.0
  1
平成　　年　　月　　日
  7
BIGFONT
100
AcDbText
  0
TEXT
  5
8C
330
1E
100
AcDbEntity
  8
3
  6
CONTINUOUS
 62
     7
100
AcDbText
 10
190.5164145697087
 20
-189.5609999999999
 30
0.0
 40
6.0
  1
千葉窯業株式会社
  7
BIGFONT
100
AcDbText
  0
TEXT
  5
8D
330
1E
100
AcDbEntity
  8
3
  6
CONTINUOUS
 62
     7
100
AcDbText
 10
170.273
 20
-169.388
 30
0.0
 40
4.0
  1
部長
 50
270.0
  7
BIGFONT
100
AcDbText
  0
TEXT
  5
8E
330
1E
100
AcDbEntity
  8
3
  6
CONTINUOUS
 62
     7
100
AcDbText
 10
190.2549999999999
 20
-169.388
 30
0.0
 40
4.0
  1
課長
 50
270.0
  7
BIGFONT
100
AcDbText
  0
TEXT
  5
8F
330
1E
100
AcDbEntity
  8
3
  6
CONTINUOUS
 62
     7
100
AcDbText
 10
210.237
 20
-169.388
 30
0.0
 40
4.0
  1
検図
 50
270.0
  7
BIGFONT
100
AcDbText
  0
TEXT
  5
90
330
1E
100
AcDbEntity
  8
3
  6
CONTINUOUS
 62
     7
100
AcDbText
 10
230.412
 20
-169.388
 30
0.0
 40
4.0
  1
設計
 50
270.0
  7
BIGFONT
100
AcDbText
  0
TEXT
  5
91
330
1E
100
AcDbEntity
  8
3
  6
CONTINUOUS
 62
     7
100
AcDbText
 10
250.2979999999999
 20
-169.2919999999999
 30
0.0
 40
4.0
  1
製図
 50
270.0
  7
BIGFONT
100
AcDbText
  0
LINE
  5
92
330
1E
100
AcDbEntity
  8
3
  6
CONTINUOUS
 62
     7
100
AcDbLine
 10
168.5909999999998
 20
-191.627
 30
0.0
 11
268.591
 21
-191.627
 31
0.0
  0
LINE
  5
93
330
1E
100
AcDbEntity
  8
3
  6
CONTINUOUS
 62
     7
100
AcDbLine
 10
168.5909999999998
 20
-191.627
 30
0.0
 11
168.5909999999998
 21
-141.627
 31
0.0
  0
TEXT
  5
A3
330
1E
100
AcDbEntity
  8
3
  6
CONTINUOUS
 62
     7
100
AcDbText
 10
218.726
 20
-165.858
 30
0.0
 40
3.799999999999998
  1
３
  7
BIGFONT
100
AcDbText
  0
TEXT
  5
A4
330
1E
100
AcDbEntity
  8
3
  6
CONTINUOUS
 62
     7
100
AcDbText
 10
234.024
 20
-165.859
 30
0.0
 40
3.799999999999998
  1
６
  7
BIGFONT
100
AcDbText
  0
TEXT
  5
A5
330
1E
100
AcDbEntity
  8
3
  6
CONTINUOUS
 62
     7
100
AcDbText
 10
249.3559999999999
 20
-165.8739999999999
 30
0.0
 40
3.799999999999998
  1
１
  7
BIGFONT
100
AcDbText
  0
TEXT
  5
A6
330
1E
100
AcDbEntity
  8
3
  6
CONTINUOUS
 62
     7
100
AcDbText
 10
201.383
 20
-157.6989999999999
 30
0.0
 40
4.0
  1
１：２５
  7
BIGFONT
100
AcDbText
  0
LINE
  5
A7
330
1E
100
AcDbEntity
  8
0
  6
CONTINUOUS
 62
     7
100
AcDbLine
 10
-270.32812
 20
-193.32032
 30
0.0
 11
-270.32812
 21
193.34552
 31
0.0
  0
LINE
  5
A8
330
1E
100
AcDbEntity
  8
0
  6
CONTINUOUS
 62
     7
100
AcDbLine
 10
-270.32812
 20
-193.32032
 30
0.0
 11
270.2637999999999
 21
-193.32032
 31
0.0
  0
LINE
  5
A9
330
1E
100
AcDbEntity
  8
0
  6
CONTINUOUS
 62
     7
100
AcDbLine
 10
270.2637999999999
 20
-193.32032
 30
0.0
 11
270.2637999999999
 21
193.34552
 31
0.0
  0
LINE
  5
AA
330
1E
100
AcDbEntity
  8
0
  6
CONTINUOUS
 62
     7
100
AcDbLine
 10
-270.32812
 20
193.34552
 30
0.0
 11
270.2637999999999
 21
193.34552
 31
0.0
  0
LINE
  5
AB
330
1E
100
AcDbEntity
  8
0
  6
HIDDEN
 62
     7
100
AcDbLine
 10
167.0
 20
97.5
 30
0.0
 11
172.5999999999999
 21
97.5
 31
0.0
  0
LINE
  5
AC
330
1E
100
AcDbEntity
  8
0
  6
HIDDEN
 62
     7
100
AcDbLine
 10
167.0
 20
94.50000000000001
 30
0.0
 11
172.5999999999999
 21
94.50000000000001
 31
0.0
  0
LINE
  5
AD
330
1E
100
AcDbEntity
  8
0
  6
CONTINUOUS
 62
     7
100
AcDbLine
 10
167.0
 20
68.59999999999999
 30
0.0
 11
172.5999999999999
 21
68.59999999999999
 31
0.0
  0
LINE
  5
AE
330
1E
100
AcDbEntity
  8
0
  6
CONTINUOUS
 62
     7
100
AcDbLine
 10
167.0
 20
110.9699999999999
 30
0.0
 11
172.5999999999999
 21
110.9699999999999
 31
0.0
  0
LINE
  5
AF
330
1E
100
AcDbEntity
  8
0
  6
CONTINUOUS
 62
     7
100
AcDbLine
 10
172.5999999999999
 20
66.6
 30
0.0
 11
176.6
 21
62.6
 31
0.0
  0
LINE
  5
B0
330
1E
100
AcDbEntity
  8
0
  6
CONTINUOUS
 62
     7
100
AcDbLine
 10
172.5999999999999
 20
66.6
 30
0.0
 11
172.5999999999999
 21
126.6399999999999
 31
0.0
  0
LINE
  5
B1
330
1E
100
AcDbEntity
  8
0
  6
CONTINUOUS
 62
     7
100
AcDbLine
 10
176.6
 20
62.6
 30
0.0
 11
227.0
 21
62.6
 31
0.0
  0
LINE
  5
B2
330
1E
100
AcDbEntity
  8
0
  6
CONTINUOUS
 62
     7
100
AcDbLine
 10
227.0
 20
57.0
 30
0.0
 11
227.0
 21
66.6
 31
0.0
  0
LINE
  5
B3
330
1E
100
AcDbEntity
  8
0
  6
CONTINUOUS
 62
     7
100
AcDbLine
 10
167.0
 20
-30.26196
 30
0.0
 11
227.0
 21
-30.26196
 31
0.0
  0
LINE
  5
B4
330
1E
100
AcDbEntity
  8
0
  6
CONTINUOUS
 62
     7
100
AcDbLine
 10
167.0
 20
-90.26196
 30
0.0
 11
167.0
 21
-30.26196
 31
0.0
  0
LINE
  5
B5
330
1E
100
AcDbEntity
  8
0
  6
CONTINUOUS
 62
     7
100
AcDbLine
 10
181.0
 20
-39.86195999999999
 30
0.0
 11
181.0
 21
-35.86195999999999
 31
0.0
  0
LINE
  5
B6
330
1E
100
AcDbEntity
  8
0
  6
CONTINUOUS
 62
     7
100
AcDbLine
 10
172.5999999999999
 20
-44.26196
 30
0.0
 11
176.6
 21
-44.26196
 31
0.0
  0
LINE
  5
B7
330
1E
100
AcDbEntity
  8
0
  6
CONTINUOUS
 62
     7
100
AcDbLine
 10
181.0
 20
-39.86195999999999
 30
0.0
 11
227.0
 21
-39.86195999999999
 31
0.0
  0
LINE
  5
B8
330
1E
100
AcDbEntity
  8
0
  6
CONTINUOUS
 62
     7
100
AcDbLine
 10
176.6
 20
-90.26196
 30
0.0
 11
176.6
 21
-44.26196
 31
0.0
  0
LINE
  5
B9
330
1E
100
AcDbEntity
  8
0
  6
CONTINUOUS
 62
     7
100
AcDbLine
 10
167.0
 20
-90.26196
 30
0.0
 11
215.0
 21
-90.26196
 31
0.0
  0
LINE
  5
BA
330
1E
100
AcDbEntity
  8
0
  6
CONTINUOUS
 62
     7
100
AcDbLine
 10
153.0
 20
-90.26196
 30
0.0
 11
153.0
 21
-30.26196
 31
0.0
  0
LINE
  5
BB
330
1E
100
AcDbEntity
  8
0
  6
CONTINUOUS
 62
     7
100
AcDbLine
 10
166.0
 20
-30.26196
 30
0.0
 11
152.2
 21
-30.26196
 31
0.0
  0
LINE
  5
BC
330
1E
100
AcDbEntity
  8
0
  6
CONTINUOUS
 62
     7
100
AcDbLine
 10
166.0
 20
-90.26196
 30
0.0
 11
152.2
 21
-90.26196
 31
0.0
  0
LINE
  5
BD
330
1E
100
AcDbEntity
  8
0
  6
CONTINUOUS
 62
     7
100
AcDbLine
 10
153.3215299999999
 20
-31.461
 30
0.0
 11
153.0
 21
-30.261
 31
0.0
  0
LINE
  5
BE
330
1E
100
AcDbEntity
  8
0
  6
CONTINUOUS
 62
     7
100
AcDbLine
 10
153.0
 20
-30.261
 30
0.0
 11
152.67846
 21
-31.461
 31
0.0
  0
LINE
  5
BF
330
1E
100
AcDbEntity
  8
0
  6
CONTINUOUS
 62
     7
100
AcDbLine
 10
152.67846
 20
-89.061
 30
0.0
 11
153.0
 21
-90.26099999999999
 31
0.0
  0
LINE
  5
C0
330
1E
100
AcDbEntity
  8
0
  6
CONTINUOUS
 62
     7
100
AcDbLine
 10
153.0
 20
-90.26099999999999
 30
0.0
 11
153.3215299999999
 21
-89.061
 31
0.0
  0
TEXT
  5
C1
330
1E
100
AcDbEntity
  8
0
  6
CONTINUOUS
 62
     7
100
AcDbText
 10
152.5999999999999
 20
-65.26196
 30
0.0
 40
3.2
  1
１５００
 50
90.0
 41
0.78125
  7
BIGFONT
100
AcDbText
  0
LINE
  5
C2
330
1E
100
AcDbEntity
  8
0
  6
CONTINUOUS
 62
     7
100
AcDbLine
 10
159.04072
 20
-90.26196
 30
0.0
 11
159.04072
 21
-44.26391999999998
 31
0.0
  0
LINE
  5
C3
330
1E
100
AcDbEntity
  8
0
  6
CONTINUOUS
 62
     7
100
AcDbLine
 10
166.0
 20
-44.26391999999998
 30
0.0
 11
158.2407199999998
 21
-44.26391999999998
 31
0.0
  0
LINE
  5
C4
330
1E
100
AcDbEntity
  8
0
  6
CONTINUOUS
 62
     7
100
AcDbLine
 10
161.47432
 20
-90.26196
 30
0.0
 11
158.2407199999998
 21
-90.26196
 31
0.0
  0
LINE
  5
C5
330
1E
100
AcDbEntity
  8
0
  6
CONTINUOUS
 62
     7
100
AcDbLine
 10
159.36153
 20
-45.463
 30
0.0
 11
159.0399999999999
 21
-44.263
 31
0.0
  0
LINE
  5
C6
330
1E
100
AcDbEntity
  8
0
  6
CONTINUOUS
 62
     7
100
AcDbLine
 10
159.0399999999999
 20
-44.263
 30
0.0
 11
158.71846
 21
-45.463
 31
0.0
  0
LINE
  5
C7
330
1E
100
AcDbEntity
  8
0
  6
CONTINUOUS
 62
     7
100
AcDbLine
 10
158.71846
 20
-89.061
 30
0.0
 11
159.0399999999999
 21
-90.26099999999999
 31
0.0
  0
LINE
  5
C8
330
1E
100
AcDbEntity
  8
0
  6
CONTINUOUS
 62
     7
100
AcDbLine
 10
159.0399999999999
 20
-90.26099999999999
 30
0.0
 11
159.36153
 21
-89.061
 31
0.0
  0
TEXT
  5
C9
330
1E
100
AcDbEntity
  8
0
  6
CONTINUOUS
 62
     7
100
AcDbText
 10
158.64072
 20
-72.26294
 30
0.0
 40
3.2
  1
１１５０
 50
90.0
 41
0.78125
  7
BIGFONT
100
AcDbText
  0
LINE
  5
CA
330
1E
100
AcDbEntity
  8
0
  6
CONTINUOUS
 62
     7
100
AcDbLine
 10
167.0
 20
-104.26196
 30
0.0
 11
215.0
 21
-104.26196
 31
0.0
  0
LINE
  5
CB
330
1E
100
AcDbEntity
  8
0
  6
CONTINUOUS
 62
     7
100
AcDbLine
 10
215.0
 20
-91.26196
 30
0.0
 11
215.0
 21
-105.06196
 31
0.0
  0
LINE
  5
CC
330
1E
100
AcDbEntity
  8
0
  6
CONTINUOUS
 62
     7
100
AcDbLine
 10
167.0
 20
-91.26196
 30
0.0
 11
167.0
 21
-105.06196
 31
0.0
  0
LINE
  5
CD
330
1E
100
AcDbEntity
  8
0
  6
CONTINUOUS
 62
     7
100
AcDbLine
 10
213.8
 20
-104.58253
 30
0.0
 11
215.0
 21
-104.261
 31
0.0
  0
LINE
  5
CE
330
1E
100
AcDbEntity
  8
0
  6
CONTINUOUS
 62
     7
100
AcDbLine
 10
215.0
 20
-104.261
 30
0.0
 11
213.8
 21
-103.93946
 31
0.0
  0
LINE
  5
CF
330
1E
100
AcDbEntity
  8
0
  6
CONTINUOUS
 62
     7
100
AcDbLine
 10
168.1999999999999
 20
-103.93946
 30
0.0
 11
167.0
 21
-104.261
 31
0.0
  0
LINE
  5
D0
330
1E
100
AcDbEntity
  8
0
  6
CONTINUOUS
 62
     7
100
AcDbLine
 10
167.0
 20
-104.261
 30
0.0
 11
168.1999999999999
 21
-104.58253
 31
0.0
  0
TEXT
  5
D1
330
1E
100
AcDbEntity
  8
0
  6
CONTINUOUS
 62
     7
100
AcDbText
 10
186.0
 20
-103.86196
 30
0.0
 40
3.2
  1
１２００
 41
0.78125
  7
BIGFONT
100
AcDbText
  0
LINE
  5
D2
330
1E
100
AcDbEntity
  8
0
  6
CONTINUOUS
 62
     7
100
AcDbLine
 10
167.0
 20
-98.26196000000001
 30
0.0
 11
172.5999999999999
 21
-98.26196000000001
 31
0.0
  0
LINE
  5
D3
330
1E
100
AcDbEntity
  8
0
  6
CONTINUOUS
 62
     7
100
AcDbLine
 10
172.5999999999999
 20
-91.26196
 30
0.0
 11
172.5999999999999
 21
-99.06196000000001
 31
0.0
  0
LINE
  5
D4
330
1E
100
AcDbEntity
  8
0
  6
CONTINUOUS
 62
     7
100
AcDbLine
 10
167.0
 20
-97.84860000000001
 30
0.0
 11
167.0
 21
-99.06196000000001
 31
0.0
  0
LINE
  5
D5
330
1E
100
AcDbEntity
  8
0
  6
CONTINUOUS
 62
     7
100
AcDbLine
 10
171.4
 20
-98.58253000000001
 30
0.0
 11
172.5999999999999
 21
-98.26100000000003
 31
0.0
  0
LINE
  5
D6
330
1E
100
AcDbEntity
  8
0
  6
CONTINUOUS
 62
     7
100
AcDbLine
 10
172.5999999999999
 20
-98.26100000000003
 30
0.0
 11
171.4
 21
-97.93946
 31
0.0
  0
LINE
  5
D7
330
1E
100
AcDbEntity
  8
0
  6
CONTINUOUS
 62
     7
100
AcDbLine
 10
168.1999999999999
 20
-97.93946
 30
0.0
 11
167.0
 21
-98.26100000000003
 31
0.0
  0
LINE
  5
D8
330
1E
100
AcDbEntity
  8
0
  6
CONTINUOUS
 62
     7
100
AcDbLine
 10
167.0
 20
-98.26100000000003
 30
0.0
 11
168.1999999999999
 21
-98.58253000000001
 31
0.0
  0
TEXT
  5
D9
330
1E
100
AcDbEntity
  8
0
  6
CONTINUOUS
 62
     7
100
AcDbText
 10
166.05
 20
-97.86196
 30
0.0
 40
3.2
  1
１４０
 41
0.78125
  7
BIGFONT
100
AcDbText
  0
LINE
  5
DA
330
1E
100
AcDbEntity
  8
0
  6
CONTINUOUS
 62
     7
100
AcDbLine
 10
172.5999999999999
 20
-98.26196000000001
 30
0.0
 11
176.6
 21
-98.26196000000001
 31
0.0
  0
LINE
  5
DB
330
1E
100
AcDbEntity
  8
0
  6
CONTINUOUS
 62
     7
100
AcDbLine
 10
176.6
 20
-91.26196
 30
0.0
 11
176.6
 21
-99.06196000000001
 31
0.0
  0
LINE
  5
DC
330
1E
100
AcDbEntity
  8
0
  6
CONTINUOUS
 62
     7
100
AcDbLine
 10
179.0
 20
-98.26196000000001
 30
0.0
 11
176.6
 21
-98.26196000000001
 31
0.0
  0
LINE
  5
DD
330
1E
100
AcDbEntity
  8
0
  6
CONTINUOUS
 62
     7
100
AcDbLine
 10
177.8
 20
-97.93946
 30
0.0
 11
176.6
 21
-98.26100000000003
 31
0.0
  0
LINE
  5
DE
330
1E
100
AcDbEntity
  8
0
  6
CONTINUOUS
 62
     7
100
AcDbLine
 10
176.6
 20
-98.26100000000003
 30
0.0
 11
177.8
 21
-98.58253000000001
 31
0.0
  0
LINE
  5
DF
330
1E
100
AcDbEntity
  8
0
  6
CONTINUOUS
 62
     7
100
AcDbLine
 10
172.5999999999999
 20
-98.26196000000001
 30
0.0
 11
170.1999999999999
 21
-98.26196000000001
 31
0.0
  0
LINE
  5
E0
330
1E
100
AcDbEntity
  8
0
  6
CONTINUOUS
 62
     7
100
AcDbLine
 10
171.4
 20
-98.58253000000001
 30
0.0
 11
172.5999999999999
 21
-98.26100000000003
 31
0.0
  0
LINE
  5
E1
330
1E
100
AcDbEntity
  8
0
  6
CONTINUOUS
 62
     7
100
AcDbLine
 10
172.5999999999999
 20
-98.26100000000003
 30
0.0
 11
171.4
 21
-97.93946
 31
0.0
  0
LINE
  5
E2
330
1E
100
AcDbEntity
  8
0
  6
CONTINUOUS
 62
     7
100
AcDbLine
 10
179.0
 20
-98.26196000000001
 30
0.0
 11
184.6
 21
-98.26196000000001
 31
0.0
  0
TEXT
  5
E3
330
1E
100
AcDbEntity
  8
0
  6
CONTINUOUS
 62
     7
100
AcDbText
 10
177.0999999999999
 20
-97.86196
 30
0.0
 40
3.2
  1
１００
 41
0.78125
  7
BIGFONT
100
AcDbText
  0
LINE
  5
E4
330
1E
100
AcDbEntity
  8
0
  6
CONTINUOUS
 62
     7
100
AcDbLine
 10
-158.8071199999999
 20
169.37492
 30
0.0
 11
158.7302399999998
 21
169.37492
 31
0.0
  0
TEXT
  5
E5
330
1E
100
AcDbEntity
  8
0
  6
CONTINUOUS
 62
     7
100
AcDbText
 10
-154.43268
 20
171.61404
 30
0.0
 40
10.0
  1
ＫＬウォール３型．コーナー部構造図
  7
BIGFONT
100
AcDbText
  0
TEXT
  5
E6
330
1E
100
AcDbEntity
  8
0
  6
CONTINUOUS
 62
     7
100
AcDbText
 10
121.7953599999999
 20
172.40412
 30
0.0
 40
5.5
  1
Ｓ＝１：２５
  7
BIGFONT
100
AcDbText
  0
TEXT
  5
E7
330
1E
100
AcDbEntity
  8
0
  6
CONTINUOUS
 62
     7
100
AcDbText
 10
51.77334062471135
 20
172.5300399999999
 30
0.0
 40
6.5
  1
(H=1750-90°)
  7
BIGFONT
100
AcDbText
  0
TEXT
  5
E8
330
1E
100
AcDbEntity
  8
0
  6
CONTINUOUS
 62
     7
100
AcDbText
 10
171.76816
 20
-39.38055999999999
 30
0.0
 40
3.2
  1
９０゜
 50
45.0
  7
BIGFONT
100
AcDbText
  0
ARC
  5
E9
330
1E
100
AcDbEntity
  8
0
  6
CONTINUOUS
 62
     7
100
AcDbCircle
 10
167.0
 20
-30.26196
 30
0.0
 40
6.461079999999999
100
AcDbArc
 50
270.0
 51
0.0
  0
ARC
  5
EA
330
1E
100
AcDbEntity
  8
0
  6
CONTINUOUS
 62
     7
100
AcDbCircle
 10
165.32751
 20
-30.48118
 30
0.0
 40
6.461999999999997
100
AcDbArc
 50
285.0
 51
295.63988
  0
ARC
  5
EB
330
1E
100
AcDbEntity
  8
0
  6
CONTINUOUS
 62
     7
100
AcDbCircle
 10
168.67248
 20
-30.48118
 30
0.0
 40
6.461999999999997
100
AcDbArc
 50
255.0
 51
265.63988
  0
ARC
  5
EC
330
1E
100
AcDbEntity
  8
0
  6
CONTINUOUS
 62
     7
100
AcDbCircle
 10
167.2201499999999
 20
-31.93322
 30
0.0
 40
6.461
100
AcDbArc
 50
4.3584684
 51
15.0
  0
ARC
  5
ED
330
1E
100
AcDbEntity
  8
0
  6
CONTINUOUS
 62
     7
100
AcDbCircle
 10
167.2201499999999
 20
-28.58877
 30
0.0
 40
6.461
100
AcDbArc
 50
334.35846
 51
345.0
  0
LINE
  5
EE
330
1E
100
AcDbEntity
  8
0
  6
CONTINUOUS
 62
     7
100
AcDbLine
 10
181.0
 20
66.6
 30
0.0
 11
227.0
 21
66.6
 31
0.0
  0
LINE
  5
EF
330
1E
100
AcDbEntity
  8
0
  6
CONTINUOUS
 62
     7
100
AcDbLine
 10
181.0
 20
62.6
 30
0.0
 11
181.0
 21
66.6
 31
0.0
  0
LINE
  5
F0
330
1E
100
AcDbEntity
  8
0
  6
CONTINUOUS
 62
     7
100
AcDbLine
 10
215.0
 20
57.0
 30
0.0
 11
215.0
 21
62.6
 31
0.0
  0
LINE
  5
F1
330
1E
100
AcDbEntity
  8
0
  6
CONTINUOUS
 62
     7
100
AcDbLine
 10
239.0741999999999
 20
57.0
 30
0.0
 11
239.0741999999999
 21
62.6
 31
0.0
  0
LINE
  5
F2
330
1E
100
AcDbEntity
  8
0
  6
CONTINUOUS
 62
     7
100
AcDbLine
 10
228.0
 20
62.6
 30
0.0
 11
239.8741999999999
 21
62.6
 31
0.0
  0
LINE
  5
F3
330
1E
100
AcDbEntity
  8
0
  6
CONTINUOUS
 62
     7
100
AcDbLine
 10
228.0
 20
57.0
 30
0.0
 11
239.8741999999999
 21
57.0
 31
0.0
  0
LINE
  5
F4
330
1E
100
AcDbEntity
  8
0
  6
CONTINUOUS
 62
     7
100
AcDbLine
 10
239.39553
 20
61.4
 30
0.0
 11
239.074
 21
62.6
 31
0.0
  0
LINE
  5
F5
330
1E
100
AcDbEntity
  8
0
  6
CONTINUOUS
 62
     7
100
AcDbLine
 10
239.074
 20
62.6
 30
0.0
 11
238.75246
 21
61.4
 31
0.0
  0
LINE
  5
F6
330
1E
100
AcDbEntity
  8
0
  6
CONTINUOUS
 62
     7
100
AcDbLine
 10
238.75246
 20
58.2
 30
0.0
 11
239.074
 21
57.0
 31
0.0
  0
LINE
  5
F7
330
1E
100
AcDbEntity
  8
0
  6
CONTINUOUS
 62
     7
100
AcDbLine
 10
239.074
 20
57.0
 30
0.0
 11
239.39553
 21
58.2
 31
0.0
  0
TEXT
  5
F8
330
1E
100
AcDbEntity
  8
0
  6
CONTINUOUS
 62
     7
100
AcDbText
 10
238.6742
 20
57.88060374281421
 30
0.0
 40
3.2
  1
140
 50
90.0
 41
0.78125
  7
BIGFONT
100
AcDbText
  0
LINE
  5
F9
330
1E
100
AcDbEntity
  8
0
  6
CONTINUOUS
 62
     7
100
AcDbLine
 10
239.0741999999999
 20
62.6
 30
0.0
 11
239.0741999999999
 21
66.6
 31
0.0
  0
LINE
  5
FA
330
1E
100
AcDbEntity
  8
0
  6
CONTINUOUS
 62
     7
100
AcDbLine
 10
228.0
 20
66.6
 30
0.0
 11
239.8741999999999
 21
66.6
 31
0.0
  0
LINE
  5
FB
330
1E
100
AcDbEntity
  8
0
  6
CONTINUOUS
 62
     7
100
AcDbLine
 10
239.0741999999999
 20
69.0
 30
0.0
 11
239.0741999999999
 21
66.6
 31
0.0
  0
LINE
  5
FC
330
1E
100
AcDbEntity
  8
0
  6
CONTINUOUS
 62
     7
100
AcDbLine
 10
238.75246
 20
67.8
 30
0.0
 11
239.074
 21
66.6
 31
0.0
  0
LINE
  5
FD
330
1E
100
AcDbEntity
  8
0
  6
CONTINUOUS
 62
     7
100
AcDbLine
 10
239.074
 20
66.6
 30
0.0
 11
239.39553
 21
67.8
 31
0.0
  0
LINE
  5
FE
330
1E
100
AcDbEntity
  8
0
  6
CONTINUOUS
 62
     7
100
AcDbLine
 10
239.0741999999999
 20
62.6
 30
0.0
 11
239.0741999999999
 21
60.2
 31
0.0
  0
LINE
  5
FF
330
1E
100
AcDbEntity
  8
0
  6
CONTINUOUS
 62
     7
100
AcDbLine
 10
239.39553
 20
61.4
 30
0.0
 11
239.074
 21
62.6
 31
0.0
  0
LINE
  5
100
330
1E
100
AcDbEntity
  8
0
  6
CONTINUOUS
 62
     7
100
AcDbLine
 10
239.074
 20
62.6
 30
0.0
 11
238.75246
 21
61.4
 31
0.0
  0
LINE
  5
101
330
1E
100
AcDbEntity
  8
0
  6
CONTINUOUS
 62
     7
100
AcDbLine
 10
239.0741999999999
 20
69.0
 30
0.0
 11
239.0741999999999
 21
75.09999999999998
 31
0.0
  0
TEXT
  5
102
330
1E
100
AcDbEntity
  8
0
  6
CONTINUOUS
 62
     7
100
AcDbText
 10
238.6742
 20
68.78989204167382
 30
0.0
 40
3.2
  1
100
 50
90.0
 41
0.78125
  7
BIGFONT
100
AcDbText
  0
LINE
  5
103
330
1E
100
AcDbEntity
  8
0
  6
CONTINUOUS
 62
     7
100
AcDbLine
 10
167.0
 20
37.0
 30
0.0
 11
215.0
 21
37.0
 31
0.0
  0
LINE
  5
104
330
1E
100
AcDbEntity
  8
0
  6
CONTINUOUS
 62
     7
100
AcDbLine
 10
215.0
 20
56.0
 30
0.0
 11
215.0
 21
36.2
 31
0.0
  0
LINE
  5
105
330
1E
100
AcDbEntity
  8
0
  6
CONTINUOUS
 62
     7
100
AcDbLine
 10
167.0
 20
56.0
 30
0.0
 11
167.0
 21
36.2
 31
0.0
  0
LINE
  5
106
330
1E
100
AcDbEntity
  8
0
  6
CONTINUOUS
 62
     7
100
AcDbLine
 10
213.8
 20
36.67846
 30
0.0
 11
215.0
 21
37.0
 31
0.0
  0
LINE
  5
107
330
1E
100
AcDbEntity
  8
0
  6
CONTINUOUS
 62
     7
100
AcDbLine
 10
215.0
 20
37.0
 30
0.0
 11
213.8
 21
37.32152999999997
 31
0.0
  0
LINE
  5
108
330
1E
100
AcDbEntity
  8
0
  6
CONTINUOUS
 62
     7
100
AcDbLine
 10
168.1999999999999
 20
37.32152999999997
 30
0.0
 11
167.0
 21
37.0
 31
0.0
  0
LINE
  5
109
330
1E
100
AcDbEntity
  8
0
  6
CONTINUOUS
 62
     7
100
AcDbLine
 10
167.0
 20
37.0
 30
0.0
 11
168.1999999999999
 21
36.67846
 31
0.0
  0
TEXT
  5
10A
330
1E
100
AcDbEntity
  8
0
  6
CONTINUOUS
 62
     7
100
AcDbText
 10
186.0
 20
37.4
 30
0.0
 40
3.2
  1
1200
 41
0.78125
  7
BIGFONT
100
AcDbText
  0
LINE
  5
10B
330
1E
100
AcDbEntity
  8
0
  6
CONTINUOUS
 62
     7
100
AcDbLine
 10
167.0
 20
43.0
 30
0.0
 11
172.5999999999999
 21
43.0
 31
0.0
  0
LINE
  5
10C
330
1E
100
AcDbEntity
  8
0
  6
CONTINUOUS
 62
     7
100
AcDbLine
 10
172.5999999999999
 20
48.0
 30
0.0
 11
172.5999999999999
 21
42.2
 31
0.0
  0
LINE
  5
10D
330
1E
100
AcDbEntity
  8
0
  6
CONTINUOUS
 62
     7
100
AcDbLine
 10
167.0
 20
44.82999999999999
 30
0.0
 11
167.0
 21
42.2
 31
0.0
  0
LINE
  5
10E
330
1E
100
AcDbEntity
  8
0
  6
CONTINUOUS
 62
     7
100
AcDbLine
 10
171.4
 20
42.67846
 30
0.0
 11
172.5999999999999
 21
43.0
 31
0.0
  0
LINE
  5
10F
330
1E
100
AcDbEntity
  8
0
  6
CONTINUOUS
 62
     7
100
AcDbLine
 10
172.5999999999999
 20
43.0
 30
0.0
 11
171.4
 21
43.32152999999999
 31
0.0
  0
LINE
  5
110
330
1E
100
AcDbEntity
  8
0
  6
CONTINUOUS
 62
     7
100
AcDbLine
 10
168.1999999999999
 20
43.32152999999999
 30
0.0
 11
167.0
 21
43.0
 31
0.0
  0
LINE
  5
111
330
1E
100
AcDbEntity
  8
0
  6
CONTINUOUS
 62
     7
100
AcDbLine
 10
167.0
 20
43.0
 30
0.0
 11
168.1999999999999
 21
42.67846
 31
0.0
  0
TEXT
  5
112
330
1E
100
AcDbEntity
  8
0
  6
CONTINUOUS
 62
     7
100
AcDbText
 10
166.05
 20
43.39999999999998
 30
0.0
 40
3.2
  1
140
 41
0.78125
  7
BIGFONT
100
AcDbText
  0
LINE
  5
113
330
1E
100
AcDbEntity
  8
0
  6
CONTINUOUS
 62
     7
100
AcDbLine
 10
172.5999999999999
 20
43.0
 30
0.0
 11
215.0
 21
43.0
 31
0.0
  0
LINE
  5
114
330
1E
100
AcDbEntity
  8
0
  6
CONTINUOUS
 62
     7
100
AcDbLine
 10
215.0
 20
44.53032
 30
0.0
 11
215.0
 21
42.2
 31
0.0
  0
LINE
  5
115
330
1E
100
AcDbEntity
  8
0
  6
CONTINUOUS
 62
     7
100
AcDbLine
 10
213.8
 20
42.67846
 30
0.0
 11
215.0
 21
43.0
 31
0.0
  0
LINE
  5
116
330
1E
100
AcDbEntity
  8
0
  6
CONTINUOUS
 62
     7
100
AcDbLine
 10
215.0
 20
43.0
 30
0.0
 11
213.8
 21
43.32152999999999
 31
0.0
  0
LINE
  5
117
330
1E
100
AcDbEntity
  8
0
  6
CONTINUOUS
 62
     7
100
AcDbLine
 10
173.8
 20
43.32152999999999
 30
0.0
 11
172.5999999999999
 21
43.0
 31
0.0
  0
LINE
  5
118
330
1E
100
AcDbEntity
  8
0
  6
CONTINUOUS
 62
     7
100
AcDbLine
 10
172.5999999999999
 20
43.0
 30
0.0
 11
173.8
 21
42.67846
 31
0.0
  0
TEXT
  5
119
330
1E
100
AcDbEntity
  8
0
  6
CONTINUOUS
 62
     7
100
AcDbText
 10
188.8
 20
43.39999999999998
 30
0.0
 40
3.2
  1
1060
 41
0.78125
  7
BIGFONT
100
AcDbText
  0
LINE
  5
11A
330
1E
100
AcDbEntity
  8
0
  6
CONTINUOUS
 62
     7
100
AcDbLine
 10
167.0
 20
49.0
 30
0.0
 11
195.0
 21
49.0
 31
0.0
  0
LINE
  5
11B
330
1E
100
AcDbEntity
  8
0
  6
CONTINUOUS
 62
     7
100
AcDbLine
 10
195.0
 20
56.0
 30
0.0
 11
195.0
 21
48.2
 31
0.0
  0
LINE
  5
11C
330
1E
100
AcDbEntity
  8
0
  6
CONTINUOUS
 62
     7
100
AcDbLine
 10
167.0
 20
49.66176
 30
0.0
 11
167.0
 21
48.2
 31
0.0
  0
LINE
  5
11D
330
1E
100
AcDbEntity
  8
0
  6
CONTINUOUS
 62
     7
100
AcDbLine
 10
193.8
 20
48.67846
 30
0.0
 11
195.0
 21
49.0
 31
0.0
  0
LINE
  5
11E
330
1E
100
AcDbEntity
  8
0
  6
CONTINUOUS
 62
     7
100
AcDbLine
 10
195.0
 20
49.0
 30
0.0
 11
193.8
 21
49.32152999999999
 31
0.0
  0
LINE
  5
11F
330
1E
100
AcDbEntity
  8
0
  6
CONTINUOUS
 62
     7
100
AcDbLine
 10
168.1999999999999
 20
49.32152999999999
 30
0.0
 11
167.0
 21
49.0
 31
0.0
  0
LINE
  5
120
330
1E
100
AcDbEntity
  8
0
  6
CONTINUOUS
 62
     7
100
AcDbLine
 10
167.0
 20
49.0
 30
0.0
 11
168.1999999999999
 21
48.67846
 31
0.0
  0
TEXT
  5
121
330
1E
100
AcDbEntity
  8
0
  6
CONTINUOUS
 62
     7
100
AcDbText
 10
177.2499999999999
 20
49.4
 30
0.0
 40
3.2
  1
700
 41
0.78125
  7
BIGFONT
100
AcDbText
  0
LINE
  5
122
330
1E
100
AcDbEntity
  8
0
  6
CONTINUOUS
 62
     7
100
AcDbLine
 10
195.0
 20
49.0
 30
0.0
 11
215.0
 21
49.0
 31
0.0
  0
LINE
  5
123
330
1E
100
AcDbEntity
  8
0
  6
CONTINUOUS
 62
     7
100
AcDbLine
 10
215.0
 20
50.56488
 30
0.0
 11
215.0
 21
48.2
 31
0.0
  0
LINE
  5
124
330
1E
100
AcDbEntity
  8
0
  6
CONTINUOUS
 62
     7
100
AcDbLine
 10
213.8
 20
48.67846
 30
0.0
 11
215.0
 21
49.0
 31
0.0
  0
LINE
  5
125
330
1E
100
AcDbEntity
  8
0
  6
CONTINUOUS
 62
     7
100
AcDbLine
 10
215.0
 20
49.0
 30
0.0
 11
213.8
 21
49.32152999999999
 31
0.0
  0
LINE
  5
126
330
1E
100
AcDbEntity
  8
0
  6
CONTINUOUS
 62
     7
100
AcDbLine
 10
196.1999999999999
 20
49.32152999999999
 30
0.0
 11
195.0
 21
49.0
 31
0.0
  0
LINE
  5
127
330
1E
100
AcDbEntity
  8
0
  6
CONTINUOUS
 62
     7
100
AcDbLine
 10
195.0
 20
49.0
 30
0.0
 11
196.1999999999999
 21
48.67846
 31
0.0
  0
TEXT
  5
128
330
1E
100
AcDbEntity
  8
0
  6
CONTINUOUS
 62
     7
100
AcDbText
 10
201.25
 20
49.4
 30
0.0
 40
3.2
  1
500
 41
0.78125
  7
BIGFONT
100
AcDbText
  0
LINE
  5
129
330
1E
100
AcDbEntity
  8
0
  6
CONTINUOUS
 62
     7
100
AcDbLine
 10
172.5999999999999
 20
49.87956
 30
0.0
 11
172.5999999999999
 21
55.98448000000001
 31
0.0
  0
LINE
  5
12A
330
1E
100
AcDbEntity
  8
0
  6
CONTINUOUS
 62
     7
100
AcDbLine
 10
147.0
 20
57.0
 30
0.0
 11
147.0
 21
62.6
 31
0.0
  0
LINE
  5
12B
330
1E
100
AcDbEntity
  8
0
  6
CONTINUOUS
 62
     7
100
AcDbLine
 10
148.68896
 20
62.6
 30
0.0
 11
146.1999999999999
 21
62.6
 31
0.0
  0
LINE
  5
12C
330
1E
100
AcDbEntity
  8
0
  6
CONTINUOUS
 62
     7
100
AcDbLine
 10
148.5391599999998
 20
57.0
 30
0.0
 11
146.1999999999999
 21
57.0
 31
0.0
  0
LINE
  5
12D
330
1E
100
AcDbEntity
  8
0
  6
CONTINUOUS
 62
     7
100
AcDbLine
 10
147.3215299999999
 20
61.4
 30
0.0
 11
147.0
 21
62.6
 31
0.0
  0
LINE
  5
12E
330
1E
100
AcDbEntity
  8
0
  6
CONTINUOUS
 62
     7
100
AcDbLine
 10
147.0
 20
62.6
 30
0.0
 11
146.6784599999999
 21
61.4
 31
0.0
  0
LINE
  5
12F
330
1E
100
AcDbEntity
  8
0
  6
CONTINUOUS
 62
     7
100
AcDbLine
 10
146.6784599999999
 20
58.2
 30
0.0
 11
147.0
 21
57.0
 31
0.0
  0
LINE
  5
130
330
1E
100
AcDbEntity
  8
0
  6
CONTINUOUS
 62
     7
100
AcDbLine
 10
147.0
 20
57.0
 30
0.0
 11
147.3215299999999
 21
58.2
 31
0.0
  0
TEXT
  5
131
330
1E
100
AcDbEntity
  8
0
  6
CONTINUOUS
 62
     7
100
AcDbText
 10
146.6
 20
57.61311402242931
 30
0.0
 40
3.2
  1
140
 50
90.0
 41
0.78125
  7
BIGFONT
100
AcDbText
  0
LINE
  5
132
330
1E
100
AcDbEntity
  8
0
  6
CONTINUOUS
 62
     7
100
AcDbLine
 10
147.0
 20
62.6
 30
0.0
 11
147.0
 21
127.0
 31
0.0
  0
LINE
  5
133
330
1E
100
AcDbEntity
  8
0
  6
CONTINUOUS
 62
     7
100
AcDbLine
 10
147.76864
 20
127.0
 30
0.0
 11
146.1999999999999
 21
127.0
 31
0.0
  0
LINE
  5
134
330
1E
100
AcDbEntity
  8
0
  6
CONTINUOUS
 62
     7
100
AcDbLine
 10
147.3215299999999
 20
125.8
 30
0.0
 11
147.0
 21
127.0
 31
0.0
  0
LINE
  5
135
330
1E
100
AcDbEntity
  8
0
  6
CONTINUOUS
 62
     7
100
AcDbLine
 10
147.0
 20
127.0
 30
0.0
 11
146.6784599999999
 21
125.8
 31
0.0
  0
LINE
  5
136
330
1E
100
AcDbEntity
  8
0
  6
CONTINUOUS
 62
     7
100
AcDbLine
 10
146.6784599999999
 20
63.79999999999999
 30
0.0
 11
147.0
 21
62.6
 31
0.0
  0
LINE
  5
137
330
1E
100
AcDbEntity
  8
0
  6
CONTINUOUS
 62
     7
100
AcDbLine
 10
147.0
 20
62.6
 30
0.0
 11
147.3215299999999
 21
63.79999999999999
 31
0.0
  0
TEXT
  5
138
330
1E
100
AcDbEntity
  8
0
  6
CONTINUOUS
 62
     7
100
AcDbText
 10
146.6
 20
89.8
 30
0.0
 40
3.2
  1
1610
 50
90.0
 41
0.78125
  7
BIGFONT
100
AcDbText
  0
TEXT
  5
139
330
1E
100
AcDbEntity
  8
3
  6
CONTINUOUS
 62
     7
100
AcDbText
 10
198.2059999999999
 20
-150.8809999999999
 30
0.0
 40
3.7
  1
コーナー部構造図
  7
BIGFONT
100
AcDbText
  0
TEXT
  5
13A
330
1E
100
AcDbEntity
  8
3
  6
CONTINUOUS
 62
     7
100
AcDbText
 10
198.226
 20
-146.201
 30
0.0
 40
3.7
  1
ＫＬウォール３型
  7
BIGFONT
100
AcDbText
  0
TEXT
  5
13D
330
1E
100
AcDbEntity
  8
3
  6
CONTINUOUS
 62
     7
100
AcDbText
 10
235.6656696631227
 20
-150.937
 30
0.0
 40
3.7
  1
(H=1750-90°)
 41
0.8
  7
BIGFONT
100
AcDbText
  0
LINE
  5
13E
330
1E
100
AcDbEntity
  8
0
  6
CONTINUOUS
 62
     7
100
AcDbLine
 10
94.98000000000001
 20
111.0
 30
0.0
 11
94.98000000000001
 21
127.0
 31
0.0
  0
LINE
  5
13F
330
1E
100
AcDbEntity
  8
0
  6
CONTINUOUS
 62
     7
100
AcDbLine
 10
94.86
 20
110.88
 30
0.0
 11
94.98000000000001
 21
111.0
 31
0.0
  0
LINE
  5
140
330
1E
100
AcDbEntity
  8
0
  6
CONTINUOUS
 62
     7
100
AcDbLine
 10
94.86
 20
68.71999999999998
 30
0.0
 11
94.86
 21
110.88
 31
0.0
  0
LINE
  5
141
330
1E
100
AcDbEntity
  8
0
  6
CONTINUOUS
 62
     7
100
AcDbLine
 10
94.86
 20
68.71999999999998
 30
0.0
 11
94.98000000000001
 21
68.59999999999999
 31
0.0
  0
LINE
  5
142
330
1E
100
AcDbEntity
  8
0
  6
CONTINUOUS
 62
     7
100
AcDbLine
 10
94.98000000000001
 20
57.48
 30
0.0
 11
94.98000000000001
 21
68.59999999999999
 31
0.0
  0
LINE
  5
143
330
1E
100
AcDbEntity
  8
0
  6
CONTINUOUS
 62
     7
100
AcDbLine
 10
94.98000000000001
 20
57.0
 30
0.0
 11
94.98000000000001
 21
66.6
 31
0.0
  0
LINE
  5
144
330
1E
100
AcDbEntity
  8
0
  6
CONTINUOUS
 62
     7
100
AcDbLine
 10
82.98
 20
57.0
 30
0.0
 11
82.98
 21
62.6
 31
0.0
  0
LINE
  5
145
330
1E
100
AcDbEntity
  8
0
  6
CONTINUOUS
 62
     7
100
AcDbLine
 10
-97.05844
 20
-30.26196
 30
0.0
 11
-37.05844
 21
-30.26196
 31
0.0
  0
LINE
  5
146
330
1E
100
AcDbEntity
  8
0
  6
CONTINUOUS
 62
     7
100
AcDbLine
 10
-97.05844
 20
-90.26196
 30
0.0
 11
-97.05844
 21
-30.26196
 31
0.0
  0
LINE
  5
147
330
1E
100
AcDbEntity
  8
0
  6
CONTINUOUS
 62
     7
100
AcDbLine
 10
-221.9387999999999
 20
-30.26196
 30
0.0
 11
-161.9387999999998
 21
-30.26196
 31
0.0
  0
LINE
  5
148
330
1E
100
AcDbEntity
  8
0
  6
CONTINUOUS
 62
     7
100
AcDbLine
 10
-221.9387999999999
 20
-90.26196
 30
0.0
 11
-221.9387999999999
 21
-30.26196
 31
0.0
  0
LINE
  5
149
330
1E
100
AcDbEntity
  8
0
  6
CONTINUOUS
 62
     7
100
AcDbLine
 10
182.9593999999999
 20
148.83588
 30
0.0
 11
209.6537199999999
 21
148.83588
 31
0.0
  0
LINE
  5
14A
330
1E
100
AcDbEntity
  8
0
  6
CONTINUOUS
 62
     7
100
AcDbLine
 10
182.9593999999999
 20
-4.26196
 30
0.0
 11
209.47324
 21
-4.26196
 31
0.0
  0
TEXT
  5
14B
330
1E
100
AcDbEntity
  8
0
  6
CONTINUOUS
 62
     7
100
AcDbText
 10
184.2546
 20
149.97308
 30
0.0
 40
6.2
  1
側面図
  7
BIGFONT
100
AcDbText
  0
TEXT
  5
14C
330
1E
100
AcDbEntity
  8
0
  6
CONTINUOUS
 62
     7
100
AcDbText
 10
184.0362
 20
-3.40804
 30
0.0
 40
6.2
  1
平面図
  7
BIGFONT
100
AcDbText
  0
LINE
  5
14D
330
1E
100
AcDbEntity
  8
0
  6
CONTINUOUS
 62
     7
100
AcDbLine
 10
167.36
 20
127.0
 30
0.0
 11
227.0
 21
127.0
 31
0.0
  0
LINE
  5
14E
330
1E
100
AcDbEntity
  8
0
  6
CONTINUOUS
 62
     7
100
AcDbLine
 10
-93.28824
 20
149.0
 30
0.0
 11
-40.72648
 21
149.0
 31
0.0
  0
LINE
  5
14F
330
1E
100
AcDbEntity
  8
0
  6
CONTINUOUS
 62
     7
100
AcDbLine
 10
-218.31752
 20
149.0
 30
0.0
 11
-165.8864
 21
149.0
 31
0.0
  0
TEXT
  5
150
330
1E
100
AcDbEntity
  8
0
  6
CONTINUOUS
 62
     7
100
AcDbText
 10
-215.55412
 20
149.85036
 30
0.0
 40
6.0
  1
Ａ－Ａ
 41
0.8666665999999999
  7
BIGFONT
100
AcDbText
  0
TEXT
  5
151
330
1E
100
AcDbEntity
  8
0
  6
CONTINUOUS
 62
     7
100
AcDbText
 10
-90.52255999999999
 20
149.6318
 30
0.0
 40
6.0
  1
Ｂ－Ｂ
 41
0.8666665999999999
  7
BIGFONT
100
AcDbText
  0
TEXT
  5
152
330
1E
100
AcDbEntity
  8
0
  6
CONTINUOUS
 62
     7
100
AcDbText
 10
-191.89128
 20
149.9802799999999
 30
0.0
 40
6.0
  1
断面図
  7
BIGFONT
100
AcDbText
  0
TEXT
  5
153
330
1E
100
AcDbEntity
  8
0
  6
CONTINUOUS
 62
     7
100
AcDbText
 10
-67.04644
 20
149.92868
 30
0.0
 40
6.0
  1
断面図
  7
BIGFONT
100
AcDbText
  0
LINE
  5
154
330
1E
100
AcDbEntity
  8
0
  6
CONTINUOUS
 62
     7
100
AcDbLine
 10
-93.28824
 20
-4.26196
 30
0.0
 11
-40.94167999999998
 21
-4.26196
 31
0.0
  0
LINE
  5
155
330
1E
100
AcDbEntity
  8
0
  6
CONTINUOUS
 62
     7
100
AcDbLine
 10
-218.29968
 20
-4.26196
 30
0.0
 11
-165.94896
 21
-4.26196
 31
0.0
  0
TEXT
  5
156
330
1E
100
AcDbEntity
  8
0
  6
CONTINUOUS
 62
     7
100
AcDbText
 10
-215.5148399999999
 20
-3.494639999999998
 30
0.0
 40
6.0
  1
Ｃ－Ｃ
 41
0.8666665999999999
  7
BIGFONT
100
AcDbText
  0
TEXT
  5
157
330
1E
100
AcDbEntity
  8
0
  6
CONTINUOUS
 62
     7
100
AcDbText
 10
-90.46236
 20
-3.420799999999998
 30
0.0
 40
6.0
  1
Ｄ－Ｄ
 41
0.8666665999999999
  7
BIGFONT
100
AcDbText
  0
TEXT
  5
158
330
1E
100
AcDbEntity
  8
0
  6
CONTINUOUS
 62
     7
100
AcDbText
 10
-66.7164
 20
-3.333159999999999
 30
0.0
 40
6.0
  1
断面図
  7
BIGFONT
100
AcDbText
  0
TEXT
  5
159
330
1E
100
AcDbEntity
  8
0
  6
CONTINUOUS
 62
     7
100
AcDbText
 10
-191.9074799999999
 20
-3.34888
 30
0.0
 40
6.0
  1
断面図
  7
BIGFONT
100
AcDbText
  0
LINE
  5
15A
330
1E
100
AcDbEntity
  8
0
  6
CONTINUOUS
 62
     7
100
AcDbLine
 10
40.6198
 20
127.0
 30
0.0
 11
94.98000000000001
 21
127.0
 31
0.0
  0
LINE
  5
15B
330
1E
100
AcDbEntity
  8
0
  6
CONTINUOUS
 62
     7
100
AcDbLine
 10
82.97012
 20
57.0
 30
0.0
 11
94.98000000000001
 21
57.0
 31
0.0
  0
LINE
  5
15C
330
1E
100
AcDbEntity
  8
0
  6
CONTINUOUS
 62
     7
100
AcDbLine
 10
82.97012
 20
62.6
 30
0.0
 11
94.98000000000001
 21
62.6
 31
0.0
  0
LINE
  5
15D
330
1E
100
AcDbEntity
  8
0
  6
CONTINUOUS
 62
     1
100
AcDbLine
 10
45.54695999999998
 20
59.03316
 30
0.0
 11
48.98696
 21
59.03316
 31
0.0
  0
LINE
  5
15E
330
1E
100
AcDbEntity
  8
0
  6
CONTINUOUS
 62
     1
100
AcDbLine
 10
36.97528
 20
67.78928
 30
0.0
 11
36.97528
 21
71.06928
 31
0.0
  0
LINE
  5
15F
330
1E
100
AcDbEntity
  8
0
  6
CONTINUOUS
 62
     1
100
AcDbLine
 10
39.65899999999999
 20
59.00148000000001
 30
0.0
 11
42.85899999999998
 21
59.00148000000001
 31
0.0
  0
POINT
  5
160
330
1E
100
AcDbEntity
  8
0
  6
CONTINUOUS
 62
     7
100
AcDbPoint
 10
44.98
 20
59.22508
 30
0.0
  0
POINT
  5
161
330
1E
100
AcDbEntity
  8
0
  6
CONTINUOUS
 62
     1
100
AcDbPoint
 10
38.98684
 20
59.40148
 30
0.0
  0
ARC
  5
162
330
1E
100
AcDbEntity
  8
0
  6
CONTINUOUS
 62
     1
100
AcDbCircle
 10
39.65899999999999
 20
60.20148
 30
0.0
 40
1.199999999999999
100
AcDbArc
 50
182.3306799999999
 51
270.0
  0
ARC
  5
163
330
1E
100
AcDbEntity
  8
0
  6
CONTINUOUS
 62
     1
100
AcDbCircle
 10
37.98
 20
60.04124
 30
0.0
 40
1.199999999999999
100
AcDbArc
 50
180.0
 51
270.0
  0
LINE
  5
164
330
1E
100
AcDbEntity
  8
0
  6
CONTINUOUS
 62
     1
100
AcDbLine
 10
36.78
 20
60.04124
 30
0.0
 11
36.78
 21
85.80124000000003
 31
0.0
  0
LINE
  5
165
330
1E
100
AcDbEntity
  8
0
  6
CONTINUOUS
 62
     1
100
AcDbLine
 10
37.98
 20
58.84123999999999
 30
0.0
 11
64.98000000000001
 21
58.84123999999999
 31
0.0
  0
LINE
  5
166
330
1E
100
AcDbEntity
  8
0
  6
CONTINUOUS
 62
     1
100
AcDbLine
 10
36.78
 20
84.15416
 30
0.0
 11
36.78
 21
87.69208
 31
0.0
  0
LINE
  5
167
330
1E
100
AcDbEntity
  8
0
  6
CONTINUOUS
 62
     7
100
AcDbLine
 10
35.34
 20
127.0
 30
0.0
 11
40.22
 21
127.0
 31
0.0
  0
LINE
  5
168
330
1E
100
AcDbEntity
  8
0
  6
CONTINUOUS
 62
     7
100
AcDbLine
 10
40.22
 20
127.0
 30
0.0
 11
40.57999999999998
 21
126.6399999999999
 31
0.0
  0
LINE
  5
169
330
1E
100
AcDbEntity
  8
0
  6
CONTINUOUS
 62
     7
100
AcDbLine
 10
34.97999999999999
 20
126.6399999999999
 30
0.0
 11
35.34
 21
127.0
 31
0.0
  0
LINE
  5
16A
330
1E
100
AcDbEntity
  8
0
  6
CONTINUOUS
 62
     7
100
AcDbLine
 10
40.57999999999998
 20
66.6
 30
0.0
 11
44.58
 21
62.6
 31
0.0
  0
LINE
  5
16B
330
1E
100
AcDbEntity
  8
0
  6
CONTINUOUS
 62
     7
100
AcDbLine
 10
40.57999999999998
 20
66.6
 30
0.0
 11
40.57999999999998
 21
126.6399999999999
 31
0.0
  0
LINE
  5
16C
330
1E
100
AcDbEntity
  8
0
  6
CONTINUOUS
 62
     7
100
AcDbLine
 10
82.98
 20
57.0
 30
0.0
 11
82.98
 21
62.6
 31
0.0
  0
LINE
  5
16D
330
1E
100
AcDbEntity
  8
0
  6
CONTINUOUS
 62
     1
100
AcDbLine
 10
36.97528
 20
67.78928
 30
0.0
 11
45.54695999999998
 21
59.03316
 31
0.0
  0
LINE
  5
16E
330
1E
100
AcDbEntity
  8
0
  6
CONTINUOUS
 62
     1
100
AcDbLine
 10
36.78
 20
85.72124
 30
0.0
 11
36.78
 21
99.0
 31
0.0
  0
LINE
  5
16F
330
1E
100
AcDbEntity
  8
0
  6
CONTINUOUS
 62
     7
100
AcDbLine
 10
19.78
 20
57.0
 30
0.0
 11
19.78
 21
58.84123999999999
 31
0.0
  0
LINE
  5
170
330
1E
100
AcDbEntity
  8
0
  6
CONTINUOUS
 62
     7
100
AcDbLine
 10
33.97999999999999
 20
58.84123999999999
 30
0.0
 11
18.98
 21
58.84123999999999
 31
0.0
  0
LINE
  5
171
330
1E
100
AcDbEntity
  8
0
  6
CONTINUOUS
 62
     7
100
AcDbLine
 10
33.97999999999999
 20
57.0
 30
0.0
 11
18.98
 21
57.0
 31
0.0
  0
LINE
  5
172
330
1E
100
AcDbEntity
  8
0
  6
CONTINUOUS
 62
     7
100
AcDbLine
 10
19.78
 20
61.24124000000001
 30
0.0
 11
19.78
 21
58.84123999999999
 31
0.0
  0
LINE
  5
173
330
1E
100
AcDbEntity
  8
0
  6
CONTINUOUS
 62
     7
100
AcDbLine
 10
19.45846
 20
60.04100000000001
 30
0.0
 11
19.78
 21
58.841
 31
0.0
  0
LINE
  5
174
330
1E
100
AcDbEntity
  8
0
  6
CONTINUOUS
 62
     7
100
AcDbLine
 10
19.78
 20
58.841
 30
0.0
 11
20.10153
 21
60.04100000000001
 31
0.0
  0
LINE
  5
175
330
1E
100
AcDbEntity
  8
0
  6
CONTINUOUS
 62
     7
100
AcDbLine
 10
19.78
 20
57.0
 30
0.0
 11
19.78
 21
54.6
 31
0.0
  0
LINE
  5
176
330
1E
100
AcDbEntity
  8
0
  6
CONTINUOUS
 62
     7
100
AcDbLine
 10
20.10153
 20
55.8
 30
0.0
 11
19.78
 21
57.0
 31
0.0
  0
LINE
  5
177
330
1E
100
AcDbEntity
  8
0
  6
CONTINUOUS
 62
     7
100
AcDbLine
 10
19.78
 20
57.0
 30
0.0
 11
19.45846
 21
55.8
 31
0.0
  0
LINE
  5
178
330
1E
100
AcDbEntity
  8
0
  6
CONTINUOUS
 62
     7
100
AcDbLine
 10
19.78
 20
54.6
 30
0.0
 11
19.78
 21
49.5
 31
0.0
  0
TEXT
  5
179
330
1E
100
AcDbEntity
  8
0
  6
CONTINUOUS
 62
     7
100
AcDbText
 10
19.37999999999998
 20
49.5
 30
0.0
 40
3.2
  1
45
 50
90.0
 41
0.78125
  7
BIGFONT
100
AcDbText
  0
LINE
  5
17A
330
1E
100
AcDbEntity
  8
0
  6
CONTINUOUS
 62
     7
100
AcDbLine
 10
19.78
 20
58.84123999999999
 30
0.0
 11
19.78
 21
124.9975999999999
 31
0.0
  0
LINE
  5
17B
330
1E
100
AcDbEntity
  8
0
  6
CONTINUOUS
 62
     7
100
AcDbLine
 10
33.97999999999999
 20
124.9975999999999
 30
0.0
 11
18.98
 21
124.9975999999999
 31
0.0
  0
LINE
  5
17C
330
1E
100
AcDbEntity
  8
0
  6
CONTINUOUS
 62
     7
100
AcDbLine
 10
20.10153
 20
123.797
 30
0.0
 11
19.78
 21
124.997
 31
0.0
  0
LINE
  5
17D
330
1E
100
AcDbEntity
  8
0
  6
CONTINUOUS
 62
     7
100
AcDbLine
 10
19.78
 20
124.997
 30
0.0
 11
19.45846
 21
123.797
 31
0.0
  0
LINE
  5
17E
330
1E
100
AcDbEntity
  8
0
  6
CONTINUOUS
 62
     7
100
AcDbLine
 10
19.45846
 20
60.04100000000001
 30
0.0
 11
19.78
 21
58.841
 31
0.0
  0
LINE
  5
17F
330
1E
100
AcDbEntity
  8
0
  6
CONTINUOUS
 62
     7
100
AcDbLine
 10
19.78
 20
58.841
 30
0.0
 11
20.10153
 21
60.04100000000001
 31
0.0
  0
TEXT
  5
180
330
1E
100
AcDbEntity
  8
0
  6
CONTINUOUS
 62
     7
100
AcDbText
 10
19.37999999999998
 20
86.91942
 30
0.0
 40
3.2
  1
1655
 50
90.0
 41
0.78125
  7
BIGFONT
100
AcDbText
  0
LINE
  5
181
330
1E
100
AcDbEntity
  8
0
  6
CONTINUOUS
 62
     7
100
AcDbLine
 10
19.78
 20
124.9975999999999
 30
0.0
 11
19.78
 21
127.0
 31
0.0
  0
LINE
  5
182
330
1E
100
AcDbEntity
  8
0
  6
CONTINUOUS
 62
     7
100
AcDbLine
 10
33.97999999999999
 20
127.0
 30
0.0
 11
18.98
 21
127.0
 31
0.0
  0
LINE
  5
183
330
1E
100
AcDbEntity
  8
0
  6
CONTINUOUS
 62
     7
100
AcDbLine
 10
19.78
 20
129.4
 30
0.0
 11
19.78
 21
127.0
 31
0.0
  0
LINE
  5
184
330
1E
100
AcDbEntity
  8
0
  6
CONTINUOUS
 62
     7
100
AcDbLine
 10
19.45846
 20
128.1999999999999
 30
0.0
 11
19.78
 21
127.0
 31
0.0
  0
LINE
  5
185
330
1E
100
AcDbEntity
  8
0
  6
CONTINUOUS
 62
     7
100
AcDbLine
 10
19.78
 20
127.0
 30
0.0
 11
20.10153
 21
128.1999999999999
 31
0.0
  0
LINE
  5
186
330
1E
100
AcDbEntity
  8
0
  6
CONTINUOUS
 62
     7
100
AcDbLine
 10
19.78
 20
124.9975999999999
 30
0.0
 11
19.78
 21
122.5975999999999
 31
0.0
  0
LINE
  5
187
330
1E
100
AcDbEntity
  8
0
  6
CONTINUOUS
 62
     7
100
AcDbLine
 10
20.10153
 20
123.797
 30
0.0
 11
19.78
 21
124.997
 31
0.0
  0
LINE
  5
188
330
1E
100
AcDbEntity
  8
0
  6
CONTINUOUS
 62
     7
100
AcDbLine
 10
19.78
 20
124.997
 30
0.0
 11
19.45846
 21
123.797
 31
0.0
  0
LINE
  5
189
330
1E
100
AcDbEntity
  8
0
  6
CONTINUOUS
 62
     7
100
AcDbLine
 10
19.78
 20
129.4
 30
0.0
 11
19.78
 21
134.4999999999999
 31
0.0
  0
TEXT
  5
18A
330
1E
100
AcDbEntity
  8
0
  6
CONTINUOUS
 62
     7
100
AcDbText
 10
19.37999999999998
 20
129.4999999999999
 30
0.0
 40
3.2
  1
50
 50
90.0
 41
0.78125
  7
BIGFONT
100
AcDbText
  0
LINE
  5
18B
330
1E
100
AcDbEntity
  8
0
  6
CONTINUOUS
 62
     7
100
AcDbLine
 10
34.97999999999999
 20
37.04124
 30
0.0
 11
82.98
 21
37.04124
 31
0.0
  0
LINE
  5
18C
330
1E
100
AcDbEntity
  8
0
  6
CONTINUOUS
 62
     7
100
AcDbLine
 10
82.98
 20
56.0
 30
0.0
 11
82.98
 21
36.24124
 31
0.0
  0
LINE
  5
18D
330
1E
100
AcDbEntity
  8
0
  6
CONTINUOUS
 62
     7
100
AcDbLine
 10
34.97999999999999
 20
56.0
 30
0.0
 11
34.97999999999999
 21
36.24124
 31
0.0
  0
LINE
  5
18E
330
1E
100
AcDbEntity
  8
0
  6
CONTINUOUS
 62
     7
100
AcDbLine
 10
81.78
 20
36.71946
 30
0.0
 11
82.98
 21
37.04099999999999
 31
0.0
  0
LINE
  5
18F
330
1E
100
AcDbEntity
  8
0
  6
CONTINUOUS
 62
     7
100
AcDbLine
 10
82.98
 20
37.04099999999999
 30
0.0
 11
81.78
 21
37.36253
 31
0.0
  0
LINE
  5
190
330
1E
100
AcDbEntity
  8
0
  6
CONTINUOUS
 62
     7
100
AcDbLine
 10
36.18
 20
37.36253
 30
0.0
 11
34.97999999999999
 21
37.04099999999999
 31
0.0
  0
LINE
  5
191
330
1E
100
AcDbEntity
  8
0
  6
CONTINUOUS
 62
     7
100
AcDbLine
 10
34.97999999999999
 20
37.04099999999999
 30
0.0
 11
36.18
 21
36.71946
 31
0.0
  0
TEXT
  5
192
330
1E
100
AcDbEntity
  8
0
  6
CONTINUOUS
 62
     7
100
AcDbText
 10
53.97999999999999
 20
37.44124
 30
0.0
 40
3.2
  1
1200
 41
0.78125
  7
BIGFONT
100
AcDbText
  0
LINE
  5
193
330
1E
100
AcDbEntity
  8
0
  6
CONTINUOUS
 62
     7
100
AcDbLine
 10
34.97999999999999
 20
43.04124
 30
0.0
 11
36.78632
 21
43.04124
 31
0.0
  0
LINE
  5
194
330
1E
100
AcDbEntity
  8
0
  6
CONTINUOUS
 62
     7
100
AcDbLine
 10
36.78632
 20
56.0
 30
0.0
 11
36.78632
 21
42.24124
 31
0.0
  0
LINE
  5
195
330
1E
100
AcDbEntity
  8
0
  6
CONTINUOUS
 62
     7
100
AcDbLine
 10
34.97999999999999
 20
44.05628
 30
0.0
 11
34.97999999999999
 21
42.24124
 31
0.0
  0
LINE
  5
196
330
1E
100
AcDbEntity
  8
0
  6
CONTINUOUS
 62
     7
100
AcDbLine
 10
39.18632
 20
43.04124
 30
0.0
 11
36.78632
 21
43.04124
 31
0.0
  0
LINE
  5
197
330
1E
100
AcDbEntity
  8
0
  6
CONTINUOUS
 62
     7
100
AcDbLine
 10
37.98599999999999
 20
43.36253
 30
0.0
 11
36.786
 21
43.041
 31
0.0
  0
LINE
  5
198
330
1E
100
AcDbEntity
  8
0
  6
CONTINUOUS
 62
     7
100
AcDbLine
 10
36.786
 20
43.041
 30
0.0
 11
37.98599999999999
 21
42.71945999999998
 31
0.0
  0
LINE
  5
199
330
1E
100
AcDbEntity
  8
0
  6
CONTINUOUS
 62
     7
100
AcDbLine
 10
34.97999999999999
 20
43.04124
 30
0.0
 11
32.58
 21
43.04124
 31
0.0
  0
LINE
  5
19A
330
1E
100
AcDbEntity
  8
0
  6
CONTINUOUS
 62
     7
100
AcDbLine
 10
33.78
 20
42.71945999999998
 30
0.0
 11
34.97999999999999
 21
43.041
 31
0.0
  0
LINE
  5
19B
330
1E
100
AcDbEntity
  8
0
  6
CONTINUOUS
 62
     7
100
AcDbLine
 10
34.97999999999999
 20
43.041
 30
0.0
 11
33.78
 21
43.36253
 31
0.0
  0
LINE
  5
19C
330
1E
100
AcDbEntity
  8
0
  6
CONTINUOUS
 62
     7
100
AcDbLine
 10
32.58
 20
43.04124
 30
0.0
 11
27.48
 21
43.04124
 31
0.0
  0
TEXT
  5
19D
330
1E
100
AcDbEntity
  8
0
  6
CONTINUOUS
 62
     7
100
AcDbText
 10
27.48
 20
43.44123999999999
 30
0.0
 40
3.2
  1
45
 41
0.78125
  7
BIGFONT
100
AcDbText
  0
LINE
  5
19E
330
1E
100
AcDbEntity
  8
0
  6
CONTINUOUS
 62
     7
100
AcDbLine
 10
36.78632
 20
43.04124
 30
0.0
 11
82.98
 21
43.04124
 31
0.0
  0
LINE
  5
19F
330
1E
100
AcDbEntity
  8
0
  6
CONTINUOUS
 62
     7
100
AcDbLine
 10
82.98
 20
44.0918
 30
0.0
 11
82.98
 21
42.24124
 31
0.0
  0
LINE
  5
1A0
330
1E
100
AcDbEntity
  8
0
  6
CONTINUOUS
 62
     7
100
AcDbLine
 10
81.78
 20
42.71945999999998
 30
0.0
 11
82.98
 21
43.041
 31
0.0
  0
LINE
  5
1A1
330
1E
100
AcDbEntity
  8
0
  6
CONTINUOUS
 62
     7
100
AcDbLine
 10
82.98
 20
43.041
 30
0.0
 11
81.78
 21
43.36253
 31
0.0
  0
LINE
  5
1A2
330
1E
100
AcDbEntity
  8
0
  6
CONTINUOUS
 62
     7
100
AcDbLine
 10
37.98599999999999
 20
43.36253
 30
0.0
 11
36.786
 21
43.041
 31
0.0
  0
LINE
  5
1A3
330
1E
100
AcDbEntity
  8
0
  6
CONTINUOUS
 62
     7
100
AcDbLine
 10
36.786
 20
43.041
 30
0.0
 11
37.98599999999999
 21
42.71945999999998
 31
0.0
  0
TEXT
  5
1A4
330
1E
100
AcDbEntity
  8
0
  6
CONTINUOUS
 62
     7
100
AcDbText
 10
54.88316
 20
43.44123999999999
 30
0.0
 40
3.2
  1
1155
 41
0.78125
  7
BIGFONT
100
AcDbText
  0
LINE
  5
1A5
330
1E
100
AcDbEntity
  8
0
  6
CONTINUOUS
 62
     1
100
AcDbLine
 10
38.46
 20
60.15252
 30
0.0
 11
38.46
 21
125.72
 31
0.0
  0
LINE
  5
1A6
330
1E
100
AcDbEntity
  8
0
  6
CONTINUOUS
 62
     1
100
AcDbLine
 10
36.97528
 20
62.0
 30
0.0
 11
36.97528
 21
66.56
 31
0.0
  0
ARC
  5
1A7
330
1E
100
AcDbEntity
  8
0
  6
CONTINUOUS
 62
     1
100
AcDbCircle
 10
38.17528
 20
62.0
 30
0.0
 40
1.199999999999999
100
AcDbArc
 50
180.0
 51
270.0
  0
POINT
  5
1A8
330
1E
100
AcDbEntity
  8
0
  6
CONTINUOUS
 62
     1
100
AcDbPoint
 10
38.84
 20
124.9929199999999
 30
0.0
  0
TEXT
  5
1A9
330
1E
100
AcDbEntity
  8
0
  6
CONTINUOUS
 62
     7
100
AcDbText
 10
26.7626
 20
135.70524
 30
0.0
 40
4.2
  1
Ａ
 41
0.8333332999999999
  7
BIGFONT
100
AcDbText
  0
TEXT
  5
1AA
330
1E
100
AcDbEntity
  8
0
  6
CONTINUOUS
 62
     7
100
AcDbText
 10
26.9606
 20
141.0133599999998
 30
0.0
 40
4.2
  1
Ｂ
 41
0.8333332999999999
  7
BIGFONT
100
AcDbText
  0
TEXT
  5
1AB
330
1E
100
AcDbEntity
  8
0
  6
CONTINUOUS
 62
     7
100
AcDbText
 10
5.83108
 20
47.7942
 30
0.0
 40
4.2
  1
Ｃ
 41
0.8333332999999999
  7
BIGFONT
100
AcDbText
  0
TEXT
  5
1AC
330
1E
100
AcDbEntity
  8
0
  6
CONTINUOUS
 62
     7
100
AcDbText
 10
107.4976
 20
47.77452
 30
0.0
 40
4.2
  1
Ｃ
 41
0.8333332999999999
  7
BIGFONT
100
AcDbText
  0
TEXT
  5
1AD
330
1E
100
AcDbEntity
  8
0
  6
CONTINUOUS
 62
     7
100
AcDbText
 10
112.63916
 20
47.79748
 30
0.0
 40
4.2
  1
Ｄ
 41
0.8333332999999999
  7
BIGFONT
100
AcDbText
  0
TEXT
  5
1AE
330
1E
100
AcDbEntity
  8
0
  6
CONTINUOUS
 62
     7
100
AcDbText
 10
0.9178799999999998
 20
47.78724
 30
0.0
 40
4.2
  1
Ｄ
 41
0.8333332999999999
  7
BIGFONT
100
AcDbText
  0
LINE
  5
1AF
330
1E
100
AcDbEntity
  8
0
  6
CONTINUOUS
 62
     7
100
AcDbLine
 10
2.30864
 20
60.247
 30
0.0
 11
16.11768
 21
60.247
 31
0.0
  0
LINE
  5
1B0
330
1E
100
AcDbEntity
  8
0
  6
CONTINUOUS
 62
     7
100
AcDbLine
 10
7.288599999999997
 20
58.75564
 30
0.0
 11
16.06764
 21
58.75564
 31
0.0
  0
LINE
  5
1B1
330
1E
100
AcDbEntity
  8
0
  6
CONTINUOUS
 62
     7
100
AcDbLine
 10
2.30864
 20
60.247
 30
0.0
 11
2.305959999999998
 21
53.13216
 31
0.0
  0
LINE
  5
1B2
330
1E
100
AcDbEntity
  8
0
  6
CONTINUOUS
 62
     7
100
AcDbLine
 10
1.983909999999999
 20
54.33212
 30
0.0
 11
2.305
 21
53.132
 31
0.0
  0
LINE
  5
1B3
330
1E
100
AcDbEntity
  8
0
  6
CONTINUOUS
 62
     7
100
AcDbLine
 10
2.305
 20
53.132
 30
0.0
 11
2.62699
 21
54.33187
 31
0.0
  0
LINE
  5
1B4
330
1E
100
AcDbEntity
  8
0
  6
CONTINUOUS
 62
     7
100
AcDbLine
 10
100.13552
 20
60.24704
 30
0.0
 11
114.0363999999999
 21
60.2416
 31
0.0
  0
LINE
  5
1B5
330
1E
100
AcDbEntity
  8
0
  6
CONTINUOUS
 62
     7
100
AcDbLine
 10
114.0363999999999
 20
60.2416
 30
0.0
 11
114.0363999999999
 21
53.12135999999998
 31
0.0
  0
LINE
  5
1B6
330
1E
100
AcDbEntity
  8
0
  6
CONTINUOUS
 62
     7
100
AcDbLine
 10
113.71446
 20
54.32100000000001
 30
0.0
 11
114.036
 21
53.121
 31
0.0
  0
LINE
  5
1B7
330
1E
100
AcDbEntity
  8
0
  6
CONTINUOUS
 62
     7
100
AcDbLine
 10
114.036
 20
53.121
 30
0.0
 11
114.35753
 21
54.32100000000001
 31
0.0
  0
TEXT
  5
1B8
330
1E
100
AcDbEntity
  8
0
  6
CONTINUOUS
 62
     7
100
AcDbText
 10
26.76652
 20
22.57347999999999
 30
0.0
 40
4.2
  1
Ａ
 41
0.8333332999999999
  7
BIGFONT
100
AcDbText
  0
TEXT
  5
1B9
330
1E
100
AcDbEntity
  8
0
  6
CONTINUOUS
 62
     7
100
AcDbText
 10
26.96428
 20
16.80027999999999
 30
0.0
 40
4.2
  1
Ｂ
 41
0.8333332999999999
  7
BIGFONT
100
AcDbText
  0
LINE
  5
1BA
330
1E
100
AcDbEntity
  8
0
  6
CONTINUOUS
 62
     7
100
AcDbLine
 10
38.41056
 20
33.37792
 30
0.0
 11
38.41352
 21
19.10572
 31
0.0
  0
LINE
  5
1BB
330
1E
100
AcDbEntity
  8
0
  6
CONTINUOUS
 62
     7
100
AcDbLine
 10
38.41352
 20
19.10572
 30
0.0
 11
31.30855999999999
 21
19.10572
 31
0.0
  0
LINE
  5
1BC
330
1E
100
AcDbEntity
  8
0
  6
CONTINUOUS
 62
     7
100
AcDbLine
 10
32.508
 20
19.42652999999999
 30
0.0
 11
31.308
 21
19.105
 31
0.0
  0
LINE
  5
1BD
330
1E
100
AcDbEntity
  8
0
  6
CONTINUOUS
 62
     7
100
AcDbLine
 10
31.308
 20
19.105
 30
0.0
 11
32.508
 21
18.78346
 31
0.0
  0
LINE
  5
1BE
330
1E
100
AcDbEntity
  8
0
  6
CONTINUOUS
 62
     7
100
AcDbLine
 10
38.41056
 20
129.1062399999999
 30
0.0
 11
38.41135999999997
 21
143.39496
 31
0.0
  0
LINE
  5
1BF
330
1E
100
AcDbEntity
  8
0
  6
CONTINUOUS
 62
     7
100
AcDbLine
 10
38.41135999999997
 20
143.39496
 30
0.0
 11
31.3164
 21
143.39496
 31
0.0
  0
LINE
  5
1C0
330
1E
100
AcDbEntity
  8
0
  6
CONTINUOUS
 62
     7
100
AcDbLine
 10
32.51599999999999
 20
143.71553
 30
0.0
 11
31.316
 21
143.3939999999997
 31
0.0
  0
LINE
  5
1C1
330
1E
100
AcDbEntity
  8
0
  6
CONTINUOUS
 62
     7
100
AcDbLine
 10
31.316
 20
143.3939999999997
 30
0.0
 11
32.51599999999999
 21
143.07246
 31
0.0
  0
LINE
  5
1C2
330
1E
100
AcDbEntity
  8
0
  6
CONTINUOUS
 62
     7
100
AcDbLine
 10
100.13552
 20
58.7312
 30
0.0
 11
109.0382799999999
 21
58.7312
 31
0.0
  0
LINE
  5
1C3
330
1E
100
AcDbEntity
  8
0
  6
CONTINUOUS
 62
     7
100
AcDbLine
 10
109.0382799999999
 20
58.7312
 30
0.0
 11
109.0382799999999
 21
53.10772
 31
0.0
  0
LINE
  5
1C4
330
1E
100
AcDbEntity
  8
0
  6
CONTINUOUS
 62
     7
100
AcDbLine
 10
108.71646
 20
54.30699999999998
 30
0.0
 11
109.0379999999999
 21
53.107
 31
0.0
  0
LINE
  5
1C5
330
1E
100
AcDbEntity
  8
0
  6
CONTINUOUS
 62
     7
100
AcDbLine
 10
109.0379999999999
 20
53.107
 30
0.0
 11
109.35953
 21
54.30699999999998
 31
0.0
  0
LINE
  5
1C6
330
1E
100
AcDbEntity
  8
0
  6
CONTINUOUS
 62
     7
100
AcDbLine
 10
7.288599999999997
 20
58.75564
 30
0.0
 11
7.30868
 21
53.13216
 31
0.0
  0
LINE
  5
1C7
330
1E
100
AcDbEntity
  8
0
  6
CONTINUOUS
 62
     7
100
AcDbLine
 10
6.982169999999999
 20
54.33084
 30
0.0
 11
7.307999999999998
 21
53.132
 31
0.0
  0
LINE
  5
1C8
330
1E
100
AcDbEntity
  8
0
  6
CONTINUOUS
 62
     7
100
AcDbLine
 10
7.307999999999998
 20
53.132
 30
0.0
 11
7.62525
 21
54.33314
 31
0.0
  0
LINE
  5
1C9
330
1E
100
AcDbEntity
  8
0
  6
CONTINUOUS
 62
     7
100
AcDbLine
 10
37.31624
 20
129.11268
 30
0.0
 11
37.31624
 21
137.89396
 31
0.0
  0
LINE
  5
1CA
330
1E
100
AcDbEntity
  8
0
  6
CONTINUOUS
 62
     7
100
AcDbLine
 10
37.31624
 20
137.89396
 30
0.0
 11
31.31759999999999
 21
137.89396
 31
0.0
  0
LINE
  5
1CB
330
1E
100
AcDbEntity
  8
0
  6
CONTINUOUS
 62
     7
100
AcDbLine
 10
32.51699999999999
 20
138.2145299999999
 30
0.0
 11
31.31699999999999
 21
137.8929999999999
 31
0.0
  0
LINE
  5
1CC
330
1E
100
AcDbEntity
  8
0
  6
CONTINUOUS
 62
     7
100
AcDbLine
 10
31.31699999999999
 20
137.8929999999999
 30
0.0
 11
32.51699999999999
 21
137.57146
 31
0.0
  0
LINE
  5
1CD
330
1E
100
AcDbEntity
  8
0
  6
CONTINUOUS
 62
     7
100
AcDbLine
 10
37.31924
 20
33.38492
 30
0.0
 11
37.31924
 21
24.60236
 31
0.0
  0
LINE
  5
1CE
330
1E
100
AcDbEntity
  8
0
  6
CONTINUOUS
 62
     7
100
AcDbLine
 10
37.31924
 20
24.60236
 30
0.0
 11
31.3206
 21
24.60236
 31
0.0
  0
LINE
  5
1CF
330
1E
100
AcDbEntity
  8
0
  6
CONTINUOUS
 62
     7
100
AcDbLine
 10
32.52
 20
24.92353
 30
0.0
 11
31.32
 21
24.60199999999999
 31
0.0
  0
LINE
  5
1D0
330
1E
100
AcDbEntity
  8
0
  6
CONTINUOUS
 62
     7
100
AcDbLine
 10
31.32
 20
24.60199999999999
 30
0.0
 11
32.52
 21
24.28046
 31
0.0
  0
LINE
  5
1D1
330
1E
100
AcDbEntity
  8
0
  6
CONTINUOUS
 62
     7
100
AcDbLine
 10
35.34
 20
127.0
 30
0.0
 11
40.22
 21
127.0
 31
0.0
  0
LINE
  5
1D2
330
1E
100
AcDbEntity
  8
0
  6
CONTINUOUS
 62
     7
100
AcDbLine
 10
34.97999999999999
 20
57.0
 30
0.0
 11
82.98
 21
57.0
 31
0.0
  0
LINE
  5
1D3
330
1E
100
AcDbEntity
  8
0
  6
CONTINUOUS
 62
     7
100
AcDbLine
 10
44.58
 20
62.6
 30
0.0
 11
82.98
 21
62.6
 31
0.0
  0
LINE
  5
1D4
330
1E
100
AcDbEntity
  8
0
  6
CONTINUOUS
 62
     7
100
AcDbLine
 10
37.97076
 20
127.0
 30
0.0
 11
41.63136
 21
127.0
 31
0.0
  0
LINE
  5
1D5
330
1E
100
AcDbEntity
  8
0
  6
CONTINUOUS
 62
     7
100
AcDbLine
 10
-97.05844
 20
57.52124
 30
0.0
 11
-97.05844
 21
69.44124000000001
 31
0.0
  0
LINE
  5
1D6
330
1E
100
AcDbEntity
  8
0
  6
CONTINUOUS
 62
     7
100
AcDbLine
 10
-97.05844
 20
69.44124000000001
 30
0.0
 11
-96.93844
 21
69.56123999999999
 31
0.0
  0
LINE
  5
1D7
330
1E
100
AcDbEntity
  8
0
  6
CONTINUOUS
 62
     7
100
AcDbLine
 10
-96.93844
 20
69.56123999999999
 30
0.0
 11
-96.93844
 21
120.9212399999999
 31
0.0
  0
LINE
  5
1D8
330
1E
100
AcDbEntity
  8
0
  6
CONTINUOUS
 62
     7
100
AcDbLine
 10
-97.05844
 20
121.0412399999997
 30
0.0
 11
-96.93844
 21
120.9212399999999
 31
0.0
  0
LINE
  5
1D9
330
1E
100
AcDbEntity
  8
0
  6
CONTINUOUS
 62
     7
100
AcDbLine
 10
-97.05844
 20
127.0412399999997
 30
0.0
 11
-37.09684
 21
127.0412399999997
 31
0.0
  0
LINE
  5
1DA
330
1E
100
AcDbEntity
  8
0
  6
CONTINUOUS
 62
     7
100
AcDbLine
 10
-37.09684
 20
57.52124
 30
0.0
 11
-37.09684
 21
69.44124000000001
 31
0.0
  0
LINE
  5
1DB
330
1E
100
AcDbEntity
  8
0
  6
CONTINUOUS
 62
     7
100
AcDbLine
 10
-97.05844
 20
57.52124
 30
0.0
 11
-96.57844
 21
57.04124
 31
0.0
  0
LINE
  5
1DC
330
1E
100
AcDbEntity
  8
0
  6
CONTINUOUS
 62
     7
100
AcDbLine
 10
-37.57684
 20
57.04124
 30
0.0
 11
-37.09684
 21
57.52124
 31
0.0
  0
LINE
  5
1DD
330
1E
100
AcDbEntity
  8
0
  6
CONTINUOUS
 62
     7
100
AcDbLine
 10
-96.57844
 20
57.04124
 30
0.0
 11
-94.92
 21
57.04124
 31
0.0
  0
LINE
  5
1DE
330
1E
100
AcDbEntity
  8
0
  6
CONTINUOUS
 62
     7
100
AcDbLine
 10
-94.92
 20
57.04124
 30
0.0
 11
-70.72799999999998
 21
57.04124
 31
0.0
  0
LINE
  5
1DF
330
1E
100
AcDbEntity
  8
0
  6
CONTINUOUS
 62
     7
100
AcDbLine
 10
-70.72799999999998
 20
57.04124
 30
0.0
 11
-37.57684
 21
57.04124
 31
0.0
  0
LINE
  5
1E0
330
1E
100
AcDbEntity
  8
0
  6
CONTINUOUS
 62
     7
100
AcDbLine
 10
-37.09684
 20
67.04124
 30
0.0
 11
-37.09684
 21
127.0412399999997
 31
0.0
  0
LINE
  5
1E1
330
1E
100
AcDbEntity
  8
0
  6
CONTINUOUS
 62
     7
100
AcDbLine
 10
-97.05844
 20
121.0412399999997
 30
0.0
 11
-97.05844
 21
127.0412399999997
 31
0.0
  0
LINE
  5
1E2
330
1E
100
AcDbEntity
  8
0
  6
CONTINUOUS
 62
     1
100
AcDbLine
 10
-95.05844000000001
 20
58.84123999999999
 30
0.0
 11
-95.05844000000001
 21
125.0412399999997
 31
0.0
  0
LINE
  5
1E3
330
1E
100
AcDbEntity
  8
0
  6
CONTINUOUS
 62
     7
100
AcDbLine
 10
-221.9199999999999
 20
57.54476
 30
0.0
 11
-221.9199999999999
 21
69.46476
 31
0.0
  0
LINE
  5
1E4
330
1E
100
AcDbEntity
  8
0
  6
CONTINUOUS
 62
     7
100
AcDbLine
 10
-221.9199999999999
 20
69.46476
 30
0.0
 11
-221.7999999999999
 21
69.58476
 31
0.0
  0
LINE
  5
1E5
330
1E
100
AcDbEntity
  8
0
  6
CONTINUOUS
 62
     7
100
AcDbLine
 10
-221.7999999999999
 20
69.58476
 30
0.0
 11
-221.7999999999999
 21
120.94476
 31
0.0
  0
LINE
  5
1E6
330
1E
100
AcDbEntity
  8
0
  6
CONTINUOUS
 62
     7
100
AcDbLine
 10
-221.9199999999999
 20
121.06476
 30
0.0
 11
-221.7999999999999
 21
120.94476
 31
0.0
  0
LINE
  5
1E7
330
1E
100
AcDbEntity
  8
0
  6
CONTINUOUS
 62
     7
100
AcDbLine
 10
-221.9199999999999
 20
127.0647599999999
 30
0.0
 11
-161.9128
 21
127.0647599999999
 31
0.0
  0
LINE
  5
1E8
330
1E
100
AcDbEntity
  8
0
  6
CONTINUOUS
 62
     7
100
AcDbLine
 10
-161.9128
 20
57.54476
 30
0.0
 11
-161.9128
 21
69.46476
 31
0.0
  0
LINE
  5
1E9
330
1E
100
AcDbEntity
  8
0
  6
CONTINUOUS
 62
     7
100
AcDbLine
 10
-221.9199999999999
 20
57.54476
 30
0.0
 11
-221.4399999999999
 21
57.06476
 31
0.0
  0
LINE
  5
1EA
330
1E
100
AcDbEntity
  8
0
  6
CONTINUOUS
 62
     7
100
AcDbLine
 10
-162.3928
 20
57.06476
 30
0.0
 11
-161.9128
 21
57.54476
 31
0.0
  0
LINE
  5
1EB
330
1E
100
AcDbEntity
  8
0
  6
CONTINUOUS
 62
     7
100
AcDbLine
 10
-221.4399999999999
 20
57.06476
 30
0.0
 11
-183.74076
 21
57.06476
 31
0.0
  0
LINE
  5
1EC
330
1E
100
AcDbEntity
  8
0
  6
CONTINUOUS
 62
     7
100
AcDbLine
 10
-183.74076
 20
57.06476
 30
0.0
 11
-171.54396
 21
57.06476
 31
0.0
  0
LINE
  5
1ED
330
1E
100
AcDbEntity
  8
0
  6
CONTINUOUS
 62
     7
100
AcDbLine
 10
-171.54396
 20
57.06476
 30
0.0
 11
-162.3928
 21
57.06476
 31
0.0
  0
LINE
  5
1EE
330
1E
100
AcDbEntity
  8
0
  6
CONTINUOUS
 62
     1
100
AcDbLine
 10
-219.9199999999999
 20
58.86476
 30
0.0
 11
-219.9199999999999
 21
99.06496
 31
0.0
  0
LINE
  5
1EF
330
1E
100
AcDbEntity
  8
0
  6
CONTINUOUS
 62
     7
100
AcDbLine
 10
-161.9128
 20
67.06475999999999
 30
0.0
 11
-161.9128
 21
127.0647599999999
 31
0.0
  0
LINE
  5
1F0
330
1E
100
AcDbEntity
  8
0
  6
CONTINUOUS
 62
     7
100
AcDbLine
 10
-221.9199999999999
 20
121.06476
 30
0.0
 11
-221.9199999999999
 21
127.0647599999999
 31
0.0
  0
LINE
  5
1F1
330
1E
100
AcDbEntity
  8
0
  6
DASHED
 62
     1
100
AcDbLine
 10
-219.52
 20
58.86476
 30
0.0
 11
-219.52
 21
71.12168
 31
0.0
  0
LINE
  5
1F2
330
1E
100
AcDbEntity
  8
0
  6
CONTINUOUS
 62
     1
100
AcDbLine
 10
-183.74076
 20
61.26476
 30
0.0
 11
-171.54396
 21
61.26476
 31
0.0
  0
LINE
  5
1F3
330
1E
100
AcDbEntity
  8
0
  6
CONTINUOUS
 62
     1
100
AcDbLine
 10
-219.9199999999999
 20
61.26476
 30
0.0
 11
-183.74076
 21
61.26476
 31
0.0
  0
LINE
  5
1F4
330
1E
100
AcDbEntity
  8
0
  6
CONTINUOUS
 62
     7
100
AcDbLine
 10
-221.9199999999999
 20
37.06476
 30
0.0
 11
-161.91988
 21
37.06476
 31
0.0
  0
LINE
  5
1F5
330
1E
100
AcDbEntity
  8
0
  6
CONTINUOUS
 62
     7
100
AcDbLine
 10
-161.91988
 20
56.02351999999999
 30
0.0
 11
-161.91988
 21
36.26475999999997
 31
0.0
  0
LINE
  5
1F6
330
1E
100
AcDbEntity
  8
0
  6
CONTINUOUS
 62
     7
100
AcDbLine
 10
-221.9199999999999
 20
56.02351999999999
 30
0.0
 11
-221.9199999999999
 21
36.26475999999997
 31
0.0
  0
LINE
  5
1F7
330
1E
100
AcDbEntity
  8
0
  6
CONTINUOUS
 62
     7
100
AcDbLine
 10
-163.119
 20
36.74245999999997
 30
0.0
 11
-161.9189999999998
 21
37.064
 31
0.0
  0
LINE
  5
1F8
330
1E
100
AcDbEntity
  8
0
  6
CONTINUOUS
 62
     7
100
AcDbLine
 10
-161.9189999999998
 20
37.064
 30
0.0
 11
-163.119
 21
37.38552999999999
 31
0.0
  0
LINE
  5
1F9
330
1E
100
AcDbEntity
  8
0
  6
CONTINUOUS
 62
     7
100
AcDbLine
 10
-220.7199999999999
 20
37.38552999999999
 30
0.0
 11
-221.9199999999999
 21
37.064
 31
0.0
  0
LINE
  5
1FA
330
1E
100
AcDbEntity
  8
0
  6
CONTINUOUS
 62
     7
100
AcDbLine
 10
-221.9199999999999
 20
37.064
 30
0.0
 11
-220.7199999999999
 21
36.74245999999997
 31
0.0
  0
TEXT
  5
1FB
330
1E
100
AcDbEntity
  8
0
  6
CONTINUOUS
 62
     7
100
AcDbText
 10
-196.9199399999999
 20
37.46475999999999
 30
0.0
 40
3.2
  1
1500
 41
0.78125
  7
BIGFONT
100
AcDbText
  0
LINE
  5
1FC
330
1E
100
AcDbEntity
  8
0
  6
CONTINUOUS
 62
     7
100
AcDbLine
 10
-235.9199999999999
 20
57.02352
 30
0.0
 11
-235.9199999999999
 21
99.16223999999999
 31
0.0
  0
LINE
  5
1FD
330
1E
100
AcDbEntity
  8
0
  6
CONTINUOUS
 62
     7
100
AcDbLine
 10
-222.8
 20
99.16223999999999
 30
0.0
 11
-236.7199999999999
 21
99.16223999999999
 31
0.0
  0
LINE
  5
1FE
330
1E
100
AcDbEntity
  8
0
  6
CONTINUOUS
 62
     7
100
AcDbLine
 10
-222.92
 20
57.02352
 30
0.0
 11
-236.7199999999999
 21
57.02352
 31
0.0
  0
LINE
  5
1FF
330
1E
100
AcDbEntity
  8
0
  6
CONTINUOUS
 62
     7
100
AcDbLine
 10
-235.59846
 20
97.962
 30
0.0
 11
-235.9199999999999
 21
99.16200000000001
 31
0.0
  0
LINE
  5
200
330
1E
100
AcDbEntity
  8
0
  6
CONTINUOUS
 62
     7
100
AcDbLine
 10
-235.9199999999999
 20
99.16200000000001
 30
0.0
 11
-236.2415299999999
 21
97.962
 31
0.0
  0
LINE
  5
201
330
1E
100
AcDbEntity
  8
0
  6
CONTINUOUS
 62
     7
100
AcDbLine
 10
-236.2415299999999
 20
58.223
 30
0.0
 11
-235.9199999999999
 21
57.02300000000001
 31
0.0
  0
LINE
  5
202
330
1E
100
AcDbEntity
  8
0
  6
CONTINUOUS
 62
     7
100
AcDbLine
 10
-235.9199999999999
 20
57.02300000000001
 30
0.0
 11
-235.59846
 21
58.223
 31
0.0
  0
TEXT
  5
203
330
1E
100
AcDbEntity
  8
0
  6
CONTINUOUS
 62
     7
100
AcDbText
 10
-236.3199999999999
 20
73.09288000000002
 30
0.0
 40
3.2
  1
1050
 50
90.0
 41
0.78125
  7
BIGFONT
100
AcDbText
  0
LINE
  5
204
330
1E
100
AcDbEntity
  8
0
  6
CONTINUOUS
 62
     1
100
AcDbLine
 10
-171.54396
 20
61.26476
 30
0.0
 11
-163.9128
 21
61.26476
 31
0.0
  0
LINE
  5
205
330
1E
100
AcDbEntity
  8
0
  6
CONTINUOUS
 62
     7
100
AcDbLine
 10
172.5999999999999
 20
140.6557999999999
 30
0.0
 11
176.6
 21
140.6557999999999
 31
0.0
  0
LINE
  5
206
330
1E
100
AcDbEntity
  8
0
  6
CONTINUOUS
 62
     7
100
AcDbLine
 10
176.6
 20
128.0
 30
0.0
 11
176.6
 21
141.4558
 31
0.0
  0
LINE
  5
207
330
1E
100
AcDbEntity
  8
0
  6
CONTINUOUS
 62
     7
100
AcDbLine
 10
172.5999999999999
 20
137.9360399999999
 30
0.0
 11
172.5999999999999
 21
141.4558
 31
0.0
  0
LINE
  5
208
330
1E
100
AcDbEntity
  8
0
  6
CONTINUOUS
 62
     7
100
AcDbLine
 10
179.0
 20
140.6557999999999
 30
0.0
 11
176.6
 21
140.6557999999999
 31
0.0
  0
LINE
  5
209
330
1E
100
AcDbEntity
  8
0
  6
CONTINUOUS
 62
     7
100
AcDbLine
 10
177.8
 20
140.9765299999999
 30
0.0
 11
176.6
 21
140.655
 31
0.0
  0
LINE
  5
20A
330
1E
100
AcDbEntity
  8
0
  6
CONTINUOUS
 62
     7
100
AcDbLine
 10
176.6
 20
140.655
 30
0.0
 11
177.8
 21
140.3334599999999
 31
0.0
  0
LINE
  5
20B
330
1E
100
AcDbEntity
  8
0
  6
CONTINUOUS
 62
     7
100
AcDbLine
 10
172.5999999999999
 20
140.6557999999999
 30
0.0
 11
170.1999999999999
 21
140.6557999999999
 31
0.0
  0
LINE
  5
20C
330
1E
100
AcDbEntity
  8
0
  6
CONTINUOUS
 62
     7
100
AcDbLine
 10
171.4
 20
140.3334599999999
 30
0.0
 11
172.5999999999999
 21
140.655
 31
0.0
  0
LINE
  5
20D
330
1E
100
AcDbEntity
  8
0
  6
CONTINUOUS
 62
     7
100
AcDbLine
 10
172.5999999999999
 20
140.655
 30
0.0
 11
171.4
 21
140.9765299999999
 31
0.0
  0
LINE
  5
20E
330
1E
100
AcDbEntity
  8
0
  6
CONTINUOUS
 62
     7
100
AcDbLine
 10
179.0
 20
140.6557999999999
 30
0.0
 11
184.3499999999999
 21
140.6557999999999
 31
0.0
  0
TEXT
  5
20F
330
1E
100
AcDbEntity
  8
0
  6
CONTINUOUS
 62
     7
100
AcDbText
 10
178.0231767613059
 20
141.0557999999998
 30
0.0
 40
3.2
  1
100
 41
0.78125
  7
BIGFONT
100
AcDbText
  0
LINE
  5
210
330
1E
100
AcDbEntity
  8
0
  6
CONTINUOUS
 62
     7
100
AcDbLine
 10
-221.9387999999999
 20
-16.26196
 30
0.0
 11
-161.9387999999998
 21
-16.26196
 31
0.0
  0
LINE
  5
211
330
1E
100
AcDbEntity
  8
0
  6
CONTINUOUS
 62
     7
100
AcDbLine
 10
-161.9387999999998
 20
-29.26196
 30
0.0
 11
-161.9387999999998
 21
-15.46196
 31
0.0
  0
LINE
  5
212
330
1E
100
AcDbEntity
  8
0
  6
CONTINUOUS
 62
     7
100
AcDbLine
 10
-221.9387999999999
 20
-29.26196
 30
0.0
 11
-221.9387999999999
 21
-15.46196
 31
0.0
  0
LINE
  5
213
330
1E
100
AcDbEntity
  8
0
  6
CONTINUOUS
 62
     7
100
AcDbLine
 10
-163.138
 20
-16.58253
 30
0.0
 11
-161.9379999999999
 21
-16.261
 31
0.0
  0
LINE
  5
214
330
1E
100
AcDbEntity
  8
0
  6
CONTINUOUS
 62
     7
100
AcDbLine
 10
-161.9379999999999
 20
-16.261
 30
0.0
 11
-163.138
 21
-15.93946
 31
0.0
  0
LINE
  5
215
330
1E
100
AcDbEntity
  8
0
  6
CONTINUOUS
 62
     7
100
AcDbLine
 10
-220.738
 20
-15.93946
 30
0.0
 11
-221.938
 21
-16.261
 31
0.0
  0
LINE
  5
216
330
1E
100
AcDbEntity
  8
0
  6
CONTINUOUS
 62
     7
100
AcDbLine
 10
-221.938
 20
-16.261
 30
0.0
 11
-220.738
 21
-16.58253
 31
0.0
  0
TEXT
  5
217
330
1E
100
AcDbEntity
  8
0
  6
CONTINUOUS
 62
     7
100
AcDbText
 10
-196.9388
 20
-15.86196
 30
0.0
 40
3.2
  1
1500
 41
0.78125
  7
BIGFONT
100
AcDbText
  0
LINE
  5
218
330
1E
100
AcDbEntity
  8
0
  6
CONTINUOUS
 62
     1
100
AcDbLine
 10
-218.2587999999999
 20
-88.25788000000001
 30
0.0
 11
-218.2587999999999
 21
-31.97788
 31
0.0
  0
LINE
  5
219
330
1E
100
AcDbEntity
  8
0
  6
CONTINUOUS
 62
     1
100
AcDbLine
 10
-220.2188
 20
-48.26195999999999
 30
0.0
 11
-163.9387999999998
 21
-48.26195999999999
 31
0.0
  0
LINE
  5
21A
330
1E
100
AcDbEntity
  8
0
  6
CONTINUOUS
 62
     1
100
AcDbLine
 10
-220.23732
 20
-34.02195999999999
 30
0.0
 11
-163.9573199999998
 21
-34.02195999999999
 31
0.0
  0
LINE
  5
21B
330
1E
100
AcDbEntity
  8
0
  6
DASHED
 62
     1
100
AcDbLine
 10
-220.2188
 20
-87.86196
 30
0.0
 11
-207.9426
 21
-87.86196
 31
0.0
  0
LINE
  5
21C
330
1E
100
AcDbEntity
  8
0
  6
DASHED
 62
     1
100
AcDbLine
 10
-164.3387999999999
 20
-44.21815999999998
 30
0.0
 11
-164.3387999999999
 21
-31.98195999999999
 31
0.0
  0
LINE
  5
21D
330
1E
100
AcDbEntity
  8
0
  6
CONTINUOUS
 62
     7
100
AcDbLine
 10
-97.05844
 20
-16.26196
 30
0.0
 11
-37.05844
 21
-16.26196
 31
0.0
  0
LINE
  5
21E
330
1E
100
AcDbEntity
  8
0
  6
CONTINUOUS
 62
     7
100
AcDbLine
 10
-37.05844
 20
-29.26196
 30
0.0
 11
-37.05844
 21
-15.46196
 31
0.0
  0
LINE
  5
21F
330
1E
100
AcDbEntity
  8
0
  6
CONTINUOUS
 62
     7
100
AcDbLine
 10
-97.05844
 20
-29.26196
 30
0.0
 11
-97.05844
 21
-15.46196
 31
0.0
  0
LINE
  5
220
330
1E
100
AcDbEntity
  8
0
  6
CONTINUOUS
 62
     7
100
AcDbLine
 10
-38.258
 20
-16.58253
 30
0.0
 11
-37.05799999999999
 21
-16.261
 31
0.0
  0
LINE
  5
221
330
1E
100
AcDbEntity
  8
0
  6
CONTINUOUS
 62
     7
100
AcDbLine
 10
-37.05799999999999
 20
-16.261
 30
0.0
 11
-38.258
 21
-15.93946
 31
0.0
  0
LINE
  5
222
330
1E
100
AcDbEntity
  8
0
  6
CONTINUOUS
 62
     7
100
AcDbLine
 10
-95.85799999999997
 20
-15.93946
 30
0.0
 11
-97.05800000000001
 21
-16.261
 31
0.0
  0
LINE
  5
223
330
1E
100
AcDbEntity
  8
0
  6
CONTINUOUS
 62
     7
100
AcDbLine
 10
-97.05800000000001
 20
-16.261
 30
0.0
 11
-95.85799999999997
 21
-16.58253
 31
0.0
  0
TEXT
  5
224
330
1E
100
AcDbEntity
  8
0
  6
CONTINUOUS
 62
     7
100
AcDbText
 10
-72.05844
 20
-15.86196
 30
0.0
 40
3.2
  1
1500
 41
0.78125
  7
BIGFONT
100
AcDbText
  0
LINE
  5
225
330
1E
100
AcDbEntity
  8
0
  6
CONTINUOUS
 62
     1
100
AcDbLine
 10
-93.65844
 20
-32.46195999999999
 30
0.0
 11
-39.05844
 21
-32.46195999999999
 31
0.0
  0
LINE
  5
226
330
1E
100
AcDbEntity
  8
0
  6
CONTINUOUS
 62
     1
100
AcDbLine
 10
-94.85844
 20
-88.26196000000001
 30
0.0
 11
-94.85844
 21
-33.66196
 31
0.0
  0
CIRCLE
  5
227
330
1E
100
AcDbEntity
  8
0
  6
CONTINUOUS
 62
     7
100
AcDbCircle
 10
170.4
 20
113.7709999999999
 30
0.0
 40
0.6
  0
LINE
  5
228
330
1E
100
AcDbEntity
  8
0
  6
CONTINUOUS
 62
     7
100
AcDbLine
 10
168.8
 20
113.7709999999999
 30
0.0
 11
172.0
 21
113.7709999999999
 31
0.0
  0
LINE
  5
229
330
1E
100
AcDbEntity
  8
0
  6
CONTINUOUS
 62
     7
100
AcDbLine
 10
170.4
 20
112.1709999999999
 30
0.0
 11
170.4
 21
115.371
 31
0.0
  0
LINE
  5
22A
330
1E
100
AcDbEntity
  8
0
  6
CONTINUOUS
 62
     7
100
AcDbLine
 10
-191.5540399999999
 20
97.28279999999999
 30
0.0
 11
-191.5540399999999
 21
85.2828
 31
0.0
  0
LINE
  5
22B
330
1E
100
AcDbEntity
  8
0
  6
CONTINUOUS
 62
     7
100
AcDbLine
 10
-191.8755299999999
 20
86.482
 30
0.0
 11
-191.554
 21
85.28200000000003
 31
0.0
  0
LINE
  5
22C
330
1E
100
AcDbEntity
  8
0
  6
CONTINUOUS
 62
     7
100
AcDbLine
 10
-191.554
 20
85.28200000000003
 30
0.0
 11
-191.2324599999999
 21
86.482
 31
0.0
  0
LINE
  5
22D
330
1E
100
AcDbEntity
  8
0
  6
CONTINUOUS
 62
     7
100
AcDbLine
 10
-191.5540399999999
 20
108.57368
 30
0.0
 11
-191.5540399999999
 21
97.23804000000001
 31
0.0
  0
LINE
  5
22E
330
1E
100
AcDbEntity
  8
0
  6
CONTINUOUS
 62
     7
100
AcDbLine
 10
-191.8755299999999
 20
98.43800000000001
 30
0.0
 11
-191.554
 21
97.238
 31
0.0
  0
LINE
  5
22F
330
1E
100
AcDbEntity
  8
0
  6
CONTINUOUS
 62
     7
100
AcDbLine
 10
-191.554
 20
97.238
 30
0.0
 11
-191.2324599999999
 21
98.43800000000001
 31
0.0
  0
LINE
  5
230
330
1E
100
AcDbEntity
  8
0
  6
CONTINUOUS
 62
     7
100
AcDbLine
 10
-211.52
 20
67.64391999999999
 30
0.0
 11
-219.52
 21
67.64391999999999
 31
0.0
  0
LINE
  5
231
330
1E
100
AcDbEntity
  8
0
  6
CONTINUOUS
 62
     7
100
AcDbLine
 10
-218.3199999999999
 20
67.96453000000001
 30
0.0
 11
-219.52
 21
67.643
 31
0.0
  0
LINE
  5
232
330
1E
100
AcDbEntity
  8
0
  6
CONTINUOUS
 62
     7
100
AcDbLine
 10
-219.52
 20
67.643
 30
0.0
 11
-218.3199999999999
 21
67.32146
 31
0.0
  0
LINE
  5
233
330
1E
100
AcDbEntity
  8
0
  6
CONTINUOUS
 62
     7
100
AcDbLine
 10
-203.52
 20
67.64391999999999
 30
0.0
 11
-211.52
 21
67.64391999999999
 31
0.0
  0
LINE
  5
234
330
1E
100
AcDbEntity
  8
0
  6
CONTINUOUS
 62
     7
100
AcDbLine
 10
-210.32
 20
67.96453000000001
 30
0.0
 11
-211.52
 21
67.643
 31
0.0
  0
LINE
  5
235
330
1E
100
AcDbEntity
  8
0
  6
CONTINUOUS
 62
     7
100
AcDbLine
 10
-211.52
 20
67.643
 30
0.0
 11
-210.32
 21
67.32146
 31
0.0
  0
LINE
  5
236
330
1E
100
AcDbEntity
  8
0
  6
CONTINUOUS
 62
     7
100
AcDbLine
 10
27.78
 20
78.77880000000001
 30
0.0
 11
36.78
 21
78.77880000000001
 31
0.0
  0
LINE
  5
237
330
1E
100
AcDbEntity
  8
0
  6
CONTINUOUS
 62
     7
100
AcDbLine
 10
35.57999999999999
 20
78.45645999999998
 30
0.0
 11
36.78
 21
78.778
 31
0.0
  0
LINE
  5
238
330
1E
100
AcDbEntity
  8
0
  6
CONTINUOUS
 62
     7
100
AcDbLine
 10
36.78
 20
78.778
 30
0.0
 11
35.57999999999999
 21
79.09953
 31
0.0
  0
LINE
  5
239
330
1E
100
AcDbEntity
  8
0
  6
CONTINUOUS
 62
     7
100
AcDbLine
 10
-87.05844
 20
96.31748000000001
 30
0.0
 11
-95.05844000000001
 21
96.31748000000001
 31
0.0
  0
LINE
  5
23A
330
1E
100
AcDbEntity
  8
0
  6
CONTINUOUS
 62
     7
100
AcDbLine
 10
-93.85800000000001
 20
96.63853000000001
 30
0.0
 11
-95.05799999999998
 21
96.31700000000002
 31
0.0
  0
LINE
  5
23B
330
1E
100
AcDbEntity
  8
0
  6
CONTINUOUS
 62
     7
100
AcDbLine
 10
-95.05799999999998
 20
96.31700000000002
 30
0.0
 11
-93.85800000000001
 21
95.99546
 31
0.0
  0
LINE
  5
23C
330
1E
100
AcDbEntity
  8
0
  6
CONTINUOUS
 62
     7
100
AcDbLine
 10
-79.05844
 20
96.31748000000001
 30
0.0
 11
-87.05844
 21
96.31748000000001
 31
0.0
  0
LINE
  5
23D
330
1E
100
AcDbEntity
  8
0
  6
CONTINUOUS
 62
     7
100
AcDbLine
 10
-85.85799999999997
 20
96.63853000000001
 30
0.0
 11
-87.05800000000001
 21
96.31700000000002
 31
0.0
  0
LINE
  5
23E
330
1E
100
AcDbEntity
  8
0
  6
CONTINUOUS
 62
     7
100
AcDbLine
 10
-87.05800000000001
 20
96.31700000000002
 30
0.0
 11
-85.85799999999997
 21
95.99546
 31
0.0
  0
LINE
  5
23F
330
1E
100
AcDbEntity
  8
0
  6
CONTINUOUS
 62
     7
100
AcDbLine
 10
-71.05844000000002
 20
96.31748000000001
 30
0.0
 11
-79.05844
 21
96.31748000000001
 31
0.0
  0
LINE
  5
240
330
1E
100
AcDbEntity
  8
0
  6
CONTINUOUS
 62
     7
100
AcDbLine
 10
-77.858
 20
96.63853000000001
 30
0.0
 11
-79.05800000000002
 21
96.31700000000002
 31
0.0
  0
LINE
  5
241
330
1E
100
AcDbEntity
  8
0
  6
CONTINUOUS
 62
     7
100
AcDbLine
 10
-79.05800000000002
 20
96.31700000000002
 30
0.0
 11
-77.858
 21
95.99546
 31
0.0
  0
LINE
  5
242
330
1E
100
AcDbEntity
  8
0
  6
CONTINUOUS
 62
     7
100
AcDbLine
 10
-71.1878
 20
96.31748000000001
 30
0.0
 11
-79.18779999999998
 21
96.31748000000001
 31
0.0
  0
LINE
  5
243
330
1E
100
AcDbEntity
  8
0
  6
CONTINUOUS
 62
     7
100
AcDbLine
 10
-77.987
 20
96.63853000000001
 30
0.0
 11
-79.187
 21
96.31700000000002
 31
0.0
  0
LINE
  5
244
330
1E
100
AcDbEntity
  8
0
  6
CONTINUOUS
 62
     7
100
AcDbLine
 10
-79.187
 20
96.31700000000002
 30
0.0
 11
-77.987
 21
95.99546
 31
0.0
  0
LINE
  5
245
330
1E
100
AcDbEntity
  8
0
  6
CONTINUOUS
 62
     1
100
AcDbLine
 10
-93.29843999999999
 20
-88.26196000000001
 30
0.0
 11
-93.29843999999999
 21
-32.46195999999999
 31
0.0
  0
LINE
  5
246
330
1E
100
AcDbEntity
  8
0
  6
CONTINUOUS
 62
     1
100
AcDbLine
 10
-94.85844
 20
-34.02195999999999
 30
0.0
 11
-39.05844
 21
-34.02195999999999
 31
0.0
  0
TEXT
  5
247
330
1E
100
AcDbEntity
  8
0
  6
CONTINUOUS
 62
     7
100
AcDbText
 10
-28.73596
 20
103.8011999999999
 30
0.0
 40
3.2
  1
D13
 50
90.0
  7
BIGFONT
100
AcDbText
  0
LINE
  5
248
330
1E
100
AcDbEntity
  8
0
  6
CONTINUOUS
 62
     7
100
AcDbLine
 10
-27.7336
 20
96.31748000000001
 30
0.0
 11
-27.7336
 21
112.31748
 31
0.0
  0
CIRCLE
  5
249
330
1E
100
AcDbEntity
  8
0
  6
CONTINUOUS
 62
     7
100
AcDbCircle
 10
-30.25155999999999
 20
99.801
 30
0.0
 40
2.5
  0
TEXT
  5
24A
330
1E
100
AcDbEntity
  8
0
  6
CONTINUOUS
 62
     7
100
AcDbText
 10
-28.68824
 20
98.42824
 30
0.0
 40
3.2
  1
１
 50
90.0
  7
BIGFONT
100
AcDbText
  0
ARC
  5
24B
330
1E
100
AcDbEntity
  8
0
  6
CONTINUOUS
 62
     1
100
AcDbCircle
 10
-93.65844
 20
-33.66196
 30
0.0
 40
1.199999999999999
100
AcDbArc
 50
90.0
 51
180.0
  0
LINE
  5
24C
330
1E
100
AcDbEntity
  8
0
  6
CONTINUOUS
 62
     1
100
AcDbLine
 10
38.17528
 20
60.8
 30
0.0
 11
82.1516
 21
60.8
 31
0.0
  0
POINT
  5
24D
330
1E
100
AcDbEntity
  8
0
  6
CONTINUOUS
 62
     1
100
AcDbPoint
 10
76.98
 20
60.42228000000001
 30
0.0
  0
POINT
  5
24E
330
1E
100
AcDbEntity
  8
0
  6
CONTINUOUS
 62
     1
100
AcDbPoint
 10
68.98
 20
60.42228000000001
 30
0.0
  0
POINT
  5
24F
330
1E
100
AcDbEntity
  8
0
  6
CONTINUOUS
 62
     7
100
AcDbPoint
 10
60.97999999999998
 20
60.42228000000001
 30
0.0
  0
POINT
  5
250
330
1E
100
AcDbEntity
  8
0
  6
CONTINUOUS
 62
     1
100
AcDbPoint
 10
52.98
 20
60.42228000000001
 30
0.0
  0
POINT
  5
251
330
1E
100
AcDbEntity
  8
0
  6
CONTINUOUS
 62
     1
100
AcDbPoint
 10
44.98
 20
60.42228000000001
 30
0.0
  0
LINE
  5
252
330
1E
100
AcDbEntity
  8
0
  6
CONTINUOUS
 62
     1
100
AcDbLine
 10
-220.2188
 20
-88.26196000000001
 30
0.0
 11
-191.9392
 21
-88.26196000000001
 31
0.0
  0
LINE
  5
253
330
1E
100
AcDbEntity
  8
0
  6
CONTINUOUS
 62
     1
100
AcDbLine
 10
-163.9387999999998
 20
-60.25056
 30
0.0
 11
-163.9387999999998
 21
-31.98195999999999
 31
0.0
  0
LINE
  5
254
330
1E
100
AcDbEntity
  8
0
  6
CONTINUOUS
 62
     1
100
AcDbLine
 10
-195.9387999999999
 20
-88.26196000000001
 30
0.0
 11
-195.9387999999999
 21
-31.98195999999999
 31
0.0
  0
LINE
  5
255
330
1E
100
AcDbEntity
  8
0
  6
CONTINUOUS
 62
     1
100
AcDbLine
 10
-220.2188
 20
-56.26196
 30
0.0
 11
-163.9387999999998
 21
-56.26196
 31
0.0
  0
LINE
  5
256
330
1E
100
AcDbEntity
  8
0
  6
CONTINUOUS
 62
     7
100
AcDbLine
 10
-172.3387999999999
 20
-42.65559999999999
 30
0.0
 11
-180.3387999999999
 21
-42.65559999999999
 31
0.0
  0
LINE
  5
257
330
1E
100
AcDbEntity
  8
0
  6
CONTINUOUS
 62
     7
100
AcDbLine
 10
-179.138
 20
-42.33346
 30
0.0
 11
-180.3379999999999
 21
-42.655
 31
0.0
  0
LINE
  5
258
330
1E
100
AcDbEntity
  8
0
  6
CONTINUOUS
 62
     7
100
AcDbLine
 10
-180.3379999999999
 20
-42.655
 30
0.0
 11
-179.138
 21
-42.97652999999999
 31
0.0
  0
LINE
  5
259
330
1E
100
AcDbEntity
  8
0
  6
CONTINUOUS
 62
     7
100
AcDbLine
 10
-164.3387999999999
 20
-42.65559999999999
 30
0.0
 11
-172.34316
 21
-42.65559999999999
 31
0.0
  0
LINE
  5
25A
330
1E
100
AcDbEntity
  8
0
  6
CONTINUOUS
 62
     7
100
AcDbLine
 10
-171.143
 20
-42.33346
 30
0.0
 11
-172.343
 21
-42.655
 31
0.0
  0
LINE
  5
25B
330
1E
100
AcDbEntity
  8
0
  6
CONTINUOUS
 62
     7
100
AcDbLine
 10
-172.343
 20
-42.655
 30
0.0
 11
-171.143
 21
-42.97652999999999
 31
0.0
  0
LINE
  5
25C
330
1E
100
AcDbEntity
  8
0
  6
CONTINUOUS
 62
     7
100
AcDbLine
 10
-152.51988
 20
-42.65559999999999
 30
0.0
 11
-164.3387999999999
 21
-42.65559999999999
 31
0.0
  0
LINE
  5
25D
330
1E
100
AcDbEntity
  8
0
  6
CONTINUOUS
 62
     7
100
AcDbLine
 10
-163.138
 20
-42.33346
 30
0.0
 11
-164.338
 21
-42.655
 31
0.0
  0
LINE
  5
25E
330
1E
100
AcDbEntity
  8
0
  6
CONTINUOUS
 62
     7
100
AcDbLine
 10
-164.338
 20
-42.655
 30
0.0
 11
-163.138
 21
-42.97652999999999
 31
0.0
  0
LINE
  5
25F
330
1E
100
AcDbEntity
  8
0
  6
CONTINUOUS
 62
     7
100
AcDbLine
 10
-171.9387999999999
 20
-52.6644
 30
0.0
 11
-179.9387999999999
 21
-52.6644
 31
0.0
  0
LINE
  5
260
330
1E
100
AcDbEntity
  8
0
  6
CONTINUOUS
 62
     7
100
AcDbLine
 10
-178.7379999999999
 20
-52.34245999999998
 30
0.0
 11
-179.938
 21
-52.66399999999999
 31
0.0
  0
LINE
  5
261
330
1E
100
AcDbEntity
  8
0
  6
CONTINUOUS
 62
     7
100
AcDbLine
 10
-179.938
 20
-52.66399999999999
 30
0.0
 11
-178.7379999999999
 21
-52.98553
 31
0.0
  0
LINE
  5
262
330
1E
100
AcDbEntity
  8
0
  6
CONTINUOUS
 62
     7
100
AcDbLine
 10
-163.9387999999998
 20
-52.6644
 30
0.0
 11
-171.9411199999999
 21
-52.6644
 31
0.0
  0
LINE
  5
263
330
1E
100
AcDbEntity
  8
0
  6
CONTINUOUS
 62
     7
100
AcDbLine
 10
-170.7409999999998
 20
-52.34245999999998
 30
0.0
 11
-171.9409999999999
 21
-52.66399999999999
 31
0.0
  0
LINE
  5
264
330
1E
100
AcDbEntity
  8
0
  6
CONTINUOUS
 62
     7
100
AcDbLine
 10
-171.9409999999999
 20
-52.66399999999999
 30
0.0
 11
-170.7409999999998
 21
-52.98553
 31
0.0
  0
LINE
  5
265
330
1E
100
AcDbEntity
  8
0
  6
CONTINUOUS
 62
     7
100
AcDbLine
 10
-152.51988
 20
-52.6644
 30
0.0
 11
-163.9387999999998
 21
-52.6644
 31
0.0
  0
LINE
  5
266
330
1E
100
AcDbEntity
  8
0
  6
CONTINUOUS
 62
     7
100
AcDbLine
 10
-162.738
 20
-52.34245999999998
 30
0.0
 11
-163.9379999999999
 21
-52.66399999999999
 31
0.0
  0
LINE
  5
267
330
1E
100
AcDbEntity
  8
0
  6
CONTINUOUS
 62
     7
100
AcDbLine
 10
-163.9379999999999
 20
-52.66399999999999
 30
0.0
 11
-162.738
 21
-52.98553
 31
0.0
  0
LINE
  5
268
330
1E
100
AcDbEntity
  8
0
  6
CONTINUOUS
 62
     7
100
AcDbLine
 10
-209.8367599999999
 20
-79.86195999999998
 30
0.0
 11
-209.8367599999999
 21
-71.86195999999998
 31
0.0
  0
LINE
  5
269
330
1E
100
AcDbEntity
  8
0
  6
CONTINUOUS
 62
     7
100
AcDbLine
 10
-209.51446
 20
-73.061
 30
0.0
 11
-209.836
 21
-71.861
 31
0.0
  0
LINE
  5
26A
330
1E
100
AcDbEntity
  8
0
  6
CONTINUOUS
 62
     7
100
AcDbLine
 10
-209.836
 20
-71.861
 30
0.0
 11
-210.1575299999999
 21
-73.061
 31
0.0
  0
LINE
  5
26B
330
1E
100
AcDbEntity
  8
0
  6
CONTINUOUS
 62
     7
100
AcDbLine
 10
-209.8367599999999
 20
-87.86196
 30
0.0
 11
-209.8367599999999
 21
-79.85455999999998
 31
0.0
  0
LINE
  5
26C
330
1E
100
AcDbEntity
  8
0
  6
CONTINUOUS
 62
     7
100
AcDbLine
 10
-209.51446
 20
-81.05400000000001
 30
0.0
 11
-209.836
 21
-79.854
 31
0.0
  0
LINE
  5
26D
330
1E
100
AcDbEntity
  8
0
  6
CONTINUOUS
 62
     7
100
AcDbLine
 10
-209.836
 20
-79.854
 30
0.0
 11
-210.1575299999999
 21
-81.05400000000001
 31
0.0
  0
LINE
  5
26E
330
1E
100
AcDbEntity
  8
0
  6
CONTINUOUS
 62
     7
100
AcDbLine
 10
-209.8367599999999
 20
-99.66196
 30
0.0
 11
-209.8367599999999
 21
-87.86196
 31
0.0
  0
LINE
  5
26F
330
1E
100
AcDbEntity
  8
0
  6
CONTINUOUS
 62
     7
100
AcDbLine
 10
-209.51446
 20
-89.061
 30
0.0
 11
-209.836
 21
-87.86100000000002
 31
0.0
  0
LINE
  5
270
330
1E
100
AcDbEntity
  8
0
  6
CONTINUOUS
 62
     7
100
AcDbLine
 10
-209.836
 20
-87.86100000000002
 30
0.0
 11
-210.1575299999999
 21
-89.061
 31
0.0
  0
LINE
  5
271
330
1E
100
AcDbEntity
  8
0
  6
CONTINUOUS
 62
     7
100
AcDbLine
 10
-199.9851199999999
 20
-80.28068000000002
 30
0.0
 11
-199.9851199999999
 21
-72.26196
 31
0.0
  0
LINE
  5
272
330
1E
100
AcDbEntity
  8
0
  6
CONTINUOUS
 62
     7
100
AcDbLine
 10
-199.66346
 20
-73.46099999999998
 30
0.0
 11
-199.985
 21
-72.26099999999998
 31
0.0
  0
LINE
  5
273
330
1E
100
AcDbEntity
  8
0
  6
CONTINUOUS
 62
     7
100
AcDbLine
 10
-199.985
 20
-72.26099999999998
 30
0.0
 11
-200.30653
 21
-73.46099999999998
 31
0.0
  0
LINE
  5
274
330
1E
100
AcDbEntity
  8
0
  6
CONTINUOUS
 62
     7
100
AcDbLine
 10
-199.9851199999999
 20
-88.28068
 30
0.0
 11
-199.9851199999999
 21
-80.28068000000002
 31
0.0
  0
LINE
  5
275
330
1E
100
AcDbEntity
  8
0
  6
CONTINUOUS
 62
     7
100
AcDbLine
 10
-199.66346
 20
-81.48000000000001
 30
0.0
 11
-199.985
 21
-80.28
 31
0.0
  0
LINE
  5
276
330
1E
100
AcDbEntity
  8
0
  6
CONTINUOUS
 62
     7
100
AcDbLine
 10
-199.985
 20
-80.28
 30
0.0
 11
-200.30653
 21
-81.48000000000001
 31
0.0
  0
LINE
  5
277
330
1E
100
AcDbEntity
  8
0
  6
CONTINUOUS
 62
     7
100
AcDbLine
 10
-199.9851199999999
 20
-99.68068000000002
 30
0.0
 11
-199.9851199999999
 21
-88.28068
 31
0.0
  0
LINE
  5
278
330
1E
100
AcDbEntity
  8
0
  6
CONTINUOUS
 62
     7
100
AcDbLine
 10
-199.66346
 20
-89.48
 30
0.0
 11
-199.985
 21
-88.28000000000001
 31
0.0
  0
LINE
  5
279
330
1E
100
AcDbEntity
  8
0
  6
CONTINUOUS
 62
     7
100
AcDbLine
 10
-199.985
 20
-88.28000000000001
 30
0.0
 11
-200.30653
 21
-89.48
 31
0.0
  0
LINE
  5
27A
330
1E
100
AcDbEntity
  8
0
  6
CONTINUOUS
 62
     7
100
AcDbLine
 10
-67.05844
 20
120.2703999999999
 30
0.0
 11
-67.05844
 21
110.2703999999999
 31
0.0
  0
LINE
  5
27B
330
1E
100
AcDbEntity
  8
0
  6
CONTINUOUS
 62
     7
100
AcDbLine
 10
-67.37953
 20
111.47
 30
0.0
 11
-67.058
 21
110.27
 31
0.0
  0
LINE
  5
27C
330
1E
100
AcDbEntity
  8
0
  6
CONTINUOUS
 62
     7
100
AcDbLine
 10
-67.058
 20
110.27
 30
0.0
 11
-66.73645999999999
 21
111.47
 31
0.0
  0
LINE
  5
27D
330
1E
100
AcDbEntity
  8
0
  6
CONTINUOUS
 62
     7
100
AcDbLine
 10
-67.05844
 20
134.4155199999997
 30
0.0
 11
-67.05844
 21
124.9829599999999
 31
0.0
  0
LINE
  5
27E
330
1E
100
AcDbEntity
  8
0
  6
CONTINUOUS
 62
     7
100
AcDbLine
 10
-67.37953
 20
126.1819999999999
 30
0.0
 11
-67.058
 21
124.9819999999999
 31
0.0
  0
LINE
  5
27F
330
1E
100
AcDbEntity
  8
0
  6
CONTINUOUS
 62
     7
100
AcDbLine
 10
-67.058
 20
124.9819999999999
 30
0.0
 11
-66.73645999999999
 21
126.1819999999999
 31
0.0
  0
LINE
  5
280
330
1E
100
AcDbEntity
  8
0
  6
CONTINUOUS
 62
     7
100
AcDbLine
 10
-63.05844
 20
96.31748000000001
 30
0.0
 11
-71.05844000000002
 21
96.31748000000001
 31
0.0
  0
LINE
  5
281
330
1E
100
AcDbEntity
  8
0
  6
CONTINUOUS
 62
     7
100
AcDbLine
 10
-69.85800000000001
 20
96.63853000000001
 30
0.0
 11
-71.05800000000002
 21
96.31700000000002
 31
0.0
  0
LINE
  5
282
330
1E
100
AcDbEntity
  8
0
  6
CONTINUOUS
 62
     7
100
AcDbLine
 10
-71.05800000000002
 20
96.31700000000002
 30
0.0
 11
-69.85800000000001
 21
95.99546
 31
0.0
  0
LINE
  5
283
330
1E
100
AcDbEntity
  8
0
  6
CONTINUOUS
 62
     7
100
AcDbLine
 10
167.0
 20
100.8855199999999
 30
0.0
 11
170.4
 21
100.8855199999999
 31
0.0
  0
LINE
  5
284
330
1E
100
AcDbEntity
  8
0
  6
CONTINUOUS
 62
     7
100
AcDbLine
 10
170.4
 20
111.56288
 30
0.0
 11
170.4
 21
100.0855199999999
 31
0.0
  0
LINE
  5
285
330
1E
100
AcDbEntity
  8
0
  6
CONTINUOUS
 62
     7
100
AcDbLine
 10
167.0
 20
108.6706399999999
 30
0.0
 11
167.0
 21
100.0855199999999
 31
0.0
  0
LINE
  5
286
330
1E
100
AcDbEntity
  8
0
  6
CONTINUOUS
 62
     7
100
AcDbLine
 10
172.8
 20
100.8855199999999
 30
0.0
 11
170.4
 21
100.8855199999999
 31
0.0
  0
LINE
  5
287
330
1E
100
AcDbEntity
  8
0
  6
CONTINUOUS
 62
     7
100
AcDbLine
 10
171.6
 20
101.2065299999999
 30
0.0
 11
170.4
 21
100.885
 31
0.0
  0
LINE
  5
288
330
1E
100
AcDbEntity
  8
0
  6
CONTINUOUS
 62
     7
100
AcDbLine
 10
170.4
 20
100.885
 30
0.0
 11
171.6
 21
100.56346
 31
0.0
  0
LINE
  5
289
330
1E
100
AcDbEntity
  8
0
  6
CONTINUOUS
 62
     7
100
AcDbLine
 10
167.0
 20
100.8855199999999
 30
0.0
 11
164.5999999999999
 21
100.8855199999999
 31
0.0
  0
LINE
  5
28A
330
1E
100
AcDbEntity
  8
0
  6
CONTINUOUS
 62
     7
100
AcDbLine
 10
165.8
 20
100.56346
 30
0.0
 11
167.0
 21
100.885
 31
0.0
  0
LINE
  5
28B
330
1E
100
AcDbEntity
  8
0
  6
CONTINUOUS
 62
     7
100
AcDbLine
 10
167.0
 20
100.885
 30
0.0
 11
165.8
 21
101.2065299999999
 31
0.0
  0
LINE
  5
28C
330
1E
100
AcDbEntity
  8
0
  6
CONTINUOUS
 62
     7
100
AcDbLine
 10
164.5999999999999
 20
100.8855199999999
 30
0.0
 11
160.4999999999999
 21
100.8855199999999
 31
0.0
  0
TEXT
  5
28D
330
1E
100
AcDbEntity
  8
0
  6
CONTINUOUS
 62
     7
100
AcDbText
 10
160.4999999999999
 20
101.2855199999999
 30
0.0
 40
3.2
  1
85
 41
0.78125
  7
BIGFONT
100
AcDbText
  0
CIRCLE
  5
28E
330
1E
100
AcDbEntity
  8
0
  6
CONTINUOUS
 62
     7
100
AcDbCircle
 10
195.0030399999999
 20
60.44
 30
0.0
 40
0.6
  0
LINE
  5
28F
330
1E
100
AcDbEntity
  8
0
  6
CONTINUOUS
 62
     7
100
AcDbLine
 10
193.40304
 20
60.44
 30
0.0
 11
196.60304
 21
60.44
 31
0.0
  0
LINE
  5
290
330
1E
100
AcDbEntity
  8
0
  6
CONTINUOUS
 62
     7
100
AcDbLine
 10
195.0030399999999
 20
58.84
 30
0.0
 11
195.0030399999999
 21
62.04
 31
0.0
  0
LINE
  5
291
330
1E
100
AcDbEntity
  8
0
  6
CONTINUOUS
 62
     7
100
AcDbLine
 10
207.19584
 20
57.0
 30
0.0
 11
207.19584
 21
60.44
 31
0.0
  0
LINE
  5
292
330
1E
100
AcDbEntity
  8
0
  6
CONTINUOUS
 62
     7
100
AcDbLine
 10
197.2004
 20
60.44
 30
0.0
 11
207.9958399999999
 21
60.44
 31
0.0
  0
LINE
  5
293
330
1E
100
AcDbEntity
  8
0
  6
CONTINUOUS
 62
     7
100
AcDbLine
 10
202.2396
 20
57.0
 30
0.0
 11
207.9958399999999
 21
57.0
 31
0.0
  0
LINE
  5
294
330
1E
100
AcDbEntity
  8
0
  6
CONTINUOUS
 62
     7
100
AcDbLine
 10
207.19584
 20
62.84
 30
0.0
 11
207.19584
 21
60.44
 31
0.0
  0
LINE
  5
295
330
1E
100
AcDbEntity
  8
0
  6
CONTINUOUS
 62
     7
100
AcDbLine
 10
206.87346
 20
61.64
 30
0.0
 11
207.195
 21
60.44
 31
0.0
  0
LINE
  5
296
330
1E
100
AcDbEntity
  8
0
  6
CONTINUOUS
 62
     7
100
AcDbLine
 10
207.195
 20
60.44
 30
0.0
 11
207.51653
 21
61.64
 31
0.0
  0
LINE
  5
297
330
1E
100
AcDbEntity
  8
0
  6
CONTINUOUS
 62
     7
100
AcDbLine
 10
207.19584
 20
57.0
 30
0.0
 11
207.19584
 21
54.6
 31
0.0
  0
LINE
  5
298
330
1E
100
AcDbEntity
  8
0
  6
CONTINUOUS
 62
     7
100
AcDbLine
 10
207.51653
 20
55.8
 30
0.0
 11
207.195
 21
57.0
 31
0.0
  0
LINE
  5
299
330
1E
100
AcDbEntity
  8
0
  6
CONTINUOUS
 62
     7
100
AcDbLine
 10
207.195
 20
57.0
 30
0.0
 11
206.87346
 21
55.8
 31
0.0
  0
LINE
  5
29A
330
1E
100
AcDbEntity
  8
0
  6
CONTINUOUS
 62
     7
100
AcDbLine
 10
207.19584
 20
62.84
 30
0.0
 11
207.19584
 21
68.68999999999998
 31
0.0
  0
TEXT
  5
29B
330
1E
100
AcDbEntity
  8
0
  6
CONTINUOUS
 62
     7
100
AcDbText
 10
206.79584
 20
63.68999999999999
 30
0.0
 40
3.2
  1
86
 50
90.0
 41
0.78125
  7
BIGFONT
100
AcDbText
  0
LINE
  5
29C
330
1E
100
AcDbEntity
  8
0
  6
CONTINUOUS
 62
     7
100
AcDbLine
 10
222.8418813425043
 20
117.4554
 30
0.0
 11
181.16192
 21
117.48788
 31
0.0
  0
LINE
  5
29D
330
1E
100
AcDbEntity
  8
0
  6
CONTINUOUS
 62
     7
100
AcDbLine
 10
181.16192
 20
117.48788
 30
0.0
 11
170.8201999999999
 21
114.1823199999999
 31
0.0
  0
LINE
  5
29E
330
1E
100
AcDbEntity
  8
0
  6
CONTINUOUS
 62
     7
100
AcDbLine
 10
171.8651299999999
 20
114.8536199999999
 30
0.0
 11
170.8199999999999
 21
114.182
 31
0.0
  0
LINE
  5
29F
330
1E
100
AcDbEntity
  8
0
  6
CONTINUOUS
 62
     7
100
AcDbLine
 10
170.8199999999999
 20
114.182
 30
0.0
 11
172.0609199999999
 21
114.2410699999999
 31
0.0
  0
TEXT
  5
2A0
330
1E
100
AcDbEntity
  8
0
  6
CONTINUOUS
 62
     7
100
AcDbText
 10
182.6628799999999
 20
113.60428
 30
0.0
 40
3.2
  1
W1/2
  7
BIGFONT
100
AcDbText
  0
TEXT
  5
2A1
330
1E
100
AcDbEntity
  8
0
  6
CONTINUOUS
 62
     7
100
AcDbText
 10
182.3254799999999
 20
118.01732
 30
0.0
 40
3.2
  1
4-埋め込みインサート
  7
BIGFONT
100
AcDbText
  0
TEXT
  5
2A2
330
1E
100
AcDbEntity
  8
0
  6
CONTINUOUS
 62
     7
100
AcDbText
 10
58.11144
 20
79.31232
 30
0.0
 40
3.2
  1
D10
  7
BIGFONT
100
AcDbText
  0
CIRCLE
  5
2A3
330
1E
100
AcDbEntity
  8
0
  6
CONTINUOUS
 62
     7
100
AcDbCircle
 10
-155.0193999999999
 20
71.34636
 30
0.0
 40
2.5
  0
TEXT
  5
2A4
330
1E
100
AcDbEntity
  8
0
  6
CONTINUOUS
 62
     7
100
AcDbText
 10
-153.2659999999999
 20
69.70839999999999
 30
0.0
 40
3.2
  1
４
 50
90.0
  7
BIGFONT
100
AcDbText
  0
TEXT
  5
2A5
330
1E
100
AcDbEntity
  8
0
  6
CONTINUOUS
 62
     7
100
AcDbText
 10
-153.3603999999999
 20
74.98428
 30
0.0
 40
3.2
  1
D10
 50
90.0
  7
BIGFONT
100
AcDbText
  0
LINE
  5
2A6
330
1E
100
AcDbEntity
  8
0
  6
CONTINUOUS
 62
     7
100
AcDbLine
 10
-152.51988
 20
67.64391999999999
 30
0.0
 11
-152.51988
 21
83.64392
 31
0.0
  0
LINE
  5
2A7
330
1E
100
AcDbEntity
  8
0
  6
CONTINUOUS
 62
     7
100
AcDbLine
 10
-91.05844000000001
 20
-99.67995999999999
 30
0.0
 11
-75.05844
 21
-99.67995999999999
 31
0.0
  0
TEXT
  5
2A8
330
1E
100
AcDbEntity
  8
0
  6
CONTINUOUS
 62
     7
100
AcDbText
 10
-84.61471999999998
 20
-98.69424000000002
 30
0.0
 40
3.2
  1
D13
  7
BIGFONT
100
AcDbText
  0
CIRCLE
  5
2A9
330
1E
100
AcDbEntity
  8
0
  6
CONTINUOUS
 62
     7
100
AcDbCircle
 10
-88.61344
 20
-97.1808
 30
0.0
 40
2.5
  0
TEXT
  5
2AA
330
1E
100
AcDbEntity
  8
0
  6
CONTINUOUS
 62
     7
100
AcDbText
 10
-90.21880000000001
 20
-98.93600000000001
 30
0.0
 40
3.2
  1
２
  7
BIGFONT
100
AcDbText
  0
LINE
  5
2AB
330
1E
100
AcDbEntity
  8
0
  6
CONTINUOUS
 62
     7
100
AcDbLine
 10
-27.65844
 20
-52.26195999999998
 30
0.0
 11
-27.65844
 21
-36.26195999999997
 31
0.0
  0
TEXT
  5
2AC
330
1E
100
AcDbEntity
  8
0
  6
CONTINUOUS
 62
     7
100
AcDbText
 10
-28.64416
 20
-44.69824
 30
0.0
 40
3.2
  1
D13
 50
90.0
  7
BIGFONT
100
AcDbText
  0
CIRCLE
  5
2AD
330
1E
100
AcDbEntity
  8
0
  6
CONTINUOUS
 62
     7
100
AcDbCircle
 10
-30.1576
 20
-48.69696
 30
0.0
 40
2.5
  0
TEXT
  5
2AE
330
1E
100
AcDbEntity
  8
0
  6
CONTINUOUS
 62
     7
100
AcDbText
 10
-28.4024
 20
-50.30232
 30
0.0
 40
3.2
  1
２
 50
90.0
  7
BIGFONT
100
AcDbText
  0
TEXT
  5
2AF
330
1E
100
AcDbEntity
  8
3
  6
CONTINUOUS
 62
     7
100
AcDbText
 10
245.1699999999999
 20
-157.7359999999998
 30
0.0
 40
3.799999999999998
  1
ＫＬ－３１０５
 41
0.7
  7
BIGFONT
100
AcDbText
  0
TEXT
  5
2B0
330
1E
100
AcDbEntity
  8
1
  6
CONTINUOUS
 62
     7
100
AcDbText
 10
-103.7156799999999
 20
-179.91182
 30
0.0
 40
3.2
  1
Ｌ
  7
BIGFONT
100
AcDbText
  0
TEXT
  5
2B1
330
1E
100
AcDbEntity
  8
1
  6
CONTINUOUS
 62
     7
100
AcDbText
 10
-100.70592
 20
-179.7357399999999
 30
0.0
 40
2.2
  1
１
 41
1.1363636
  7
BIGFONT
100
AcDbText
  0
LINE
  5
2B2
330
1E
100
AcDbEntity
  8
1
  6
CONTINUOUS
 62
     1
100
AcDbLine
 10
-109.59018
 20
-172.52896
 30
0.0
 11
-92.99018000000002
 21
-172.52896
 31
0.0
  0
LINE
  5
2B3
330
1E
100
AcDbEntity
  8
1
  6
CONTINUOUS
 62
     7
100
AcDbLine
 10
-109.59018
 20
-180.52866
 30
0.0
 11
-92.99018000000002
 21
-180.52866
 31
0.0
  0
LINE
  5
2B4
330
1E
100
AcDbEntity
  8
1
  6
CONTINUOUS
 62
     7
100
AcDbLine
 10
-92.99018000000002
 20
-173.52896
 30
0.0
 11
-92.99018000000002
 21
-181.3286599999999
 31
0.0
  0
LINE
  5
2B5
330
1E
100
AcDbEntity
  8
1
  6
CONTINUOUS
 62
     7
100
AcDbLine
 10
-109.59018
 20
-173.52896
 30
0.0
 11
-109.59018
 21
-181.3286599999999
 31
0.0
  0
LINE
  5
2B6
330
1E
100
AcDbEntity
  8
1
  6
CONTINUOUS
 62
     7
100
AcDbLine
 10
-94.19
 20
-180.84953
 30
0.0
 11
-92.98999999999999
 21
-180.5279999999999
 31
0.0
  0
LINE
  5
2B7
330
1E
100
AcDbEntity
  8
1
  6
CONTINUOUS
 62
     7
100
AcDbLine
 10
-92.98999999999999
 20
-180.5279999999999
 30
0.0
 11
-94.19
 21
-180.20646
 31
0.0
  0
LINE
  5
2B8
330
1E
100
AcDbEntity
  8
1
  6
CONTINUOUS
 62
     7
100
AcDbLine
 10
-108.39
 20
-180.20646
 30
0.0
 11
-109.59
 21
-180.5279999999999
 31
0.0
  0
LINE
  5
2B9
330
1E
100
AcDbEntity
  8
1
  6
CONTINUOUS
 62
     7
100
AcDbLine
 10
-109.59
 20
-180.5279999999999
 30
0.0
 11
-108.39
 21
-180.84953
 31
0.0
  0
CIRCLE
  5
2BA
330
1E
100
AcDbEntity
  8
1
  6
CONTINUOUS
 62
     7
100
AcDbCircle
 10
-101.16814
 20
-163.8864
 30
0.0
 40
2.497799999999998
  0
TEXT
  5
2BB
330
1E
100
AcDbEntity
  8
1
  6
CONTINUOUS
 62
     7
100
AcDbText
 10
-102.87118
 20
-165.73178
 30
0.0
 40
3.2
  1
７
  7
BIGFONT
100
AcDbText
  0
LINE
  5
2BC
330
1E
100
AcDbEntity
  8
1
  6
CONTINUOUS
 62
     7
100
AcDbLine
 10
-106.3656399999999
 20
-166.35396
 30
0.0
 11
-95.84182
 21
-166.35396
 31
0.0
  0
TEXT
  5
2BD
330
1E
100
AcDbEntity
  8
1
  6
CONTINUOUS
 62
     7
100
AcDbText
 10
-204.5652399999999
 20
-138.22442
 30
0.0
 40
4.5
  1
鉄筋加工図
  7
BIGFONT
100
AcDbText
  0
LINE
  5
2BE
330
1E
100
AcDbEntity
  8
1
  6
CONTINUOUS
 62
     7
100
AcDbLine
 10
-205.8834
 20
-139.03152
 30
0.0
 11
-169.59958
 21
-139.03152
 31
0.0
  0
LINE
  5
2BF
330
1E
100
AcDbEntity
  8
1
  6
CONTINUOUS
 62
     7
100
AcDbLine
 10
-177.59958
 20
-139.03152
 30
0.0
 11
-176.89098
 21
-139.03152
 31
0.0
  0
LINE
  5
2C0
330
1E
100
AcDbEntity
  8
1
  6
CONTINUOUS
 62
     1
100
AcDbLine
 10
-238.6943399999999
 20
-172.52896
 30
0.0
 11
-229.37032
 21
-172.52896
 31
0.0
  0
LINE
  5
2C1
330
1E
100
AcDbEntity
  8
1
  6
CONTINUOUS
 62
     7
100
AcDbLine
 10
-238.6943399999999
 20
-180.4963199999999
 30
0.0
 11
-229.37032
 21
-180.4963199999999
 31
0.0
  0
LINE
  5
2C2
330
1E
100
AcDbEntity
  8
1
  6
CONTINUOUS
 62
     7
100
AcDbLine
 10
-229.37032
 20
-173.52896
 30
0.0
 11
-229.37032
 21
-181.29632
 31
0.0
  0
LINE
  5
2C3
330
1E
100
AcDbEntity
  8
1
  6
CONTINUOUS
 62
     7
100
AcDbLine
 10
-238.6943399999999
 20
-172.85338
 30
0.0
 11
-238.6943399999999
 21
-181.29632
 31
0.0
  0
LINE
  5
2C4
330
1E
100
AcDbEntity
  8
1
  6
CONTINUOUS
 62
     7
100
AcDbLine
 10
-230.5699999999999
 20
-180.81753
 30
0.0
 11
-229.37
 21
-180.4959999999999
 31
0.0
  0
LINE
  5
2C5
330
1E
100
AcDbEntity
  8
1
  6
CONTINUOUS
 62
     7
100
AcDbLine
 10
-229.37
 20
-180.4959999999999
 30
0.0
 11
-230.5699999999999
 21
-180.17446
 31
0.0
  0
LINE
  5
2C6
330
1E
100
AcDbEntity
  8
1
  6
CONTINUOUS
 62
     7
100
AcDbLine
 10
-237.494
 20
-180.17446
 30
0.0
 11
-238.694
 21
-180.4959999999999
 31
0.0
  0
LINE
  5
2C7
330
1E
100
AcDbEntity
  8
1
  6
CONTINUOUS
 62
     7
100
AcDbLine
 10
-238.694
 20
-180.4959999999999
 30
0.0
 11
-237.494
 21
-180.81753
 31
0.0
  0
LINE
  5
2C8
330
1E
100
AcDbEntity
  8
1
  6
CONTINUOUS
 62
     1
100
AcDbLine
 10
-208.1943399999999
 20
-172.52896
 30
0.0
 11
-174.1943399999999
 21
-172.52896
 31
0.0
  0
LINE
  5
2C9
330
1E
100
AcDbEntity
  8
1
  6
CONTINUOUS
 62
     7
100
AcDbLine
 10
-208.1943399999999
 20
-180.4985399999999
 30
0.0
 11
-174.1943399999999
 21
-180.4985399999999
 31
0.0
  0
LINE
  5
2CA
330
1E
100
AcDbEntity
  8
1
  6
CONTINUOUS
 62
     7
100
AcDbLine
 10
-174.1943399999999
 20
-173.52896
 30
0.0
 11
-174.1943399999999
 21
-181.29854
 31
0.0
  0
LINE
  5
2CB
330
1E
100
AcDbEntity
  8
1
  6
CONTINUOUS
 62
     7
100
AcDbLine
 10
-208.1943399999999
 20
-172.85338
 30
0.0
 11
-208.1943399999999
 21
-181.29854
 31
0.0
  0
LINE
  5
2CC
330
1E
100
AcDbEntity
  8
1
  6
CONTINUOUS
 62
     7
100
AcDbLine
 10
-175.394
 20
-180.81953
 30
0.0
 11
-174.1939999999999
 21
-180.498
 31
0.0
  0
LINE
  5
2CD
330
1E
100
AcDbEntity
  8
1
  6
CONTINUOUS
 62
     7
100
AcDbLine
 10
-174.1939999999999
 20
-180.498
 30
0.0
 11
-175.394
 21
-180.17646
 31
0.0
  0
LINE
  5
2CE
330
1E
100
AcDbEntity
  8
1
  6
CONTINUOUS
 62
     7
100
AcDbLine
 10
-206.9939999999999
 20
-180.17646
 30
0.0
 11
-208.1939999999999
 21
-180.498
 31
0.0
  0
LINE
  5
2CF
330
1E
100
AcDbEntity
  8
1
  6
CONTINUOUS
 62
     7
100
AcDbLine
 10
-208.1939999999999
 20
-180.498
 30
0.0
 11
-206.9939999999999
 21
-180.81953
 31
0.0
  0
LINE
  5
2D0
330
1E
100
AcDbEntity
  8
1
  6
CONTINUOUS
 62
     1
100
AcDbLine
 10
-153.0893
 20
-172.52896
 30
0.0
 11
-125.6893
 21
-172.52896
 31
0.0
  0
LINE
  5
2D1
330
1E
100
AcDbEntity
  8
1
  6
CONTINUOUS
 62
     1
100
AcDbLine
 10
-153.6893
 20
-171.92896
 30
0.0
 11
-153.6893
 21
-147.52896
 31
0.0
  0
ARC
  5
2D2
330
1E
100
AcDbEntity
  8
1
  6
CONTINUOUS
 62
     1
100
AcDbCircle
 10
-153.0893
 20
-171.92896
 30
0.0
 40
0.6
100
AcDbArc
 50
180.0
 51
270.0
  0
LINE
  5
2D3
330
1E
100
AcDbEntity
  8
1
  6
CONTINUOUS
 62
     7
100
AcDbLine
 10
-153.19096
 20
-180.4985399999999
 30
0.0
 11
-125.6893
 21
-180.4985399999999
 31
0.0
  0
LINE
  5
2D4
330
1E
100
AcDbEntity
  8
1
  6
CONTINUOUS
 62
     7
100
AcDbLine
 10
-125.6893
 20
-173.52896
 30
0.0
 11
-125.6893
 21
-181.29854
 31
0.0
  0
LINE
  5
2D5
330
1E
100
AcDbEntity
  8
1
  6
CONTINUOUS
 62
     7
100
AcDbLine
 10
-153.19096
 20
-172.91126
 30
0.0
 11
-153.19096
 21
-181.29854
 31
0.0
  0
LINE
  5
2D6
330
1E
100
AcDbEntity
  8
1
  6
CONTINUOUS
 62
     7
100
AcDbLine
 10
-126.889
 20
-180.81953
 30
0.0
 11
-125.689
 21
-180.498
 31
0.0
  0
LINE
  5
2D7
330
1E
100
AcDbEntity
  8
1
  6
CONTINUOUS
 62
     7
100
AcDbLine
 10
-125.689
 20
-180.498
 30
0.0
 11
-126.889
 21
-180.17646
 31
0.0
  0
LINE
  5
2D8
330
1E
100
AcDbEntity
  8
1
  6
CONTINUOUS
 62
     7
100
AcDbLine
 10
-151.9899999999998
 20
-180.17646
 30
0.0
 11
-153.19
 21
-180.498
 31
0.0
  0
LINE
  5
2D9
330
1E
100
AcDbEntity
  8
1
  6
CONTINUOUS
 62
     7
100
AcDbLine
 10
-153.19
 20
-180.498
 30
0.0
 11
-151.9899999999998
 21
-180.81953
 31
0.0
  0
LINE
  5
2DA
330
1E
100
AcDbEntity
  8
1
  6
CONTINUOUS
 62
     7
100
AcDbLine
 10
-161.76622
 20
-171.92896
 30
0.0
 11
-161.76622
 21
-147.52896
 31
0.0
  0
LINE
  5
2DB
330
1E
100
AcDbEntity
  8
1
  6
CONTINUOUS
 62
     7
100
AcDbLine
 10
-154.7662199999997
 20
-147.52896
 30
0.0
 11
-162.5662199999998
 21
-147.52896
 31
0.0
  0
LINE
  5
2DC
330
1E
100
AcDbEntity
  8
1
  6
CONTINUOUS
 62
     7
100
AcDbLine
 10
-154.7662199999997
 20
-171.92896
 30
0.0
 11
-162.5662199999998
 21
-171.92896
 31
0.0
  0
LINE
  5
2DD
330
1E
100
AcDbEntity
  8
1
  6
CONTINUOUS
 62
     7
100
AcDbLine
 10
-161.44446
 20
-148.7279999999999
 30
0.0
 11
-161.7659999999998
 21
-147.5279999999998
 31
0.0
  0
LINE
  5
2DE
330
1E
100
AcDbEntity
  8
1
  6
CONTINUOUS
 62
     7
100
AcDbLine
 10
-161.7659999999998
 20
-147.5279999999998
 30
0.0
 11
-162.08753
 21
-148.7279999999999
 31
0.0
  0
LINE
  5
2DF
330
1E
100
AcDbEntity
  8
1
  6
CONTINUOUS
 62
     7
100
AcDbLine
 10
-162.08753
 20
-170.7279999999999
 30
0.0
 11
-161.7659999999998
 21
-171.9279999999999
 31
0.0
  0
LINE
  5
2E0
330
1E
100
AcDbEntity
  8
1
  6
CONTINUOUS
 62
     7
100
AcDbLine
 10
-161.7659999999998
 20
-171.9279999999999
 30
0.0
 11
-161.44446
 21
-170.7279999999999
 31
0.0
  0
ARC
  5
2E1
330
1E
100
AcDbEntity
  8
1
  6
CONTINUOUS
 62
     7
100
AcDbCircle
 10
-153.19096
 20
-171.92896
 30
0.0
 40
8.57526
100
AcDbArc
 50
191.5780499999999
 51
238.71324
  0
ARC
  5
2E2
330
1E
100
AcDbEntity
  8
1
  6
CONTINUOUS
 62
     7
100
AcDbCircle
 10
-153.19096
 20
-171.92896
 30
0.0
 40
8.57526
100
AcDbArc
 50
238.71324
 51
246.3633899999999
  0
LINE
  5
2E3
330
1E
100
AcDbEntity
  8
1
  6
CONTINUOUS
 62
     7
100
AcDbLine
 10
-153.19096
 20
-179.68168
 30
0.0
 11
-153.19096
 21
-177.89846
 31
0.0
  0
ARC
  5
2E4
330
1E
100
AcDbEntity
  8
1
  6
CONTINUOUS
 62
     7
100
AcDbCircle
 10
-153.19096
 20
-171.92896
 30
0.0
 40
8.57526
100
AcDbArc
 50
246.3633899999999
 51
247.8281799999999
  0
ARC
  5
2E5
330
1E
100
AcDbEntity
  8
1
  6
CONTINUOUS
 62
     7
100
AcDbCircle
 10
-153.19096
 20
-171.92896
 30
0.0
 40
8.57526
100
AcDbArc
 50
247.8281799999999
 51
258.01527
  0
LINE
  5
2E6
330
1E
100
AcDbEntity
  8
1
  6
CONTINUOUS
 62
     7
100
AcDbLine
 10
-161.60762
 20
-173.57056
 30
0.0
 11
-161.76622
 21
-171.92896
 31
0.0
  0
LINE
  5
2E7
330
1E
100
AcDbEntity
  8
1
  6
CONTINUOUS
 62
     7
100
AcDbLine
 10
-161.3305499999999
 20
-173.0915099999999
 30
0.0
 11
-161.7659999999998
 21
-171.9279999999999
 31
0.0
  0
LINE
  5
2E8
330
1E
100
AcDbEntity
  8
1
  6
CONTINUOUS
 62
     7
100
AcDbLine
 10
-161.7659999999998
 20
-171.9279999999999
 30
0.0
 11
-161.97065
 21
-173.1533499999999
 31
0.0
  0
LINE
  5
2E9
330
1E
100
AcDbEntity
  8
1
  6
CONTINUOUS
 62
     7
100
AcDbLine
 10
-154.90336
 20
-180.3314999999999
 30
0.0
 11
-153.19096
 21
-180.50422
 31
0.0
  0
LINE
  5
2EA
330
1E
100
AcDbEntity
  8
1
  6
CONTINUOUS
 62
     7
100
AcDbLine
 10
-154.41621
 20
-180.70348
 30
0.0
 11
-153.19
 21
-180.5039999999999
 31
0.0
  0
LINE
  5
2EB
330
1E
100
AcDbEntity
  8
1
  6
CONTINUOUS
 62
     7
100
AcDbLine
 10
-153.19
 20
-180.5039999999999
 30
0.0
 11
-154.3516699999998
 21
-180.0636499999999
 31
0.0
  0
ARC
  5
2EC
330
1E
100
AcDbEntity
  8
1
  6
CONTINUOUS
 62
     7
100
AcDbCircle
 10
-153.19096
 20
-171.92896
 30
0.0
 40
8.57526
100
AcDbArc
 50
258.01527
 51
258.41701
  0
LINE
  5
2ED
330
1E
100
AcDbEntity
  8
1
  6
CONTINUOUS
 62
     7
100
AcDbLine
 10
-153.19096
 20
-180.32676
 30
0.0
 11
-153.19096
 21
-179.68168
 31
0.0
  0
LINE
  5
2EE
330
1E
100
AcDbEntity
  8
1
  6
CONTINUOUS
 62
     7
100
AcDbLine
 10
-161.76622
 20
-171.92896
 30
0.0
 11
-161.76622
 21
-167.5736
 31
0.0
  0
ARC
  5
2EF
330
1E
100
AcDbEntity
  8
1
  6
CONTINUOUS
 62
     7
100
AcDbCircle
 10
-153.19096
 20
-171.92896
 30
0.0
 40
8.57526
100
AcDbArc
 50
191.0231699999999
 51
191.5780499999999
  0
LINE
  5
2F0
330
1E
100
AcDbEntity
  8
1
  6
CONTINUOUS
 62
     7
100
AcDbLine
 10
-153.19096
 20
-174.2451199999999
 30
0.0
 11
-153.19096
 21
-171.92896
 31
0.0
  0
LINE
  5
2F1
330
1E
100
AcDbEntity
  8
1
  6
CONTINUOUS
 62
     7
100
AcDbLine
 10
-155.74854
 20
-171.92896
 30
0.0
 11
-153.19096
 21
-171.92896
 31
0.0
  0
LINE
  5
2F2
330
1E
100
AcDbEntity
  8
1
  6
CONTINUOUS
 62
     1
100
AcDbLine
 10
-95.84374
 20
-146.1219
 30
0.0
 11
-93.01531999999999
 21
-143.29348
 31
0.0
  0
LINE
  5
2F3
330
1E
100
AcDbEntity
  8
1
  6
CONTINUOUS
 62
     1
100
AcDbLine
 10
-105.8437199999999
 20
-146.1219
 30
0.0
 11
-95.84374
 21
-146.1219
 31
0.0
  0
LINE
  5
2F4
330
1E
100
AcDbEntity
  8
1
  6
CONTINUOUS
 62
     1
100
AcDbLine
 10
-108.67216
 20
-143.29348
 30
0.0
 11
-105.8437199999999
 21
-146.1219
 31
0.0
  0
LINE
  5
2F5
330
1E
100
AcDbEntity
  8
1
  6
CONTINUOUS
 62
     7
100
AcDbLine
 10
-114.32902
 20
-148.9503399999998
 30
0.0
 11
-111.5005899999997
 21
-151.77877
 31
0.0
  0
LINE
  5
2F6
330
1E
100
AcDbEntity
  8
1
  6
CONTINUOUS
 62
     7
100
AcDbLine
 10
-106.55082
 20
-146.829
 30
0.0
 11
-112.06627
 21
-152.34445
 31
0.0
  0
LINE
  5
2F7
330
1E
100
AcDbEntity
  8
1
  6
CONTINUOUS
 62
     7
100
AcDbLine
 10
-109.37926
 20
-144.00058
 30
0.0
 11
-114.8946999999999
 21
-149.5160199999999
 31
0.0
  0
LINE
  5
2F8
330
1E
100
AcDbEntity
  8
1
  6
CONTINUOUS
 62
     7
100
AcDbLine
 10
-112.5758899999999
 20
-151.15683
 30
0.0
 11
-111.4999999999999
 21
-151.7779999999999
 31
0.0
  0
LINE
  5
2F9
330
1E
100
AcDbEntity
  8
1
  6
CONTINUOUS
 62
     7
100
AcDbLine
 10
-111.4999999999999
 20
-151.7779999999999
 30
0.0
 11
-112.12116
 21
-150.7020999999999
 31
0.0
  0
LINE
  5
2FA
330
1E
100
AcDbEntity
  8
1
  6
CONTINUOUS
 62
     7
100
AcDbLine
 10
-113.2530999999999
 20
-149.57116
 30
0.0
 11
-114.3289999999999
 21
-148.9499999999999
 31
0.0
  0
LINE
  5
2FB
330
1E
100
AcDbEntity
  8
1
  6
CONTINUOUS
 62
     7
100
AcDbLine
 10
-114.3289999999999
 20
-148.9499999999999
 30
0.0
 11
-113.7078299999999
 21
-150.02589
 31
0.0
  0
LINE
  5
2FC
330
1E
100
AcDbEntity
  8
1
  6
CONTINUOUS
 62
     7
100
AcDbLine
 10
-90.20839999999999
 20
-151.7572399999997
 30
0.0
 11
-87.37998000000002
 21
-148.92882
 31
0.0
  0
LINE
  5
2FD
330
1E
100
AcDbEntity
  8
1
  6
CONTINUOUS
 62
     7
100
AcDbLine
 10
-92.30821
 20
-144.00058
 30
0.0
 11
-86.81428999999999
 21
-149.4944999999999
 31
0.0
  0
LINE
  5
2FE
330
1E
100
AcDbEntity
  8
1
  6
CONTINUOUS
 62
     7
100
AcDbLine
 10
-95.13662999999999
 20
-146.829
 30
0.0
 11
-89.64271
 21
-152.3229199999998
 31
0.0
  0
LINE
  5
2FF
330
1E
100
AcDbEntity
  8
1
  6
CONTINUOUS
 62
     7
100
AcDbLine
 10
-88.00015999999997
 20
-150.0038899999998
 30
0.0
 11
-87.37900000000001
 21
-148.9279999999999
 31
0.0
  0
LINE
  5
300
330
1E
100
AcDbEntity
  8
1
  6
CONTINUOUS
 62
     7
100
AcDbLine
 10
-87.37900000000001
 20
-148.9279999999999
 30
0.0
 11
-88.45489
 21
-149.54916
 31
0.0
  0
LINE
  5
301
330
1E
100
AcDbEntity
  8
1
  6
CONTINUOUS
 62
     7
100
AcDbLine
 10
-89.58683
 20
-150.6810999999999
 30
0.0
 11
-90.20799999999999
 21
-151.757
 31
0.0
  0
LINE
  5
302
330
1E
100
AcDbEntity
  8
1
  6
CONTINUOUS
 62
     7
100
AcDbLine
 10
-90.20799999999999
 20
-151.757
 30
0.0
 11
-89.13209999999997
 21
-151.1358299999999
 31
0.0
  0
LINE
  5
303
330
1E
100
AcDbEntity
  8
1
  6
CONTINUOUS
 62
     7
100
AcDbLine
 10
-105.8437199999999
 20
-154.12192
 30
0.0
 11
-95.84374
 21
-154.12192
 31
0.0
  0
LINE
  5
304
330
1E
100
AcDbEntity
  8
1
  6
CONTINUOUS
 62
     7
100
AcDbLine
 10
-95.84374
 20
-147.1219
 30
0.0
 11
-95.84374
 21
-154.92192
 31
0.0
  0
LINE
  5
305
330
1E
100
AcDbEntity
  8
1
  6
CONTINUOUS
 62
     7
100
AcDbLine
 10
-105.8437199999999
 20
-147.1219
 30
0.0
 11
-105.8437199999999
 21
-154.92192
 31
0.0
  0
LINE
  5
306
330
1E
100
AcDbEntity
  8
1
  6
CONTINUOUS
 62
     7
100
AcDbLine
 10
-97.04300000000001
 20
-154.44253
 30
0.0
 11
-95.84299999999997
 21
-154.121
 31
0.0
  0
LINE
  5
307
330
1E
100
AcDbEntity
  8
1
  6
CONTINUOUS
 62
     7
100
AcDbLine
 10
-95.84299999999997
 20
-154.121
 30
0.0
 11
-97.04300000000001
 21
-153.79946
 31
0.0
  0
LINE
  5
308
330
1E
100
AcDbEntity
  8
1
  6
CONTINUOUS
 62
     7
100
AcDbLine
 10
-104.6429999999999
 20
-153.79946
 30
0.0
 11
-105.8429999999999
 21
-154.121
 31
0.0
  0
LINE
  5
309
330
1E
100
AcDbEntity
  8
1
  6
CONTINUOUS
 62
     7
100
AcDbLine
 10
-105.8429999999999
 20
-154.121
 30
0.0
 11
-104.6429999999999
 21
-154.44253
 31
0.0
  0
TEXT
  5
30A
330
1E
100
AcDbEntity
  8
1
  6
CONTINUOUS
 62
     7
100
AcDbText
 10
-238.3688799999999
 20
-172.2315199999999
 30
0.0
 40
3.2
  1
Ｒ
 50
2.0
  7
BIGFONT
100
AcDbText
  0
TEXT
  5
30B
330
1E
100
AcDbEntity
  8
1
  6
CONTINUOUS
 62
     7
100
AcDbText
 10
-152.8655
 20
-172.3071
 30
0.0
 40
3.2
  1
Ｒ
 50
2.0
  7
BIGFONT
100
AcDbText
  0
TEXT
  5
30C
330
1E
100
AcDbEntity
  8
1
  6
CONTINUOUS
 62
     7
100
AcDbText
 10
-193.6709
 20
-179.8597
 30
0.0
 40
3.2
  1
Ｌ
  7
BIGFONT
100
AcDbText
  0
TEXT
  5
30D
330
1E
100
AcDbEntity
  8
1
  6
CONTINUOUS
 62
     7
100
AcDbText
 10
-190.6611399999999
 20
-179.6836199999999
 30
0.0
 40
2.2
  1
１
 41
1.1363636
  7
BIGFONT
100
AcDbText
  0
TEXT
  5
30E
330
1E
100
AcDbEntity
  8
1
  6
CONTINUOUS
 62
     7
100
AcDbText
 10
-236.51108
 20
-179.89598
 30
0.0
 40
3.2
  1
Ｌ
  7
BIGFONT
100
AcDbText
  0
TEXT
  5
30F
330
1E
100
AcDbEntity
  8
1
  6
CONTINUOUS
 62
     7
100
AcDbText
 10
-233.5802399999999
 20
-179.72726
 30
0.0
 40
2.2
  1
３
 41
1.1363636
  7
BIGFONT
100
AcDbText
  0
TEXT
  5
310
330
1E
100
AcDbEntity
  8
1
  6
CONTINUOUS
 62
     7
100
AcDbText
 10
-160.66876
 20
-175.5347399999999
 30
0.0
 40
3.2
  1
Ｌ
 50
315.0
  7
BIGFONT
100
AcDbText
  0
TEXT
  5
311
330
1E
100
AcDbEntity
  8
1
  6
CONTINUOUS
 62
     7
100
AcDbText
 10
-158.46724
 20
-177.4994199999999
 30
0.0
 40
2.2
  1
２
 50
315.0
 41
1.1363636
  7
BIGFONT
100
AcDbText
  0
TEXT
  5
312
330
1E
100
AcDbEntity
  8
1
  6
CONTINUOUS
 62
     7
100
AcDbText
 10
-141.62736
 20
-179.8816999999999
 30
0.0
 40
3.2
  1
Ｌ
  7
BIGFONT
100
AcDbText
  0
TEXT
  5
313
330
1E
100
AcDbEntity
  8
1
  6
CONTINUOUS
 62
     7
100
AcDbText
 10
-138.6176
 20
-179.7056199999999
 30
0.0
 40
2.2
  1
１
 41
1.1363636
  7
BIGFONT
100
AcDbText
  0
TEXT
  5
314
330
1E
100
AcDbEntity
  8
1
  6
CONTINUOUS
 62
     7
100
AcDbText
 10
-162.2126
 20
-162.83158
 30
0.0
 40
3.2
  1
Ｌ
 50
90.0
  7
BIGFONT
100
AcDbText
  0
TEXT
  5
315
330
1E
100
AcDbEntity
  8
1
  6
CONTINUOUS
 62
     7
100
AcDbText
 10
-162.3813199999998
 20
-159.9007399999998
 30
0.0
 40
2.2
  1
３
 50
90.0
 41
1.1363636
  7
BIGFONT
100
AcDbText
  0
TEXT
  5
316
330
1E
100
AcDbEntity
  8
1
  6
CONTINUOUS
 62
     7
100
AcDbText
 10
-103.7569199999999
 20
-153.6593399999999
 30
0.0
 40
3.2
  1
Ｌ
  7
BIGFONT
100
AcDbText
  0
TEXT
  5
317
330
1E
100
AcDbEntity
  8
1
  6
CONTINUOUS
 62
     7
100
AcDbText
 10
-100.8109799999999
 20
-153.49186
 30
0.0
 40
2.2
  1
２
 41
1.1363636
  7
BIGFONT
100
AcDbText
  0
TEXT
  5
318
330
1E
100
AcDbEntity
  8
1
  6
CONTINUOUS
 62
     7
100
AcDbText
 10
-87.58228
 20
-154.85806
 30
0.0
 40
3.2
  1
Ｌ
 50
45.0
  7
BIGFONT
100
AcDbText
  0
TEXT
  5
319
330
1E
100
AcDbEntity
  8
1
  6
CONTINUOUS
 62
     7
100
AcDbText
 10
-85.57855999999999
 20
-152.6053399999999
 30
0.0
 40
2.2
  1
１
 50
45.0
 41
1.1363636
  7
BIGFONT
100
AcDbText
  0
LINE
  5
31A
330
1E
100
AcDbEntity
  8
1
  6
CONTINUOUS
 62
     1
100
AcDbLine
 10
-239.1926799999999
 20
-171.92896
 30
0.0
 11
-239.1926799999999
 21
-138.62896
 31
0.0
  0
ARC
  5
31B
330
1E
100
AcDbEntity
  8
1
  6
CONTINUOUS
 62
     1
100
AcDbCircle
 10
-238.5926799999999
 20
-171.92896
 30
0.0
 40
0.6
100
AcDbArc
 50
180.0
 51
270.0
  0
LINE
  5
31C
330
1E
100
AcDbEntity
  8
1
  6
CONTINUOUS
 62
     7
100
AcDbLine
 10
-247.2696
 20
-171.92896
 30
0.0
 11
-247.2696
 21
-138.62896
 31
0.0
  0
LINE
  5
31D
330
1E
100
AcDbEntity
  8
1
  6
CONTINUOUS
 62
     7
100
AcDbLine
 10
-240.2696
 20
-138.62896
 30
0.0
 11
-248.0696
 21
-138.62896
 31
0.0
  0
LINE
  5
31E
330
1E
100
AcDbEntity
  8
1
  6
CONTINUOUS
 62
     7
100
AcDbLine
 10
-240.2696
 20
-171.92896
 30
0.0
 11
-248.0696
 21
-171.92896
 31
0.0
  0
LINE
  5
31F
330
1E
100
AcDbEntity
  8
1
  6
CONTINUOUS
 62
     7
100
AcDbLine
 10
-246.94746
 20
-139.8279999999999
 30
0.0
 11
-247.269
 21
-138.6279999999999
 31
0.0
  0
LINE
  5
320
330
1E
100
AcDbEntity
  8
1
  6
CONTINUOUS
 62
     7
100
AcDbLine
 10
-247.269
 20
-138.6279999999999
 30
0.0
 11
-247.5905299999999
 21
-139.8279999999999
 31
0.0
  0
LINE
  5
321
330
1E
100
AcDbEntity
  8
1
  6
CONTINUOUS
 62
     7
100
AcDbLine
 10
-247.5905299999999
 20
-170.7279999999999
 30
0.0
 11
-247.269
 21
-171.9279999999999
 31
0.0
  0
LINE
  5
322
330
1E
100
AcDbEntity
  8
1
  6
CONTINUOUS
 62
     7
100
AcDbLine
 10
-247.269
 20
-171.9279999999999
 30
0.0
 11
-246.94746
 21
-170.7279999999999
 31
0.0
  0
ARC
  5
323
330
1E
100
AcDbEntity
  8
1
  6
CONTINUOUS
 62
     7
100
AcDbCircle
 10
-238.6943399999999
 20
-171.92896
 30
0.0
 40
8.57526
100
AcDbArc
 50
191.5780499999999
 51
238.71324
  0
ARC
  5
324
330
1E
100
AcDbEntity
  8
1
  6
CONTINUOUS
 62
     7
100
AcDbCircle
 10
-238.6943399999999
 20
-171.92896
 30
0.0
 40
8.57526
100
AcDbArc
 50
238.71324
 51
246.3633899999999
  0
ARC
  5
325
330
1E
100
AcDbEntity
  8
1
  6
CONTINUOUS
 62
     7
100
AcDbCircle
 10
-238.6943399999999
 20
-171.92896
 30
0.0
 40
8.57526
100
AcDbArc
 50
246.3633899999999
 51
247.8281799999999
  0
ARC
  5
326
330
1E
100
AcDbEntity
  8
1
  6
CONTINUOUS
 62
     7
100
AcDbCircle
 10
-238.6943399999999
 20
-171.92896
 30
0.0
 40
8.57526
100
AcDbArc
 50
247.8281799999999
 51
258.01527
  0
LINE
  5
327
330
1E
100
AcDbEntity
  8
1
  6
CONTINUOUS
 62
     7
100
AcDbLine
 10
-247.1109999999999
 20
-173.57056
 30
0.0
 11
-247.2696
 21
-171.92896
 31
0.0
  0
LINE
  5
328
330
1E
100
AcDbEntity
  8
1
  6
CONTINUOUS
 62
     7
100
AcDbLine
 10
-246.83355
 20
-173.0915099999999
 30
0.0
 11
-247.269
 21
-171.9279999999999
 31
0.0
  0
LINE
  5
329
330
1E
100
AcDbEntity
  8
1
  6
CONTINUOUS
 62
     7
100
AcDbLine
 10
-247.269
 20
-171.9279999999999
 30
0.0
 11
-247.47365
 21
-173.1533499999999
 31
0.0
  0
LINE
  5
32A
330
1E
100
AcDbEntity
  8
1
  6
CONTINUOUS
 62
     7
100
AcDbLine
 10
-240.4067399999999
 20
-180.3314999999999
 30
0.0
 11
-238.6943399999999
 21
-180.50422
 31
0.0
  0
LINE
  5
32B
330
1E
100
AcDbEntity
  8
1
  6
CONTINUOUS
 62
     7
100
AcDbLine
 10
-239.92021
 20
-180.70348
 30
0.0
 11
-238.694
 21
-180.5039999999999
 31
0.0
  0
LINE
  5
32C
330
1E
100
AcDbEntity
  8
1
  6
CONTINUOUS
 62
     7
100
AcDbLine
 10
-238.694
 20
-180.5039999999999
 30
0.0
 11
-239.85567
 21
-180.0636499999999
 31
0.0
  0
ARC
  5
32D
330
1E
100
AcDbEntity
  8
1
  6
CONTINUOUS
 62
     7
100
AcDbCircle
 10
-238.6943399999999
 20
-171.92896
 30
0.0
 40
8.57526
100
AcDbArc
 50
258.01527
 51
258.41701
  0
LINE
  5
32E
330
1E
100
AcDbEntity
  8
1
  6
CONTINUOUS
 62
     7
100
AcDbLine
 10
-247.2696
 20
-171.92896
 30
0.0
 11
-247.2696
 21
-167.5736
 31
0.0
  0
ARC
  5
32F
330
1E
100
AcDbEntity
  8
1
  6
CONTINUOUS
 62
     7
100
AcDbCircle
 10
-238.6943399999999
 20
-171.92896
 30
0.0
 40
8.57526
100
AcDbArc
 50
191.0231699999999
 51
191.5780499999999
  0
LINE
  5
330
330
1E
100
AcDbEntity
  8
1
  6
CONTINUOUS
 62
     7
100
AcDbLine
 10
-241.25192
 20
-171.92896
 30
0.0
 11
-238.6943399999999
 21
-171.92896
 31
0.0
  0
TEXT
  5
331
330
1E
100
AcDbEntity
  8
1
  6
CONTINUOUS
 62
     7
100
AcDbText
 10
-246.17214
 20
-175.5347399999999
 30
0.0
 40
3.2
  1
Ｌ
 50
315.0
  7
BIGFONT
100
AcDbText
  0
TEXT
  5
332
330
1E
100
AcDbEntity
  8
1
  6
CONTINUOUS
 62
     7
100
AcDbText
 10
-243.97062
 20
-177.4994199999999
 30
0.0
 40
2.2
  1
２
 50
315.0
 41
1.1363636
  7
BIGFONT
100
AcDbText
  0
LINE
  5
333
330
1E
100
AcDbEntity
  8
1
  6
CONTINUOUS
 62
     7
100
AcDbLine
 10
-238.6943399999999
 20
-174.2556199999999
 30
0.0
 11
-238.6943399999999
 21
-171.92896
 31
0.0
  0
TEXT
  5
334
330
1E
100
AcDbEntity
  8
1
  6
CONTINUOUS
 62
     7
100
AcDbText
 10
-207.86888
 20
-172.2315199999999
 30
0.0
 40
3.2
  1
Ｒ
 50
2.0
  7
BIGFONT
100
AcDbText
  0
LINE
  5
335
330
1E
100
AcDbEntity
  8
1
  6
CONTINUOUS
 62
     1
100
AcDbLine
 10
-208.69268
 20
-171.92896
 30
0.0
 11
-208.69268
 21
-164.90796
 31
0.0
  0
ARC
  5
336
330
1E
100
AcDbEntity
  8
1
  6
CONTINUOUS
 62
     1
100
AcDbCircle
 10
-208.0926799999999
 20
-171.92896
 30
0.0
 40
0.6
100
AcDbArc
 50
180.0
 51
270.0
  0
LINE
  5
337
330
1E
100
AcDbEntity
  8
1
  6
CONTINUOUS
 62
     7
100
AcDbLine
 10
-216.7695999999998
 20
-171.92896
 30
0.0
 11
-216.7695999999998
 21
-164.90796
 31
0.0
  0
LINE
  5
338
330
1E
100
AcDbEntity
  8
1
  6
CONTINUOUS
 62
     7
100
AcDbLine
 10
-209.7696
 20
-164.90796
 30
0.0
 11
-217.5696
 21
-164.90796
 31
0.0
  0
LINE
  5
339
330
1E
100
AcDbEntity
  8
1
  6
CONTINUOUS
 62
     7
100
AcDbLine
 10
-209.7696
 20
-171.92896
 30
0.0
 11
-217.5696
 21
-171.92896
 31
0.0
  0
LINE
  5
33A
330
1E
100
AcDbEntity
  8
1
  6
CONTINUOUS
 62
     7
100
AcDbLine
 10
-216.44746
 20
-166.107
 30
0.0
 11
-216.7689999999999
 21
-164.907
 31
0.0
  0
LINE
  5
33B
330
1E
100
AcDbEntity
  8
1
  6
CONTINUOUS
 62
     7
100
AcDbLine
 10
-216.7689999999999
 20
-164.907
 30
0.0
 11
-217.0905299999999
 21
-166.107
 31
0.0
  0
LINE
  5
33C
330
1E
100
AcDbEntity
  8
1
  6
CONTINUOUS
 62
     7
100
AcDbLine
 10
-217.0905299999999
 20
-170.7279999999999
 30
0.0
 11
-216.7689999999999
 21
-171.9279999999999
 31
0.0
  0
LINE
  5
33D
330
1E
100
AcDbEntity
  8
1
  6
CONTINUOUS
 62
     7
100
AcDbLine
 10
-216.7689999999999
 20
-171.9279999999999
 30
0.0
 11
-216.44746
 21
-170.7279999999999
 31
0.0
  0
ARC
  5
33E
330
1E
100
AcDbEntity
  8
1
  6
CONTINUOUS
 62
     7
100
AcDbCircle
 10
-208.1943399999999
 20
-171.92896
 30
0.0
 40
8.57526
100
AcDbArc
 50
191.5780499999999
 51
238.71324
  0
ARC
  5
33F
330
1E
100
AcDbEntity
  8
1
  6
CONTINUOUS
 62
     7
100
AcDbCircle
 10
-208.1943399999999
 20
-171.92896
 30
0.0
 40
8.57526
100
AcDbArc
 50
238.71324
 51
246.3633899999999
  0
ARC
  5
340
330
1E
100
AcDbEntity
  8
1
  6
CONTINUOUS
 62
     7
100
AcDbCircle
 10
-208.1943399999999
 20
-171.92896
 30
0.0
 40
8.57526
100
AcDbArc
 50
246.3633899999999
 51
247.8281799999999
  0
ARC
  5
341
330
1E
100
AcDbEntity
  8
1
  6
CONTINUOUS
 62
     7
100
AcDbCircle
 10
-208.1943399999999
 20
-171.92896
 30
0.0
 40
8.57526
100
AcDbArc
 50
247.8281799999999
 51
258.01527
  0
LINE
  5
342
330
1E
100
AcDbEntity
  8
1
  6
CONTINUOUS
 62
     7
100
AcDbLine
 10
-216.6109999999999
 20
-173.57056
 30
0.0
 11
-216.7695999999998
 21
-171.92896
 31
0.0
  0
LINE
  5
343
330
1E
100
AcDbEntity
  8
1
  6
CONTINUOUS
 62
     7
100
AcDbLine
 10
-216.7695999999998
 20
-171.92896
 30
0.0
 11
-217.0003899999999
 21
-169.54008
 31
0.0
  0
LINE
  5
344
330
1E
100
AcDbEntity
  8
1
  6
CONTINUOUS
 62
     7
100
AcDbLine
 10
-216.33355
 20
-173.0915099999999
 30
0.0
 11
-216.7689999999999
 21
-171.9279999999999
 31
0.0
  0
LINE
  5
345
330
1E
100
AcDbEntity
  8
1
  6
CONTINUOUS
 62
     7
100
AcDbLine
 10
-216.7689999999999
 20
-171.9279999999999
 30
0.0
 11
-216.9736499999999
 21
-173.1533499999999
 31
0.0
  0
LINE
  5
346
330
1E
100
AcDbEntity
  8
1
  6
CONTINUOUS
 62
     7
100
AcDbLine
 10
-209.90674
 20
-180.3314999999999
 30
0.0
 11
-208.1943399999999
 21
-180.50422
 31
0.0
  0
LINE
  5
347
330
1E
100
AcDbEntity
  8
1
  6
CONTINUOUS
 62
     7
100
AcDbLine
 10
-209.4202099999999
 20
-180.70348
 30
0.0
 11
-208.1939999999999
 21
-180.5039999999999
 31
0.0
  0
LINE
  5
348
330
1E
100
AcDbEntity
  8
1
  6
CONTINUOUS
 62
     7
100
AcDbLine
 10
-208.1939999999999
 20
-180.5039999999999
 30
0.0
 11
-209.35567
 21
-180.0636499999999
 31
0.0
  0
ARC
  5
349
330
1E
100
AcDbEntity
  8
1
  6
CONTINUOUS
 62
     7
100
AcDbCircle
 10
-208.1943399999999
 20
-171.92896
 30
0.0
 40
8.57526
100
AcDbArc
 50
258.01527
 51
258.41701
  0
LINE
  5
34A
330
1E
100
AcDbEntity
  8
1
  6
CONTINUOUS
 62
     7
100
AcDbLine
 10
-216.7695999999998
 20
-171.92896
 30
0.0
 11
-216.7695999999998
 21
-167.5736
 31
0.0
  0
ARC
  5
34B
330
1E
100
AcDbEntity
  8
1
  6
CONTINUOUS
 62
     7
100
AcDbCircle
 10
-208.1943399999999
 20
-171.92896
 30
0.0
 40
8.57526
100
AcDbArc
 50
191.0231699999999
 51
191.5780499999999
  0
LINE
  5
34C
330
1E
100
AcDbEntity
  8
1
  6
CONTINUOUS
 62
     7
100
AcDbLine
 10
-210.75192
 20
-171.92896
 30
0.0
 11
-208.1943399999999
 21
-171.92896
 31
0.0
  0
TEXT
  5
34D
330
1E
100
AcDbEntity
  8
1
  6
CONTINUOUS
 62
     7
100
AcDbText
 10
-215.6721399999999
 20
-175.5347399999999
 30
0.0
 40
3.2
  1
Ｌ
 50
315.0
  7
BIGFONT
100
AcDbText
  0
TEXT
  5
34E
330
1E
100
AcDbEntity
  8
1
  6
CONTINUOUS
 62
     7
100
AcDbText
 10
-213.47062
 20
-177.4994199999999
 30
0.0
 40
2.2
  1
２
 50
315.0
 41
1.1363636
  7
BIGFONT
100
AcDbText
  0
TEXT
  5
34F
330
1E
100
AcDbEntity
  8
1
  6
CONTINUOUS
 62
     7
100
AcDbText
 10
-217.2159799999999
 20
-171.12108
 30
0.0
 40
3.2
  1
Ｌ
 50
90.0
  7
BIGFONT
100
AcDbText
  0
TEXT
  5
350
330
1E
100
AcDbEntity
  8
1
  6
CONTINUOUS
 62
     7
100
AcDbText
 10
-217.3847
 20
-168.19024
 30
0.0
 40
2.2
  1
３
 50
90.0
 41
1.1363636
  7
BIGFONT
100
AcDbText
  0
LINE
  5
351
330
1E
100
AcDbEntity
  8
1
  6
CONTINUOUS
 62
     7
100
AcDbLine
 10
-208.1943399999999
 20
-174.2556199999999
 30
0.0
 11
-208.1943399999999
 21
-171.92896
 31
0.0
  0
TEXT
  5
352
330
1E
100
AcDbEntity
  8
1
  6
CONTINUOUS
 62
     7
100
AcDbText
 10
-117.71776
 20
-151.2896199999999
 30
0.0
 40
3.2
  1
Ｌ
 50
315.0
  7
BIGFONT
100
AcDbText
  0
TEXT
  5
353
330
1E
100
AcDbEntity
  8
1
  6
CONTINUOUS
 62
     7
100
AcDbText
 10
-115.5260399999999
 20
-153.2427399999999
 30
0.0
 40
2.2
  1
３
 50
315.0
 41
1.1363636
  7
BIGFONT
100
AcDbText
  0
LINE
  5
354
330
1E
100
AcDbEntity
  8
1
  6
CONTINUOUS
 62
     1
100
AcDbLine
 10
-64.44875999999999
 20
-172.52896
 30
0.0
 11
-37.04875999999997
 21
-172.52896
 31
0.0
  0
LINE
  5
355
330
1E
100
AcDbEntity
  8
1
  6
CONTINUOUS
 62
     1
100
AcDbLine
 10
-65.04876
 20
-171.92896
 30
0.0
 11
-65.04876
 21
-147.52896
 31
0.0
  0
ARC
  5
356
330
1E
100
AcDbEntity
  8
1
  6
CONTINUOUS
 62
     1
100
AcDbCircle
 10
-64.44875999999999
 20
-171.92896
 30
0.0
 40
0.6
100
AcDbArc
 50
180.0
 51
270.0
  0
LINE
  5
357
330
1E
100
AcDbEntity
  8
1
  6
CONTINUOUS
 62
     7
100
AcDbLine
 10
-64.55041999999997
 20
-180.4985399999999
 30
0.0
 11
-37.04875999999997
 21
-180.4985399999999
 31
0.0
  0
LINE
  5
358
330
1E
100
AcDbEntity
  8
1
  6
CONTINUOUS
 62
     7
100
AcDbLine
 10
-37.04875999999997
 20
-173.52896
 30
0.0
 11
-37.04875999999997
 21
-181.29854
 31
0.0
  0
LINE
  5
359
330
1E
100
AcDbEntity
  8
1
  6
CONTINUOUS
 62
     7
100
AcDbLine
 10
-64.55041999999997
 20
-172.91126
 30
0.0
 11
-64.55041999999997
 21
-181.29854
 31
0.0
  0
LINE
  5
35A
330
1E
100
AcDbEntity
  8
1
  6
CONTINUOUS
 62
     7
100
AcDbLine
 10
-38.24799999999999
 20
-180.81953
 30
0.0
 11
-37.048
 21
-180.498
 31
0.0
  0
LINE
  5
35B
330
1E
100
AcDbEntity
  8
1
  6
CONTINUOUS
 62
     7
100
AcDbLine
 10
-37.048
 20
-180.498
 30
0.0
 11
-38.24799999999999
 21
-180.17646
 31
0.0
  0
LINE
  5
35C
330
1E
100
AcDbEntity
  8
1
  6
CONTINUOUS
 62
     7
100
AcDbLine
 10
-63.35
 20
-180.17646
 30
0.0
 11
-64.55
 21
-180.498
 31
0.0
  0
LINE
  5
35D
330
1E
100
AcDbEntity
  8
1
  6
CONTINUOUS
 62
     7
100
AcDbLine
 10
-64.55
 20
-180.498
 30
0.0
 11
-63.35
 21
-180.81953
 31
0.0
  0
LINE
  5
35E
330
1E
100
AcDbEntity
  8
1
  6
CONTINUOUS
 62
     7
100
AcDbLine
 10
-73.12568
 20
-171.92896
 30
0.0
 11
-73.12568
 21
-147.52896
 31
0.0
  0
LINE
  5
35F
330
1E
100
AcDbEntity
  8
1
  6
CONTINUOUS
 62
     7
100
AcDbLine
 10
-66.12568
 20
-147.52896
 30
0.0
 11
-73.92568
 21
-147.52896
 31
0.0
  0
LINE
  5
360
330
1E
100
AcDbEntity
  8
1
  6
CONTINUOUS
 62
     7
100
AcDbLine
 10
-66.12568
 20
-171.92896
 30
0.0
 11
-73.92568
 21
-171.92896
 31
0.0
  0
LINE
  5
361
330
1E
100
AcDbEntity
  8
1
  6
CONTINUOUS
 62
     7
100
AcDbLine
 10
-72.80346
 20
-148.7279999999999
 30
0.0
 11
-73.125
 21
-147.5279999999998
 31
0.0
  0
LINE
  5
362
330
1E
100
AcDbEntity
  8
1
  6
CONTINUOUS
 62
     7
100
AcDbLine
 10
-73.125
 20
-147.5279999999998
 30
0.0
 11
-73.44653
 21
-148.7279999999999
 31
0.0
  0
LINE
  5
363
330
1E
100
AcDbEntity
  8
1
  6
CONTINUOUS
 62
     7
100
AcDbLine
 10
-73.44653
 20
-170.7279999999999
 30
0.0
 11
-73.125
 21
-171.9279999999999
 31
0.0
  0
LINE
  5
364
330
1E
100
AcDbEntity
  8
1
  6
CONTINUOUS
 62
     7
100
AcDbLine
 10
-73.125
 20
-171.9279999999999
 30
0.0
 11
-72.80346
 21
-170.7279999999999
 31
0.0
  0
ARC
  5
365
330
1E
100
AcDbEntity
  8
1
  6
CONTINUOUS
 62
     7
100
AcDbCircle
 10
-64.55041999999997
 20
-171.92896
 30
0.0
 40
8.57526
100
AcDbArc
 50
191.5780499999999
 51
238.71324
  0
ARC
  5
366
330
1E
100
AcDbEntity
  8
1
  6
CONTINUOUS
 62
     7
100
AcDbCircle
 10
-64.55041999999997
 20
-171.92896
 30
0.0
 40
8.57526
100
AcDbArc
 50
238.71324
 51
246.3633899999999
  0
LINE
  5
367
330
1E
100
AcDbEntity
  8
1
  6
CONTINUOUS
 62
     7
100
AcDbLine
 10
-64.55041999999997
 20
-179.68168
 30
0.0
 11
-64.55041999999997
 21
-177.89846
 31
0.0
  0
ARC
  5
368
330
1E
100
AcDbEntity
  8
1
  6
CONTINUOUS
 62
     7
100
AcDbCircle
 10
-64.55041999999997
 20
-171.92896
 30
0.0
 40
8.57526
100
AcDbArc
 50
246.3633899999999
 51
247.8281799999999
  0
ARC
  5
369
330
1E
100
AcDbEntity
  8
1
  6
CONTINUOUS
 62
     7
100
AcDbCircle
 10
-64.55041999999997
 20
-171.92896
 30
0.0
 40
8.57526
100
AcDbArc
 50
247.8281799999999
 51
258.01527
  0
LINE
  5
36A
330
1E
100
AcDbEntity
  8
1
  6
CONTINUOUS
 62
     7
100
AcDbLine
 10
-72.96708000000002
 20
-173.57056
 30
0.0
 11
-73.12568
 21
-171.92896
 31
0.0
  0
LINE
  5
36B
330
1E
100
AcDbEntity
  8
1
  6
CONTINUOUS
 62
     7
100
AcDbLine
 10
-72.68955
 20
-173.0915099999999
 30
0.0
 11
-73.125
 21
-171.9279999999999
 31
0.0
  0
LINE
  5
36C
330
1E
100
AcDbEntity
  8
1
  6
CONTINUOUS
 62
     7
100
AcDbLine
 10
-73.125
 20
-171.9279999999999
 30
0.0
 11
-73.32965
 21
-173.1533499999999
 31
0.0
  0
LINE
  5
36D
330
1E
100
AcDbEntity
  8
1
  6
CONTINUOUS
 62
     7
100
AcDbLine
 10
-66.26281999999999
 20
-180.3314999999999
 30
0.0
 11
-64.55041999999997
 21
-180.50422
 31
0.0
  0
LINE
  5
36E
330
1E
100
AcDbEntity
  8
1
  6
CONTINUOUS
 62
     7
100
AcDbLine
 10
-65.77620999999999
 20
-180.70348
 30
0.0
 11
-64.55
 21
-180.5039999999999
 31
0.0
  0
LINE
  5
36F
330
1E
100
AcDbEntity
  8
1
  6
CONTINUOUS
 62
     7
100
AcDbLine
 10
-64.55
 20
-180.5039999999999
 30
0.0
 11
-65.71166999999999
 21
-180.0636499999999
 31
0.0
  0
ARC
  5
370
330
1E
100
AcDbEntity
  8
1
  6
CONTINUOUS
 62
     7
100
AcDbCircle
 10
-64.55041999999997
 20
-171.92896
 30
0.0
 40
8.57526
100
AcDbArc
 50
258.01527
 51
258.41701
  0
LINE
  5
371
330
1E
100
AcDbEntity
  8
1
  6
CONTINUOUS
 62
     7
100
AcDbLine
 10
-64.55041999999997
 20
-180.32676
 30
0.0
 11
-64.55041999999997
 21
-179.68168
 31
0.0
  0
LINE
  5
372
330
1E
100
AcDbEntity
  8
1
  6
CONTINUOUS
 62
     7
100
AcDbLine
 10
-73.12568
 20
-171.92896
 30
0.0
 11
-73.12568
 21
-167.5736
 31
0.0
  0
ARC
  5
373
330
1E
100
AcDbEntity
  8
1
  6
CONTINUOUS
 62
     7
100
AcDbCircle
 10
-64.55041999999997
 20
-171.92896
 30
0.0
 40
8.57526
100
AcDbArc
 50
191.0231699999999
 51
191.5780499999999
  0
LINE
  5
374
330
1E
100
AcDbEntity
  8
1
  6
CONTINUOUS
 62
     7
100
AcDbLine
 10
-64.55041999999997
 20
-174.2451199999999
 30
0.0
 11
-64.55041999999997
 21
-171.92896
 31
0.0
  0
LINE
  5
375
330
1E
100
AcDbEntity
  8
1
  6
CONTINUOUS
 62
     7
100
AcDbLine
 10
-67.108
 20
-171.92896
 30
0.0
 11
-64.55041999999997
 21
-171.92896
 31
0.0
  0
TEXT
  5
376
330
1E
100
AcDbEntity
  8
1
  6
CONTINUOUS
 62
     7
100
AcDbText
 10
-64.22495999999999
 20
-172.3071
 30
0.0
 40
3.2
  1
Ｒ
 50
2.0
  7
BIGFONT
100
AcDbText
  0
TEXT
  5
377
330
1E
100
AcDbEntity
  8
1
  6
CONTINUOUS
 62
     7
100
AcDbText
 10
-72.02821999999997
 20
-175.5347399999999
 30
0.0
 40
3.2
  1
Ｌ
 50
315.0
  7
BIGFONT
100
AcDbText
  0
TEXT
  5
378
330
1E
100
AcDbEntity
  8
1
  6
CONTINUOUS
 62
     7
100
AcDbText
 10
-69.8267
 20
-177.4994199999999
 30
0.0
 40
2.2
  1
２
 50
315.0
 41
1.1363636
  7
BIGFONT
100
AcDbText
  0
TEXT
  5
379
330
1E
100
AcDbEntity
  8
1
  6
CONTINUOUS
 62
     7
100
AcDbText
 10
-52.98681999999999
 20
-179.8816999999999
 30
0.0
 40
3.2
  1
Ｌ
  7
BIGFONT
100
AcDbText
  0
TEXT
  5
37A
330
1E
100
AcDbEntity
  8
1
  6
CONTINUOUS
 62
     7
100
AcDbText
 10
-49.97705999999999
 20
-179.7056199999999
 30
0.0
 40
2.2
  1
１
 41
1.1363636
  7
BIGFONT
100
AcDbText
  0
TEXT
  5
37B
330
1E
100
AcDbEntity
  8
1
  6
CONTINUOUS
 62
     7
100
AcDbText
 10
-73.57205999999997
 20
-162.83158
 30
0.0
 40
3.2
  1
Ｌ
 50
90.0
  7
BIGFONT
100
AcDbText
  0
TEXT
  5
37C
330
1E
100
AcDbEntity
  8
1
  6
CONTINUOUS
 62
     7
100
AcDbText
 10
-73.74078
 20
-159.9007399999998
 30
0.0
 40
2.2
  1
３
 50
90.0
 41
1.1363636
  7
BIGFONT
100
AcDbText
  0
CIRCLE
  5
37D
330
1E
100
AcDbEntity
  8
1
  6
CONTINUOUS
 62
     7
100
AcDbCircle
 10
-229.4356
 20
-157.4368599999999
 30
0.0
 40
2.497799999999998
  0
TEXT
  5
37E
330
1E
100
AcDbEntity
  8
1
  6
CONTINUOUS
 62
     7
100
AcDbText
 10
-230.96884
 20
-159.2362399999998
 30
0.0
 40
3.2
  1
１
  7
BIGFONT
100
AcDbText
  0
LINE
  5
37F
330
1E
100
AcDbEntity
  8
1
  6
CONTINUOUS
 62
     7
100
AcDbLine
 10
-234.28716
 20
-159.9550199999999
 30
0.0
 11
-223.7500799999998
 21
-159.9550199999999
 31
0.0
  0
LINE
  5
380
330
1E
100
AcDbEntity
  8
1
  6
CONTINUOUS
 62
     7
100
AcDbLine
 10
-56.7004
 20
-161.2079399999998
 30
0.0
 11
-44.12645999999997
 21
-161.2079399999998
 31
0.0
  0
CIRCLE
  5
381
330
1E
100
AcDbEntity
  8
1
  6
CONTINUOUS
 62
     7
100
AcDbCircle
 10
-193.7512
 20
-162.78798
 30
0.0
 40
2.497799999999998
  0
CIRCLE
  5
382
330
1E
100
AcDbEntity
  8
1
  6
CONTINUOUS
 62
     7
100
AcDbCircle
 10
-142.0584399999999
 20
-160.26608
 30
0.0
 40
2.497799999999998
  0
CIRCLE
  5
383
330
1E
100
AcDbEntity
  8
1
  6
CONTINUOUS
 62
     7
100
AcDbCircle
 10
-101.09364
 20
-137.4899399999997
 30
0.0
 40
2.497799999999998
  0
CIRCLE
  5
384
330
1E
100
AcDbEntity
  8
1
  6
CONTINUOUS
 62
     7
100
AcDbCircle
 10
-52.9169
 20
-158.70042
 30
0.0
 40
2.497799999999998
  0
CIRCLE
  5
385
330
1E
100
AcDbEntity
  8
1
  6
CONTINUOUS
 62
     7
100
AcDbCircle
 10
-47.92219999999999
 20
-158.6505399999998
 30
0.0
 40
2.497799999999998
  0
TEXT
  5
386
330
1E
100
AcDbEntity
  8
1
  6
CONTINUOUS
 62
     7
100
AcDbText
 10
-195.2830999999999
 20
-164.5732999999999
 30
0.0
 40
3.2
  1
２
  7
BIGFONT
100
AcDbText
  0
TEXT
  5
387
330
1E
100
AcDbEntity
  8
1
  6
CONTINUOUS
 62
     7
100
AcDbText
 10
-143.5911999999999
 20
-162.0817
 30
0.0
 40
3.2
  1
３
  7
BIGFONT
100
AcDbText
  0
TEXT
  5
388
330
1E
100
AcDbEntity
  8
1
  6
CONTINUOUS
 62
     7
100
AcDbText
 10
-102.7055
 20
-139.2936399999999
 30
0.0
 40
3.2
  1
４
  7
BIGFONT
100
AcDbText
  0
TEXT
  5
389
330
1E
100
AcDbEntity
  8
1
  6
CONTINUOUS
 62
     7
100
AcDbText
 10
-54.41894
 20
-160.53176
 30
0.0
 40
3.2
  1
５
  7
BIGFONT
100
AcDbText
  0
TEXT
  5
38A
330
1E
100
AcDbEntity
  8
1
  6
CONTINUOUS
 62
     7
100
AcDbText
 10
-49.5222
 20
-160.4773
 30
0.0
 40
3.2
  1
６
  7
BIGFONT
100
AcDbText
  0
LINE
  5
38B
330
1E
100
AcDbEntity
  8
1
  6
CONTINUOUS
 62
     7
100
AcDbLine
 10
-106.27648
 20
-139.98774
 30
0.0
 11
-96.13661999999999
 21
-139.98774
 31
0.0
  0
LINE
  5
38C
330
1E
100
AcDbEntity
  8
1
  6
CONTINUOUS
 62
     7
100
AcDbLine
 10
-198.6905399999999
 20
-165.2852399999999
 30
0.0
 11
-188.1534599999999
 21
-165.2852399999999
 31
0.0
  0
LINE
  5
38D
330
1E
100
AcDbEntity
  8
1
  6
CONTINUOUS
 62
     7
100
AcDbLine
 10
-146.94586
 20
-162.7638799999999
 30
0.0
 11
-136.40878
 21
-162.7638799999999
 31
0.0
  0
TEXT
  5
38E
330
1E
100
AcDbEntity
  8
1
  6
CONTINUOUS
 62
     7
100
AcDbText
 10
-247.6684
 20
-158.30486
 30
0.0
 40
3.2
  1
Ｌ
 50
90.0
  7
BIGFONT
100
AcDbText
  0
TEXT
  5
38F
330
1E
100
AcDbEntity
  8
1
  6
CONTINUOUS
 62
     7
100
AcDbText
 10
-247.8444799999999
 20
-155.2951
 30
0.0
 40
2.2
  1
１
 50
90.0
 41
1.1363636
  7
BIGFONT
100
AcDbText
  0
LINE
  5
390
330
1E
100
AcDbEntity
  8
0
  6
CONTINUOUS
 62
     7
100
AcDbLine
 10
227.0
 20
-78.25955999999997
 30
0.0
 11
227.0
 21
-30.26196
 31
0.0
  0
LINE
  5
391
330
1E
100
AcDbEntity
  8
0
  6
CONTINUOUS
 62
     7
100
AcDbLine
 10
221.36396
 20
-96.62592
 30
0.0
 11
233.36516
 21
-84.62471999999998
 31
0.0
  0
LINE
  5
392
330
1E
100
AcDbEntity
  8
0
  6
CONTINUOUS
 62
     7
100
AcDbLine
 10
227.7070999999998
 20
-78.96666
 30
0.0
 11
233.9308399999999
 21
-85.1904
 31
0.0
  0
LINE
  5
393
330
1E
100
AcDbEntity
  8
0
  6
CONTINUOUS
 62
     7
100
AcDbLine
 10
215.7071
 20
-90.96906
 30
0.0
 11
221.9296399999999
 21
-97.1916
 31
0.0
  0
LINE
  5
394
330
1E
100
AcDbEntity
  8
0
  6
CONTINUOUS
 62
     7
100
AcDbLine
 10
232.7438299999999
 20
-85.69988999999997
 30
0.0
 11
233.365
 21
-84.624
 31
0.0
  0
LINE
  5
395
330
1E
100
AcDbEntity
  8
0
  6
CONTINUOUS
 62
     7
100
AcDbLine
 10
233.365
 20
-84.624
 30
0.0
 11
232.2890999999999
 21
-85.24516
 31
0.0
  0
LINE
  5
396
330
1E
100
AcDbEntity
  8
0
  6
CONTINUOUS
 62
     7
100
AcDbLine
 10
221.98416
 20
-95.54909999999999
 30
0.0
 11
221.363
 21
-96.62500000000001
 31
0.0
  0
LINE
  5
397
330
1E
100
AcDbEntity
  8
0
  6
CONTINUOUS
 62
     7
100
AcDbLine
 10
221.363
 20
-96.62500000000001
 30
0.0
 11
222.43889
 21
-96.00383
 31
0.0
  0
TEXT
  5
398
330
1E
100
AcDbEntity
  8
0
  6
CONTINUOUS
 62
     7
100
AcDbText
 10
224.6068399999999
 20
-92.81735000000001
 30
0.0
 40
3.2
  1
４２４
 50
45.0
 41
0.78125
  7
BIGFONT
100
AcDbText
  0
LINE
  5
399
330
1E
100
AcDbEntity
  8
0
  6
CONTINUOUS
 62
     7
100
AcDbLine
 10
-97.05844
 20
-90.26196
 30
0.0
 11
-49.05844
 21
-90.26196
 31
0.0
  0
LINE
  5
39A
330
1E
100
AcDbEntity
  8
0
  6
CONTINUOUS
 62
     7
100
AcDbLine
 10
-37.05844
 20
-78.25955999999997
 30
0.0
 11
-37.05844
 21
-30.26196
 31
0.0
  0
LINE
  5
39B
330
1E
100
AcDbEntity
  8
0
  6
CONTINUOUS
 62
     7
100
AcDbLine
 10
-221.9387999999999
 20
-90.26196
 30
0.0
 11
-173.9387999999999
 21
-90.26196
 31
0.0
  0
LINE
  5
39C
330
1E
100
AcDbEntity
  8
0
  6
CONTINUOUS
 62
     7
100
AcDbLine
 10
-161.9387999999998
 20
-78.25955999999997
 30
0.0
 11
-161.9387999999998
 21
-30.26196
 31
0.0
  0
TEXT
  5
39D
330
1E
100
AcDbEntity
  8
0
  6
CONTINUOUS
 62
     7
100
AcDbText
 10
-189.65728
 20
109.3129199999999
 30
0.0
 40
3.2
  1
６
  7
BIGFONT
100
AcDbText
  0
CIRCLE
  5
39E
330
1E
100
AcDbEntity
  8
0
  6
CONTINUOUS
 62
     7
100
AcDbCircle
 10
-187.9856399999999
 20
111.0592
 30
0.0
 40
2.5
  0
TEXT
  5
39F
330
1E
100
AcDbEntity
  8
0
  6
CONTINUOUS
 62
     7
100
AcDbText
 10
-184.61368
 20
109.4038
 30
0.0
 40
3.2
  1
D10
  7
BIGFONT
100
AcDbText
  0
LINE
  5
3A0
330
1E
100
AcDbEntity
  8
0
  6
CONTINUOUS
 62
     7
100
AcDbLine
 10
-191.5540399999999
 20
108.56328
 30
0.0
 11
-175.5540399999999
 21
108.56328
 31
0.0
  0
CIRCLE
  5
3A1
330
1E
100
AcDbEntity
  8
0
  6
CONTINUOUS
 62
     7
100
AcDbCircle
 10
-155.02024
 20
95.43676000000001
 30
0.0
 40
2.5
  0
TEXT
  5
3A2
330
1E
100
AcDbEntity
  8
0
  6
CONTINUOUS
 62
     7
100
AcDbText
 10
-153.27116
 20
93.81852
 30
0.0
 40
3.2
  1
３
 50
90.0
  7
BIGFONT
100
AcDbText
  0
TEXT
  5
3A3
330
1E
100
AcDbEntity
  8
0
  6
CONTINUOUS
 62
     7
100
AcDbText
 10
-153.3603999999999
 20
99.07264000000001
 30
0.0
 40
3.2
  1
D10
 50
90.0
  7
BIGFONT
100
AcDbText
  0
LINE
  5
3A4
330
1E
100
AcDbEntity
  8
0
  6
CONTINUOUS
 62
     7
100
AcDbLine
 10
-152.51988
 20
91.85228
 30
0.0
 11
-152.51988
 21
107.85228
 31
0.0
  0
LINE
  5
3A5
330
1E
100
AcDbEntity
  8
0
  6
CONTINUOUS
 62
     7
100
AcDbLine
 10
64.59064000000001
 20
70.18132
 30
0.0
 11
60.97999999999998
 21
60.42228000000001
 31
0.0
  0
LINE
  5
3A6
330
1E
100
AcDbEntity
  8
0
  6
CONTINUOUS
 62
     7
100
AcDbLine
 10
61.09481999999999
 20
61.65900999999998
 30
0.0
 11
60.97999999999998
 21
60.422
 31
0.0
  0
LINE
  5
3A7
330
1E
100
AcDbEntity
  8
0
  6
CONTINUOUS
 62
     7
100
AcDbLine
 10
60.97999999999998
 20
60.422
 30
0.0
 11
61.69795
 21
61.43587
 31
0.0
  0
TEXT
  5
3A8
330
1E
100
AcDbEntity
  8
0
  6
CONTINUOUS
 62
     7
100
AcDbText
 10
52.57556
 20
79.29791999999998
 30
0.0
 40
3.2
  1
４
  7
BIGFONT
100
AcDbText
  0
LINE
  5
3A9
330
1E
100
AcDbEntity
  8
0
  6
CONTINUOUS
 62
     7
100
AcDbLine
 10
50.93108
 20
78.4718
 30
0.0
 11
66.93108000000001
 21
78.4718
 31
0.0
  0
CIRCLE
  5
3AA
330
1E
100
AcDbEntity
  8
0
  6
CONTINUOUS
 62
     7
100
AcDbCircle
 10
54.1346
 20
80.96975999999996
 30
0.0
 40
2.5
  0
CIRCLE
  5
3AB
330
1E
100
AcDbEntity
  8
0
  6
CONTINUOUS
 62
     7
100
AcDbCircle
 10
25.27964
 20
82.08327999999999
 30
0.0
 40
2.5
  0
TEXT
  5
3AC
330
1E
100
AcDbEntity
  8
0
  6
CONTINUOUS
 62
     7
100
AcDbText
 10
27.02872
 20
80.46504
 30
0.0
 40
3.2
  1
３
 50
90.0
  7
BIGFONT
100
AcDbText
  0
TEXT
  5
3AD
330
1E
100
AcDbEntity
  8
0
  6
CONTINUOUS
 62
     7
100
AcDbText
 10
26.93948
 20
85.71915999999999
 30
0.0
 40
3.2
  1
D10
 50
90.0
  7
BIGFONT
100
AcDbText
  0
LINE
  5
3AE
330
1E
100
AcDbEntity
  8
0
  6
CONTINUOUS
 62
     7
100
AcDbLine
 10
27.78
 20
78.77880000000001
 30
0.0
 11
27.78
 21
94.7788
 31
0.0
  0
CIRCLE
  5
3AF
330
1E
100
AcDbEntity
  8
0
  6
CONTINUOUS
 62
     7
100
AcDbCircle
 10
58.79652
 20
51.4986
 30
0.0
 40
2.5
  0
TEXT
  5
3B0
330
1E
100
AcDbEntity
  8
0
  6
CONTINUOUS
 62
     7
100
AcDbText
 10
57.17828
 20
49.74952
 30
0.0
 40
3.2
  1
３
  7
BIGFONT
100
AcDbText
  0
TEXT
  5
3B1
330
1E
100
AcDbEntity
  8
0
  6
CONTINUOUS
 62
     7
100
AcDbText
 10
62.4324
 20
49.83876
 30
0.0
 40
3.2
  1
D10
  7
BIGFONT
100
AcDbText
  0
LINE
  5
3B2
330
1E
100
AcDbEntity
  8
0
  6
CONTINUOUS
 62
     7
100
AcDbLine
 10
55.49204
 20
48.99824
 30
0.0
 11
71.49204000000001
 21
48.99824
 31
0.0
  0
CIRCLE
  5
3B3
330
1E
100
AcDbEntity
  8
0
  6
CONTINUOUS
 62
     7
100
AcDbCircle
 10
-155.0193999999999
 20
-38.95315999999999
 30
0.0
 40
2.5
  0
TEXT
  5
3B4
330
1E
100
AcDbEntity
  8
0
  6
CONTINUOUS
 62
     7
100
AcDbText
 10
-153.2659999999999
 20
-40.59112
 30
0.0
 40
3.2
  1
４
 50
90.0
  7
BIGFONT
100
AcDbText
  0
TEXT
  5
3B5
330
1E
100
AcDbEntity
  8
0
  6
CONTINUOUS
 62
     7
100
AcDbText
 10
-153.3603999999999
 20
-35.31524
 30
0.0
 40
3.2
  1
D10
 50
90.0
  7
BIGFONT
100
AcDbText
  0
LINE
  5
3B6
330
1E
100
AcDbEntity
  8
0
  6
CONTINUOUS
 62
     7
100
AcDbLine
 10
-152.51988
 20
-42.65559999999999
 30
0.0
 11
-152.51988
 21
-26.6556
 31
0.0
  0
CIRCLE
  5
3B7
330
1E
100
AcDbEntity
  8
0
  6
CONTINUOUS
 62
     7
100
AcDbCircle
 10
-155.02024
 20
-65.75991999999999
 30
0.0
 40
2.5
  0
TEXT
  5
3B8
330
1E
100
AcDbEntity
  8
0
  6
CONTINUOUS
 62
     7
100
AcDbText
 10
-153.27116
 20
-67.37815999999999
 30
0.0
 40
3.2
  1
３
 50
90.0
  7
BIGFONT
100
AcDbText
  0
TEXT
  5
3B9
330
1E
100
AcDbEntity
  8
0
  6
CONTINUOUS
 62
     7
100
AcDbText
 10
-153.3603999999999
 20
-62.12404
 30
0.0
 40
3.2
  1
D10
 50
90.0
  7
BIGFONT
100
AcDbText
  0
LINE
  5
3BA
330
1E
100
AcDbEntity
  8
0
  6
CONTINUOUS
 62
     7
100
AcDbLine
 10
-152.51988
 20
-68.6644
 30
0.0
 11
-152.51988
 21
-52.6644
 31
0.0
  0
CIRCLE
  5
3BB
330
1E
100
AcDbEntity
  8
0
  6
CONTINUOUS
 62
     7
100
AcDbCircle
 10
-222.93432
 20
-97.16244000000001
 30
0.0
 40
2.5
  0
TEXT
  5
3BC
330
1E
100
AcDbEntity
  8
0
  6
CONTINUOUS
 62
     7
100
AcDbText
 10
-224.5722799999999
 20
-98.87584
 30
0.0
 40
3.2
  1
４
  7
BIGFONT
100
AcDbText
  0
TEXT
  5
3BD
330
1E
100
AcDbEntity
  8
0
  6
CONTINUOUS
 62
     7
100
AcDbText
 10
-219.2963999999999
 20
-98.82144
 30
0.0
 40
3.2
  1
D10
  7
BIGFONT
100
AcDbText
  0
LINE
  5
3BE
330
1E
100
AcDbEntity
  8
0
  6
CONTINUOUS
 62
     7
100
AcDbLine
 10
-225.83676
 20
-99.66196
 30
0.0
 11
-209.8367599999999
 21
-99.66196
 31
0.0
  0
CIRCLE
  5
3BF
330
1E
100
AcDbEntity
  8
0
  6
CONTINUOUS
 62
     7
100
AcDbCircle
 10
-196.2006399999999
 20
-97.18032
 30
0.0
 40
2.5
  0
TEXT
  5
3C0
330
1E
100
AcDbEntity
  8
0
  6
CONTINUOUS
 62
     7
100
AcDbText
 10
-197.81888
 20
-98.92940000000001
 30
0.0
 40
3.2
  1
３
  7
BIGFONT
100
AcDbText
  0
TEXT
  5
3C1
330
1E
100
AcDbEntity
  8
0
  6
CONTINUOUS
 62
     7
100
AcDbText
 10
-192.5647599999999
 20
-98.84016
 30
0.0
 40
3.2
  1
D10
  7
BIGFONT
100
AcDbText
  0
LINE
  5
3C2
330
1E
100
AcDbEntity
  8
0
  6
CONTINUOUS
 62
     7
100
AcDbLine
 10
-199.9851199999999
 20
-99.68068000000002
 30
0.0
 11
-183.98512
 21
-99.68068000000002
 31
0.0
  0
LINE
  5
3C3
330
1E
100
AcDbEntity
  8
0
  6
CONTINUOUS
 62
     7
100
AcDbLine
 10
-35.45576
 20
-92.21568000000001
 30
0.0
 11
-44.64815999999999
 21
-83.02328000000001
 31
0.0
  0
LINE
  5
3C4
330
1E
100
AcDbEntity
  8
0
  6
CONTINUOUS
 62
     7
100
AcDbLine
 10
-43.5721
 20
-83.64416
 30
0.0
 11
-44.648
 21
-83.023
 31
0.0
  0
LINE
  5
3C5
330
1E
100
AcDbEntity
  8
0
  6
CONTINUOUS
 62
     7
100
AcDbLine
 10
-44.648
 20
-83.023
 30
0.0
 11
-44.02682999999998
 21
-84.09888999999997
 31
0.0
  0
TEXT
  5
3C6
330
1E
100
AcDbEntity
  8
0
  6
CONTINUOUS
 62
     7
100
AcDbText
 10
-34.62127999999999
 20
-90.51304
 30
0.0
 40
3.2
  1
７
 50
45.0
  7
BIGFONT
100
AcDbText
  0
TEXT
  5
3C7
330
1E
100
AcDbEntity
  8
0
  6
CONTINUOUS
 62
     7
100
AcDbText
 10
-106.17096
 20
-58.38651999999999
 30
0.0
 40
3.2
  1
６
 50
90.0
  7
BIGFONT
100
AcDbText
  0
CIRCLE
  5
3C8
330
1E
100
AcDbEntity
  8
0
  6
CONTINUOUS
 62
     7
100
AcDbCircle
 10
-107.91724
 20
-56.71488
 30
0.0
 40
2.5
  0
TEXT
  5
3C9
330
1E
100
AcDbEntity
  8
0
  6
CONTINUOUS
 62
     7
100
AcDbText
 10
-106.2618399999999
 20
-53.34291999999999
 30
0.0
 40
3.2
  1
D10
 50
90.0
  7
BIGFONT
100
AcDbText
  0
LINE
  5
3CA
330
1E
100
AcDbEntity
  8
0
  6
CONTINUOUS
 62
     7
100
AcDbLine
 10
-105.4213199999999
 20
-60.28328000000001
 30
0.0
 11
-105.4213199999999
 21
-44.28327999999999
 31
0.0
  0
CIRCLE
  5
3CB
330
1E
100
AcDbEntity
  8
0
  6
CONTINUOUS
 62
     7
100
AcDbCircle
 10
-34.60179999999999
 20
-87.87648
 30
0.0
 40
2.5
  0
LINE
  5
3CC
330
1E
100
AcDbEntity
  8
0
  6
CONTINUOUS
 62
     7
100
AcDbLine
 10
-35.43064
 20
-92.24084000000001
 30
0.0
 11
-24.11696
 21
-80.92712
 31
0.0
  0
TEXT
  5
3CD
330
1E
100
AcDbEntity
  8
0
  6
CONTINUOUS
 62
     7
100
AcDbText
 10
-30.95448
 20
-86.40159999999999
 30
0.0
 40
3.2
  1
D10
 50
45.0
  7
BIGFONT
100
AcDbText
  0
TEXT
  5
3CE
330
1E
100
AcDbEntity
  8
0
  6
CONTINUOUS
 62
     7
100
AcDbText
 10
-60.09471999999998
 20
135.1741599999999
 30
0.0
 40
3.2
  1
D13
  7
BIGFONT
100
AcDbText
  0
LINE
  5
3CF
330
1E
100
AcDbEntity
  8
0
  6
CONTINUOUS
 62
     7
100
AcDbLine
 10
-67.05844
 20
134.4155199999997
 30
0.0
 11
-51.05844000000001
 21
134.4155199999997
 31
0.0
  0
CIRCLE
  5
3D0
330
1E
100
AcDbEntity
  8
0
  6
CONTINUOUS
 62
     7
100
AcDbCircle
 10
-64.08184
 20
136.91536
 30
0.0
 40
2.5
  0
TEXT
  5
3D1
330
1E
100
AcDbEntity
  8
0
  6
CONTINUOUS
 62
     7
100
AcDbText
 10
-65.59964
 20
135.1683999999997
 30
0.0
 40
3.2
  1
５
  7
BIGFONT
100
AcDbText
  0
LINE
  5
3D2
330
1E
100
AcDbEntity
  8
0
  6
CONTINUOUS
 62
     1
100
AcDbLine
 10
-94.85844
 20
-88.26196000000001
 30
0.0
 11
-49.88684
 21
-88.26196000000001
 31
0.0
  0
LINE
  5
3D3
330
1E
100
AcDbEntity
  8
0
  6
CONTINUOUS
 62
     1
100
AcDbLine
 10
-39.05844
 20
-77.43356
 30
0.0
 11
-39.05844
 21
-32.46195999999999
 31
0.0
  0
LINE
  5
3D4
330
1E
100
AcDbEntity
  8
0
  6
CONTINUOUS
 62
     1
100
AcDbLine
 10
-87.05844
 20
58.84123999999999
 30
0.0
 11
-87.05844
 21
125.0412399999997
 31
0.0
  0
LINE
  5
3D5
330
1E
100
AcDbEntity
  8
0
  6
CONTINUOUS
 62
     1
100
AcDbLine
 10
-79.05844
 20
58.84123999999999
 30
0.0
 11
-79.05844
 21
125.0412399999997
 31
0.0
  0
LINE
  5
3D6
330
1E
100
AcDbEntity
  8
0
  6
CONTINUOUS
 62
     1
100
AcDbLine
 10
-71.05844000000002
 20
58.84123999999999
 30
0.0
 11
-71.05844000000002
 21
125.0412399999997
 31
0.0
  0
LINE
  5
3D7
330
1E
100
AcDbEntity
  8
0
  6
CONTINUOUS
 62
     1
100
AcDbLine
 10
-63.05844
 20
58.84123999999999
 30
0.0
 11
-63.05844
 21
125.0412399999997
 31
0.0
  0
LINE
  5
3D8
330
1E
100
AcDbEntity
  8
0
  6
CONTINUOUS
 62
     1
100
AcDbLine
 10
-55.05844
 20
58.84123999999999
 30
0.0
 11
-55.05844
 21
125.0412399999997
 31
0.0
  0
LINE
  5
3D9
330
1E
100
AcDbEntity
  8
0
  6
CONTINUOUS
 62
     1
100
AcDbLine
 10
-47.05844
 20
58.84123999999999
 30
0.0
 11
-47.05844
 21
125.0412399999997
 31
0.0
  0
LINE
  5
3DA
330
1E
100
AcDbEntity
  8
0
  6
CONTINUOUS
 62
     1
100
AcDbLine
 10
-211.9199999999999
 20
58.86476
 30
0.0
 11
-211.9199999999999
 21
99.06496
 31
0.0
  0
LINE
  5
3DB
330
1E
100
AcDbEntity
  8
0
  6
CONTINUOUS
 62
     1
100
AcDbLine
 10
-203.92
 20
58.86476
 30
0.0
 11
-203.92
 21
99.06496
 31
0.0
  0
LINE
  5
3DC
330
1E
100
AcDbEntity
  8
0
  6
CONTINUOUS
 62
     1
100
AcDbLine
 10
-195.9199999999999
 20
58.86476
 30
0.0
 11
-195.9199999999999
 21
99.06496
 31
0.0
  0
LINE
  5
3DD
330
1E
100
AcDbEntity
  8
0
  6
CONTINUOUS
 62
     1
100
AcDbLine
 10
-187.9199999999999
 20
58.86476
 30
0.0
 11
-187.9199999999999
 21
99.06496
 31
0.0
  0
LINE
  5
3DE
330
1E
100
AcDbEntity
  8
0
  6
CONTINUOUS
 62
     1
100
AcDbLine
 10
-179.9199999999999
 20
58.86476
 30
0.0
 11
-179.9199999999999
 21
99.06496
 31
0.0
  0
LINE
  5
3DF
330
1E
100
AcDbEntity
  8
0
  6
CONTINUOUS
 62
     1
100
AcDbLine
 10
-171.9199999999999
 20
58.86476
 30
0.0
 11
-171.9199999999999
 21
99.06496
 31
0.0
  0
LINE
  5
3E0
330
1E
100
AcDbEntity
  8
0
  6
CONTINUOUS
 62
     7
100
AcDbLine
 10
-221.9199999999999
 20
43.04124
 30
0.0
 11
-219.9094
 21
43.04124
 31
0.0
  0
LINE
  5
3E1
330
1E
100
AcDbEntity
  8
0
  6
CONTINUOUS
 62
     7
100
AcDbLine
 10
-219.9094
 20
56.06476
 30
0.0
 11
-219.9094
 21
42.24124
 31
0.0
  0
LINE
  5
3E2
330
1E
100
AcDbEntity
  8
0
  6
CONTINUOUS
 62
     7
100
AcDbLine
 10
-221.9199999999999
 20
45.88119999999999
 30
0.0
 11
-221.9199999999999
 21
42.24124
 31
0.0
  0
LINE
  5
3E3
330
1E
100
AcDbEntity
  8
0
  6
CONTINUOUS
 62
     7
100
AcDbLine
 10
-217.5094
 20
43.04124
 30
0.0
 11
-219.9094
 21
43.04124
 31
0.0
  0
LINE
  5
3E4
330
1E
100
AcDbEntity
  8
0
  6
CONTINUOUS
 62
     7
100
AcDbLine
 10
-218.7089999999999
 20
43.36253
 30
0.0
 11
-219.9089999999999
 21
43.041
 31
0.0
  0
LINE
  5
3E5
330
1E
100
AcDbEntity
  8
0
  6
CONTINUOUS
 62
     7
100
AcDbLine
 10
-219.9089999999999
 20
43.041
 30
0.0
 11
-218.7089999999999
 21
42.71945999999998
 31
0.0
  0
LINE
  5
3E6
330
1E
100
AcDbEntity
  8
0
  6
CONTINUOUS
 62
     7
100
AcDbLine
 10
-221.9199999999999
 20
43.04124
 30
0.0
 11
-224.3199999999999
 21
43.04124
 31
0.0
  0
LINE
  5
3E7
330
1E
100
AcDbEntity
  8
0
  6
CONTINUOUS
 62
     7
100
AcDbLine
 10
-223.12
 20
42.71945999999998
 30
0.0
 11
-221.9199999999999
 21
43.041
 31
0.0
  0
LINE
  5
3E8
330
1E
100
AcDbEntity
  8
0
  6
CONTINUOUS
 62
     7
100
AcDbLine
 10
-221.9199999999999
 20
43.041
 30
0.0
 11
-223.12
 21
43.36253
 31
0.0
  0
LINE
  5
3E9
330
1E
100
AcDbEntity
  8
0
  6
CONTINUOUS
 62
     7
100
AcDbLine
 10
-224.3199999999999
 20
43.04124
 30
0.0
 11
-228.6699999999999
 21
43.04124
 31
0.0
  0
TEXT
  5
3EA
330
1E
100
AcDbEntity
  8
0
  6
CONTINUOUS
 62
     7
100
AcDbText
 10
-228.6699999999999
 20
43.44123999999999
 30
0.0
 40
3.2
  1
50
 41
0.78125
  7
BIGFONT
100
AcDbText
  0
LINE
  5
3EB
330
1E
100
AcDbEntity
  8
0
  6
CONTINUOUS
 62
     7
100
AcDbLine
 10
-219.9094
 20
43.04124
 30
0.0
 11
-171.9000399999999
 21
43.04124
 31
0.0
  0
LINE
  5
3EC
330
1E
100
AcDbEntity
  8
0
  6
CONTINUOUS
 62
     7
100
AcDbLine
 10
-171.9000399999999
 20
56.06476
 30
0.0
 11
-171.9000399999999
 21
42.24124
 31
0.0
  0
LINE
  5
3ED
330
1E
100
AcDbEntity
  8
0
  6
CONTINUOUS
 62
     7
100
AcDbLine
 10
-173.0999999999999
 20
42.71945999999998
 30
0.0
 11
-171.9
 21
43.041
 31
0.0
  0
LINE
  5
3EE
330
1E
100
AcDbEntity
  8
0
  6
CONTINUOUS
 62
     7
100
AcDbLine
 10
-171.9
 20
43.041
 30
0.0
 11
-173.0999999999999
 21
43.36253
 31
0.0
  0
LINE
  5
3EF
330
1E
100
AcDbEntity
  8
0
  6
CONTINUOUS
 62
     7
100
AcDbLine
 10
-218.7089999999999
 20
43.36253
 30
0.0
 11
-219.9089999999999
 21
43.041
 31
0.0
  0
LINE
  5
3F0
330
1E
100
AcDbEntity
  8
0
  6
CONTINUOUS
 62
     7
100
AcDbLine
 10
-219.9089999999999
 20
43.041
 30
0.0
 11
-218.7089999999999
 21
42.71945999999998
 31
0.0
  0
TEXT
  5
3F1
330
1E
100
AcDbEntity
  8
0
  6
CONTINUOUS
 62
     7
100
AcDbText
 10
-209.5191999999999
 20
43.41115999999998
 30
0.0
 40
3.2
  1
6×200=1200
  7
BIGFONT
100
AcDbText
  0
LINE
  5
3F2
330
1E
100
AcDbEntity
  8
0
  6
CONTINUOUS
 62
     7
100
AcDbLine
 10
-195.5199999999999
 20
67.64391999999999
 30
0.0
 11
-203.52
 21
67.64391999999999
 31
0.0
  0
LINE
  5
3F3
330
1E
100
AcDbEntity
  8
0
  6
CONTINUOUS
 62
     7
100
AcDbLine
 10
-202.32
 20
67.96453000000001
 30
0.0
 11
-203.52
 21
67.643
 31
0.0
  0
LINE
  5
3F4
330
1E
100
AcDbEntity
  8
0
  6
CONTINUOUS
 62
     7
100
AcDbLine
 10
-203.52
 20
67.643
 30
0.0
 11
-202.32
 21
67.32146
 31
0.0
  0
LINE
  5
3F5
330
1E
100
AcDbEntity
  8
0
  6
CONTINUOUS
 62
     7
100
AcDbLine
 10
-187.52
 20
67.64391999999999
 30
0.0
 11
-195.5199999999999
 21
67.64391999999999
 31
0.0
  0
LINE
  5
3F6
330
1E
100
AcDbEntity
  8
0
  6
CONTINUOUS
 62
     7
100
AcDbLine
 10
-194.32
 20
67.96453000000001
 30
0.0
 11
-195.5199999999999
 21
67.643
 31
0.0
  0
LINE
  5
3F7
330
1E
100
AcDbEntity
  8
0
  6
CONTINUOUS
 62
     7
100
AcDbLine
 10
-195.5199999999999
 20
67.643
 30
0.0
 11
-194.32
 21
67.32146
 31
0.0
  0
LINE
  5
3F8
330
1E
100
AcDbEntity
  8
0
  6
CONTINUOUS
 62
     7
100
AcDbLine
 10
-179.52
 20
67.64391999999999
 30
0.0
 11
-187.52
 21
67.64391999999999
 31
0.0
  0
LINE
  5
3F9
330
1E
100
AcDbEntity
  8
0
  6
CONTINUOUS
 62
     7
100
AcDbLine
 10
-186.3199999999999
 20
67.96453000000001
 30
0.0
 11
-187.52
 21
67.643
 31
0.0
  0
LINE
  5
3FA
330
1E
100
AcDbEntity
  8
0
  6
CONTINUOUS
 62
     7
100
AcDbLine
 10
-187.52
 20
67.643
 30
0.0
 11
-186.3199999999999
 21
67.32146
 31
0.0
  0
LINE
  5
3FB
330
1E
100
AcDbEntity
  8
0
  6
CONTINUOUS
 62
     7
100
AcDbLine
 10
-152.51988
 20
67.64391999999999
 30
0.0
 11
-179.5292399999999
 21
67.64391999999999
 31
0.0
  0
LINE
  5
3FC
330
1E
100
AcDbEntity
  8
0
  6
CONTINUOUS
 62
     7
100
AcDbLine
 10
-178.329
 20
67.96453000000001
 30
0.0
 11
-179.529
 21
67.643
 31
0.0
  0
LINE
  5
3FD
330
1E
100
AcDbEntity
  8
0
  6
CONTINUOUS
 62
     7
100
AcDbLine
 10
-179.529
 20
67.643
 30
0.0
 11
-178.329
 21
67.32146
 31
0.0
  0
LINE
  5
3FE
330
1E
100
AcDbEntity
  8
0
  6
CONTINUOUS
 62
     1
100
AcDbLine
 10
-183.74076
 20
73.26475999999998
 30
0.0
 11
-171.54396
 21
73.26475999999998
 31
0.0
  0
LINE
  5
3FF
330
1E
100
AcDbEntity
  8
0
  6
CONTINUOUS
 62
     1
100
AcDbLine
 10
-219.9199999999999
 20
73.26475999999998
 30
0.0
 11
-183.74076
 21
73.26475999999998
 31
0.0
  0
LINE
  5
400
330
1E
100
AcDbEntity
  8
0
  6
CONTINUOUS
 62
     1
100
AcDbLine
 10
-171.54396
 20
73.26475999999998
 30
0.0
 11
-163.9128
 21
73.26475999999998
 31
0.0
  0
LINE
  5
401
330
1E
100
AcDbEntity
  8
0
  6
CONTINUOUS
 62
     1
100
AcDbLine
 10
-183.74076
 20
85.26476
 30
0.0
 11
-171.54396
 21
85.26476
 31
0.0
  0
LINE
  5
402
330
1E
100
AcDbEntity
  8
0
  6
CONTINUOUS
 62
     1
100
AcDbLine
 10
-219.9199999999999
 20
85.26476
 30
0.0
 11
-183.74076
 21
85.26476
 31
0.0
  0
LINE
  5
403
330
1E
100
AcDbEntity
  8
0
  6
CONTINUOUS
 62
     1
100
AcDbLine
 10
-171.54396
 20
85.26476
 30
0.0
 11
-163.9128
 21
85.26476
 31
0.0
  0
LINE
  5
404
330
1E
100
AcDbEntity
  8
0
  6
CONTINUOUS
 62
     1
100
AcDbLine
 10
-183.74076
 20
97.26475999999999
 30
0.0
 11
-171.54396
 21
97.26475999999999
 31
0.0
  0
LINE
  5
405
330
1E
100
AcDbEntity
  8
0
  6
CONTINUOUS
 62
     1
100
AcDbLine
 10
-219.9199999999999
 20
97.26475999999999
 30
0.0
 11
-183.74076
 21
97.26475999999999
 31
0.0
  0
LINE
  5
406
330
1E
100
AcDbEntity
  8
0
  6
CONTINUOUS
 62
     1
100
AcDbLine
 10
-171.54396
 20
97.26475999999999
 30
0.0
 11
-163.9128
 21
97.26475999999999
 31
0.0
  0
LINE
  5
407
330
1E
100
AcDbEntity
  8
0
  6
CONTINUOUS
 62
     7
100
AcDbLine
 10
-229.32
 20
57.02352
 30
0.0
 11
-229.32
 21
61.309
 31
0.0
  0
LINE
  5
408
330
1E
100
AcDbEntity
  8
0
  6
CONTINUOUS
 62
     7
100
AcDbLine
 10
-222.92
 20
61.309
 30
0.0
 11
-230.12
 21
61.309
 31
0.0
  0
LINE
  5
409
330
1E
100
AcDbEntity
  8
0
  6
CONTINUOUS
 62
     7
100
AcDbLine
 10
-227.46412
 20
57.02352
 30
0.0
 11
-230.12
 21
57.02352
 31
0.0
  0
LINE
  5
40A
330
1E
100
AcDbEntity
  8
0
  6
CONTINUOUS
 62
     7
100
AcDbLine
 10
-228.99846
 20
60.10899999999999
 30
0.0
 11
-229.32
 21
61.309
 31
0.0
  0
LINE
  5
40B
330
1E
100
AcDbEntity
  8
0
  6
CONTINUOUS
 62
     7
100
AcDbLine
 10
-229.32
 20
61.309
 30
0.0
 11
-229.64153
 21
60.10899999999999
 31
0.0
  0
LINE
  5
40C
330
1E
100
AcDbEntity
  8
0
  6
CONTINUOUS
 62
     7
100
AcDbLine
 10
-229.64153
 20
58.223
 30
0.0
 11
-229.32
 21
57.02300000000001
 31
0.0
  0
LINE
  5
40D
330
1E
100
AcDbEntity
  8
0
  6
CONTINUOUS
 62
     7
100
AcDbLine
 10
-229.32
 20
57.02300000000001
 30
0.0
 11
-228.99846
 21
58.223
 31
0.0
  0
LINE
  5
40E
330
1E
100
AcDbEntity
  8
0
  6
CONTINUOUS
 62
     7
100
AcDbLine
 10
-229.32
 20
61.309
 30
0.0
 11
-229.32
 21
97.2822
 31
0.0
  0
LINE
  5
40F
330
1E
100
AcDbEntity
  8
0
  6
CONTINUOUS
 62
     7
100
AcDbLine
 10
-222.8
 20
97.2822
 30
0.0
 11
-230.12
 21
97.2822
 31
0.0
  0
LINE
  5
410
330
1E
100
AcDbEntity
  8
0
  6
CONTINUOUS
 62
     7
100
AcDbLine
 10
-228.99846
 20
96.082
 30
0.0
 11
-229.32
 21
97.28200000000001
 31
0.0
  0
LINE
  5
411
330
1E
100
AcDbEntity
  8
0
  6
CONTINUOUS
 62
     7
100
AcDbLine
 10
-229.32
 20
97.28200000000001
 30
0.0
 11
-229.64153
 21
96.082
 31
0.0
  0
LINE
  5
412
330
1E
100
AcDbEntity
  8
0
  6
CONTINUOUS
 62
     7
100
AcDbLine
 10
-229.64153
 20
62.50899999999999
 30
0.0
 11
-229.32
 21
61.309
 31
0.0
  0
LINE
  5
413
330
1E
100
AcDbEntity
  8
0
  6
CONTINUOUS
 62
     7
100
AcDbLine
 10
-229.32
 20
61.309
 30
0.0
 11
-228.99846
 21
62.50899999999999
 31
0.0
  0
TEXT
  5
414
330
1E
100
AcDbEntity
  8
0
  6
CONTINUOUS
 62
     7
100
AcDbText
 10
-229.7316799999999
 20
67.64288
 30
0.0
 40
3.2
  1
3×300=900
 50
90.0
  7
BIGFONT
100
AcDbText
  0
LINE
  5
415
330
1E
100
AcDbEntity
  8
0
  6
CONTINUOUS
 62
     7
100
AcDbLine
 10
-211.9199999999999
 20
91.85228
 30
0.0
 11
-219.9199999999999
 21
91.85228
 31
0.0
  0
LINE
  5
416
330
1E
100
AcDbEntity
  8
0
  6
CONTINUOUS
 62
     7
100
AcDbLine
 10
-218.72
 20
92.17353000000001
 30
0.0
 11
-219.9199999999999
 21
91.852
 31
0.0
  0
LINE
  5
417
330
1E
100
AcDbEntity
  8
0
  6
CONTINUOUS
 62
     7
100
AcDbLine
 10
-219.9199999999999
 20
91.852
 30
0.0
 11
-218.72
 21
91.53046000000001
 31
0.0
  0
LINE
  5
418
330
1E
100
AcDbEntity
  8
0
  6
CONTINUOUS
 62
     7
100
AcDbLine
 10
-203.92
 20
91.85228
 30
0.0
 11
-211.9199999999999
 21
91.85228
 31
0.0
  0
LINE
  5
419
330
1E
100
AcDbEntity
  8
0
  6
CONTINUOUS
 62
     7
100
AcDbLine
 10
-210.72
 20
92.17353000000001
 30
0.0
 11
-211.9199999999999
 21
91.852
 31
0.0
  0
LINE
  5
41A
330
1E
100
AcDbEntity
  8
0
  6
CONTINUOUS
 62
     7
100
AcDbLine
 10
-211.9199999999999
 20
91.852
 30
0.0
 11
-210.72
 21
91.53046000000001
 31
0.0
  0
LINE
  5
41B
330
1E
100
AcDbEntity
  8
0
  6
CONTINUOUS
 62
     7
100
AcDbLine
 10
-195.9199999999999
 20
91.85228
 30
0.0
 11
-203.92
 21
91.85228
 31
0.0
  0
LINE
  5
41C
330
1E
100
AcDbEntity
  8
0
  6
CONTINUOUS
 62
     7
100
AcDbLine
 10
-202.72
 20
92.17353000000001
 30
0.0
 11
-203.92
 21
91.852
 31
0.0
  0
LINE
  5
41D
330
1E
100
AcDbEntity
  8
0
  6
CONTINUOUS
 62
     7
100
AcDbLine
 10
-203.92
 20
91.852
 30
0.0
 11
-202.72
 21
91.53046000000001
 31
0.0
  0
LINE
  5
41E
330
1E
100
AcDbEntity
  8
0
  6
CONTINUOUS
 62
     7
100
AcDbLine
 10
-187.9199999999999
 20
91.85228
 30
0.0
 11
-195.9199999999999
 21
91.85228
 31
0.0
  0
LINE
  5
41F
330
1E
100
AcDbEntity
  8
0
  6
CONTINUOUS
 62
     7
100
AcDbLine
 10
-194.72
 20
92.17353000000001
 30
0.0
 11
-195.9199999999999
 21
91.852
 31
0.0
  0
LINE
  5
420
330
1E
100
AcDbEntity
  8
0
  6
CONTINUOUS
 62
     7
100
AcDbLine
 10
-195.9199999999999
 20
91.852
 30
0.0
 11
-194.72
 21
91.53046000000001
 31
0.0
  0
LINE
  5
421
330
1E
100
AcDbEntity
  8
0
  6
CONTINUOUS
 62
     7
100
AcDbLine
 10
-179.9199999999999
 20
91.85228
 30
0.0
 11
-187.9199999999999
 21
91.85228
 31
0.0
  0
LINE
  5
422
330
1E
100
AcDbEntity
  8
0
  6
CONTINUOUS
 62
     7
100
AcDbLine
 10
-186.72
 20
92.17353000000001
 30
0.0
 11
-187.9199999999999
 21
91.852
 31
0.0
  0
LINE
  5
423
330
1E
100
AcDbEntity
  8
0
  6
CONTINUOUS
 62
     7
100
AcDbLine
 10
-187.9199999999999
 20
91.852
 30
0.0
 11
-186.72
 21
91.53046000000001
 31
0.0
  0
LINE
  5
424
330
1E
100
AcDbEntity
  8
0
  6
CONTINUOUS
 62
     7
100
AcDbLine
 10
-171.9199999999999
 20
91.85228
 30
0.0
 11
-179.9199999999999
 21
91.85228
 31
0.0
  0
LINE
  5
425
330
1E
100
AcDbEntity
  8
0
  6
CONTINUOUS
 62
     7
100
AcDbLine
 10
-179.9199999999999
 20
91.85228
 30
0.0
 11
-182.3199999999999
 21
91.85228
 31
0.0
  0
LINE
  5
426
330
1E
100
AcDbEntity
  8
0
  6
CONTINUOUS
 62
     7
100
AcDbLine
 10
-178.72
 20
92.17353000000001
 30
0.0
 11
-179.9199999999999
 21
91.852
 31
0.0
  0
LINE
  5
427
330
1E
100
AcDbEntity
  8
0
  6
CONTINUOUS
 62
     7
100
AcDbLine
 10
-179.9199999999999
 20
91.852
 30
0.0
 11
-178.72
 21
91.53046000000001
 31
0.0
  0
LINE
  5
428
330
1E
100
AcDbEntity
  8
0
  6
CONTINUOUS
 62
     7
100
AcDbLine
 10
-191.5540399999999
 20
85.2828
 30
0.0
 11
-191.5540399999999
 21
73.28279999999998
 31
0.0
  0
LINE
  5
429
330
1E
100
AcDbEntity
  8
0
  6
CONTINUOUS
 62
     7
100
AcDbLine
 10
-191.8755299999999
 20
74.48199999999999
 30
0.0
 11
-191.554
 21
73.28199999999998
 31
0.0
  0
LINE
  5
42A
330
1E
100
AcDbEntity
  8
0
  6
CONTINUOUS
 62
     7
100
AcDbLine
 10
-191.554
 20
73.28199999999998
 30
0.0
 11
-191.2324599999999
 21
74.48199999999999
 31
0.0
  0
LINE
  5
42B
330
1E
100
AcDbEntity
  8
0
  6
CONTINUOUS
 62
     7
100
AcDbLine
 10
-191.5540399999999
 20
73.28279999999998
 30
0.0
 11
-191.5540399999999
 21
61.2828
 31
0.0
  0
LINE
  5
42C
330
1E
100
AcDbEntity
  8
0
  6
CONTINUOUS
 62
     7
100
AcDbLine
 10
-191.8755299999999
 20
62.482
 30
0.0
 11
-191.554
 21
61.28199999999999
 31
0.0
  0
LINE
  5
42D
330
1E
100
AcDbEntity
  8
0
  6
CONTINUOUS
 62
     7
100
AcDbLine
 10
-191.554
 20
61.28199999999999
 30
0.0
 11
-191.2324599999999
 21
62.482
 31
0.0
  0
LINE
  5
42E
330
1E
100
AcDbEntity
  8
0
  6
CONTINUOUS
 62
     7
100
AcDbLine
 10
-97.07624
 20
37.06476
 30
0.0
 11
-37.07612
 21
37.06476
 31
0.0
  0
LINE
  5
42F
330
1E
100
AcDbEntity
  8
0
  6
CONTINUOUS
 62
     7
100
AcDbLine
 10
-37.07612
 20
56.02351999999999
 30
0.0
 11
-37.07612
 21
36.26475999999997
 31
0.0
  0
LINE
  5
430
330
1E
100
AcDbEntity
  8
0
  6
CONTINUOUS
 62
     7
100
AcDbLine
 10
-97.07624
 20
56.02351999999999
 30
0.0
 11
-97.07624
 21
36.26475999999997
 31
0.0
  0
LINE
  5
431
330
1E
100
AcDbEntity
  8
0
  6
CONTINUOUS
 62
     7
100
AcDbLine
 10
-38.27599999999998
 20
36.74245999999997
 30
0.0
 11
-37.076
 21
37.064
 31
0.0
  0
LINE
  5
432
330
1E
100
AcDbEntity
  8
0
  6
CONTINUOUS
 62
     7
100
AcDbLine
 10
-37.076
 20
37.064
 30
0.0
 11
-38.27599999999998
 21
37.38552999999999
 31
0.0
  0
LINE
  5
433
330
1E
100
AcDbEntity
  8
0
  6
CONTINUOUS
 62
     7
100
AcDbLine
 10
-95.876
 20
37.38552999999999
 30
0.0
 11
-97.07599999999999
 21
37.064
 31
0.0
  0
LINE
  5
434
330
1E
100
AcDbEntity
  8
0
  6
CONTINUOUS
 62
     7
100
AcDbLine
 10
-97.07599999999999
 20
37.064
 30
0.0
 11
-95.876
 21
36.74245999999997
 31
0.0
  0
TEXT
  5
435
330
1E
100
AcDbEntity
  8
0
  6
CONTINUOUS
 62
     7
100
AcDbText
 10
-72.07618
 20
37.46475999999999
 30
0.0
 40
3.2
  1
1500
 41
0.78125
  7
BIGFONT
100
AcDbText
  0
LINE
  5
436
330
1E
100
AcDbEntity
  8
0
  6
CONTINUOUS
 62
     7
100
AcDbLine
 10
-97.07624
 20
43.04124
 30
0.0
 11
-95.06564
 21
43.04124
 31
0.0
  0
LINE
  5
437
330
1E
100
AcDbEntity
  8
0
  6
CONTINUOUS
 62
     7
100
AcDbLine
 10
-95.06564
 20
56.06476
 30
0.0
 11
-95.06564
 21
42.24124
 31
0.0
  0
LINE
  5
438
330
1E
100
AcDbEntity
  8
0
  6
CONTINUOUS
 62
     7
100
AcDbLine
 10
-97.07624
 20
45.88119999999999
 30
0.0
 11
-97.07624
 21
42.24124
 31
0.0
  0
LINE
  5
439
330
1E
100
AcDbEntity
  8
0
  6
CONTINUOUS
 62
     7
100
AcDbLine
 10
-92.66564
 20
43.04124
 30
0.0
 11
-95.06564
 21
43.04124
 31
0.0
  0
LINE
  5
43A
330
1E
100
AcDbEntity
  8
0
  6
CONTINUOUS
 62
     7
100
AcDbLine
 10
-93.86499999999999
 20
43.36253
 30
0.0
 11
-95.065
 21
43.041
 31
0.0
  0
LINE
  5
43B
330
1E
100
AcDbEntity
  8
0
  6
CONTINUOUS
 62
     7
100
AcDbLine
 10
-95.065
 20
43.041
 30
0.0
 11
-93.86499999999999
 21
42.71945999999998
 31
0.0
  0
LINE
  5
43C
330
1E
100
AcDbEntity
  8
0
  6
CONTINUOUS
 62
     7
100
AcDbLine
 10
-97.07624
 20
43.04124
 30
0.0
 11
-99.47624000000001
 21
43.04124
 31
0.0
  0
LINE
  5
43D
330
1E
100
AcDbEntity
  8
0
  6
CONTINUOUS
 62
     7
100
AcDbLine
 10
-98.27600000000003
 20
42.71945999999998
 30
0.0
 11
-97.07599999999999
 21
43.041
 31
0.0
  0
LINE
  5
43E
330
1E
100
AcDbEntity
  8
0
  6
CONTINUOUS
 62
     7
100
AcDbLine
 10
-97.07599999999999
 20
43.041
 30
0.0
 11
-98.27600000000003
 21
43.36253
 31
0.0
  0
LINE
  5
43F
330
1E
100
AcDbEntity
  8
0
  6
CONTINUOUS
 62
     7
100
AcDbLine
 10
-99.47624000000001
 20
43.04124
 30
0.0
 11
-104.57624
 21
43.04124
 31
0.0
  0
TEXT
  5
440
330
1E
100
AcDbEntity
  8
0
  6
CONTINUOUS
 62
     7
100
AcDbText
 10
-104.57624
 20
43.44123999999999
 30
0.0
 40
3.2
  1
50
 41
0.78125
  7
BIGFONT
100
AcDbText
  0
LINE
  5
441
330
1E
100
AcDbEntity
  8
0
  6
CONTINUOUS
 62
     7
100
AcDbLine
 10
-95.06564
 20
43.04124
 30
0.0
 11
-47.05627999999999
 21
43.04124
 31
0.0
  0
LINE
  5
442
330
1E
100
AcDbEntity
  8
0
  6
CONTINUOUS
 62
     7
100
AcDbLine
 10
-47.05627999999999
 20
56.06476
 30
0.0
 11
-47.05627999999999
 21
42.24124
 31
0.0
  0
LINE
  5
443
330
1E
100
AcDbEntity
  8
0
  6
CONTINUOUS
 62
     7
100
AcDbLine
 10
-48.256
 20
42.71945999999998
 30
0.0
 11
-47.05599999999999
 21
43.041
 31
0.0
  0
LINE
  5
444
330
1E
100
AcDbEntity
  8
0
  6
CONTINUOUS
 62
     7
100
AcDbLine
 10
-47.05599999999999
 20
43.041
 30
0.0
 11
-48.256
 21
43.36253
 31
0.0
  0
LINE
  5
445
330
1E
100
AcDbEntity
  8
0
  6
CONTINUOUS
 62
     7
100
AcDbLine
 10
-93.86499999999999
 20
43.36253
 30
0.0
 11
-95.065
 21
43.041
 31
0.0
  0
LINE
  5
446
330
1E
100
AcDbEntity
  8
0
  6
CONTINUOUS
 62
     7
100
AcDbLine
 10
-95.065
 20
43.041
 30
0.0
 11
-93.86499999999999
 21
42.71945999999998
 31
0.0
  0
TEXT
  5
447
330
1E
100
AcDbEntity
  8
0
  6
CONTINUOUS
 62
     7
100
AcDbText
 10
-84.67544000000001
 20
43.41115999999998
 30
0.0
 40
3.2
  1
6×200＝1200
  7
BIGFONT
100
AcDbText
  0
LINE
  5
448
330
1E
100
AcDbEntity
  8
0
  6
CONTINUOUS
 62
     7
100
AcDbLine
 10
-55.05844
 20
96.31748000000001
 30
0.0
 11
-63.05844
 21
96.31748000000001
 31
0.0
  0
LINE
  5
449
330
1E
100
AcDbEntity
  8
0
  6
CONTINUOUS
 62
     7
100
AcDbLine
 10
-61.858
 20
96.63853000000001
 30
0.0
 11
-63.058
 21
96.31700000000002
 31
0.0
  0
LINE
  5
44A
330
1E
100
AcDbEntity
  8
0
  6
CONTINUOUS
 62
     7
100
AcDbLine
 10
-63.058
 20
96.31700000000002
 30
0.0
 11
-61.858
 21
95.99546
 31
0.0
  0
LINE
  5
44B
330
1E
100
AcDbEntity
  8
0
  6
CONTINUOUS
 62
     7
100
AcDbLine
 10
-47.05844
 20
96.31748000000001
 30
0.0
 11
-55.05844
 21
96.31748000000001
 31
0.0
  0
LINE
  5
44C
330
1E
100
AcDbEntity
  8
0
  6
CONTINUOUS
 62
     7
100
AcDbLine
 10
-53.85799999999999
 20
96.63853000000001
 30
0.0
 11
-55.058
 21
96.31700000000002
 31
0.0
  0
LINE
  5
44D
330
1E
100
AcDbEntity
  8
0
  6
CONTINUOUS
 62
     7
100
AcDbLine
 10
-55.058
 20
96.31700000000002
 30
0.0
 11
-53.85799999999999
 21
95.99546
 31
0.0
  0
TEXT
  5
44E
330
1E
100
AcDbEntity
  8
0
  6
CONTINUOUS
 62
     7
100
AcDbText
 10
-104.8739199999999
 20
75.83684000000002
 30
0.0
 40
3.2
  1
6×250=1500
 50
90.0
  7
BIGFONT
100
AcDbText
  0
LINE
  5
44F
330
1E
100
AcDbEntity
  8
0
  6
CONTINUOUS
 62
     7
100
AcDbLine
 10
-111.0818
 20
57.0
 30
0.0
 11
-111.0818
 21
127.0412399999997
 31
0.0
  0
LINE
  5
450
330
1E
100
AcDbEntity
  8
0
  6
CONTINUOUS
 62
     7
100
AcDbLine
 10
-98.05384000000001
 20
127.0412399999997
 30
0.0
 11
-111.8818
 21
127.0412399999997
 31
0.0
  0
LINE
  5
451
330
1E
100
AcDbEntity
  8
0
  6
CONTINUOUS
 62
     7
100
AcDbLine
 10
-98.0818
 20
57.0
 30
0.0
 11
-111.8818
 21
57.0
 31
0.0
  0
LINE
  5
452
330
1E
100
AcDbEntity
  8
0
  6
CONTINUOUS
 62
     7
100
AcDbLine
 10
-110.75946
 20
125.841
 30
0.0
 11
-111.081
 21
127.041
 31
0.0
  0
LINE
  5
453
330
1E
100
AcDbEntity
  8
0
  6
CONTINUOUS
 62
     7
100
AcDbLine
 10
-111.081
 20
127.041
 30
0.0
 11
-111.4025299999999
 21
125.841
 31
0.0
  0
LINE
  5
454
330
1E
100
AcDbEntity
  8
0
  6
CONTINUOUS
 62
     7
100
AcDbLine
 10
-111.4025299999999
 20
58.2
 30
0.0
 11
-111.081
 21
57.0
 31
0.0
  0
LINE
  5
455
330
1E
100
AcDbEntity
  8
0
  6
CONTINUOUS
 62
     7
100
AcDbLine
 10
-111.081
 20
57.0
 30
0.0
 11
-110.75946
 21
58.2
 31
0.0
  0
TEXT
  5
456
330
1E
100
AcDbEntity
  8
0
  6
CONTINUOUS
 62
     7
100
AcDbText
 10
-111.4818
 20
87.02061999999996
 30
0.0
 40
3.2
  1
1750
 50
90.0
 41
0.78125
  7
BIGFONT
100
AcDbText
  0
POINT
  5
457
330
1E
100
AcDbEntity
  8
0
  6
CONTINUOUS
 62
     7
100
AcDbPoint
 10
37.17188
 20
97.26475999999999
 30
0.0
  0
TEXT
  5
458
330
1E
100
AcDbEntity
  8
0
  6
CONTINUOUS
 62
     7
100
AcDbText
 10
27.03035999999999
 20
105.29888
 30
0.0
 40
3.2
  1
６
 50
90.0
  7
BIGFONT
100
AcDbText
  0
CIRCLE
  5
459
330
1E
100
AcDbEntity
  8
0
  6
CONTINUOUS
 62
     7
100
AcDbCircle
 10
25.28408
 20
106.97052
 30
0.0
 40
2.5
  0
TEXT
  5
45A
330
1E
100
AcDbEntity
  8
0
  6
CONTINUOUS
 62
     7
100
AcDbText
 10
26.93948
 20
110.34248
 30
0.0
 40
3.2
  1
D10
 50
90.0
  7
BIGFONT
100
AcDbText
  0
LINE
  5
45B
330
1E
100
AcDbEntity
  8
0
  6
CONTINUOUS
 62
     7
100
AcDbLine
 10
27.78
 20
103.0821199999997
 30
0.0
 11
27.78
 21
119.08212
 31
0.0
  0
POINT
  5
45C
330
1E
100
AcDbEntity
  8
0
  6
CONTINUOUS
 62
     1
100
AcDbPoint
 10
37.17188
 20
85.26476
 30
0.0
  0
POINT
  5
45D
330
1E
100
AcDbEntity
  8
0
  6
CONTINUOUS
 62
     1
100
AcDbPoint
 10
37.17188
 20
73.26475999999998
 30
0.0
  0
POINT
  5
45E
330
1E
100
AcDbEntity
  8
0
  6
CONTINUOUS
 62
     1
100
AcDbPoint
 10
37.64084
 20
61.2
 30
0.0
  0
LINE
  5
45F
330
1E
100
AcDbEntity
  8
0
  6
CONTINUOUS
 62
     7
100
AcDbLine
 10
27.78
 20
103.0821199999997
 30
0.0
 11
37.17188
 21
97.26475999999999
 31
0.0
  0
LINE
  5
460
330
1E
100
AcDbEntity
  8
0
  6
CONTINUOUS
 62
     7
100
AcDbLine
 10
35.98152999999999
 20
97.62253000000001
 30
0.0
 11
37.171
 21
97.26399999999999
 31
0.0
  0
LINE
  5
461
330
1E
100
AcDbEntity
  8
0
  6
CONTINUOUS
 62
     7
100
AcDbLine
 10
37.171
 20
97.26399999999999
 30
0.0
 11
36.32014999999999
 21
98.16923
 31
0.0
  0
TEXT
  5
462
330
1E
100
AcDbEntity
  8
0
  6
CONTINUOUS
 62
     7
100
AcDbText
 10
54.33492
 20
95.97744
 30
0.0
 40
3.2
  1
D13
  7
BIGFONT
100
AcDbText
  0
CIRCLE
  5
463
330
1E
100
AcDbEntity
  8
0
  6
CONTINUOUS
 62
     7
100
AcDbCircle
 10
50.33472
 20
97.49304000000002
 30
0.0
 40
2.5
  0
TEXT
  5
464
330
1E
100
AcDbEntity
  8
0
  6
CONTINUOUS
 62
     7
100
AcDbText
 10
48.96195999999999
 20
95.60971999999999
 30
0.0
 40
3.2
  1
１
  7
BIGFONT
100
AcDbText
  0
LINE
  5
465
330
1E
100
AcDbEntity
  8
0
  6
CONTINUOUS
 62
     7
100
AcDbLine
 10
47.34499999999999
 20
115.93776
 30
0.0
 11
38.84
 21
110.23292
 31
0.0
  0
LINE
  5
466
330
1E
100
AcDbEntity
  8
0
  6
CONTINUOUS
 62
     7
100
AcDbLine
 10
39.65745
 20
111.1674899999999
 30
0.0
 11
38.84
 21
110.2319999999999
 31
0.0
  0
LINE
  5
467
330
1E
100
AcDbEntity
  8
0
  6
CONTINUOUS
 62
     7
100
AcDbLine
 10
38.84
 20
110.2319999999999
 30
0.0
 11
40.01567999999998
 21
110.63343
 31
0.0
  0
LINE
  5
468
330
1E
100
AcDbEntity
  8
0
  6
CONTINUOUS
 62
     7
100
AcDbLine
 10
63.06368
 20
95.00123999999999
 30
0.0
 11
38.46
 21
95.00123999999999
 31
0.0
  0
LINE
  5
469
330
1E
100
AcDbEntity
  8
0
  6
CONTINUOUS
 62
     7
100
AcDbLine
 10
39.65999999999999
 20
95.32253
 30
0.0
 11
38.46
 21
95.00100000000001
 31
0.0
  0
LINE
  5
46A
330
1E
100
AcDbEntity
  8
0
  6
CONTINUOUS
 62
     7
100
AcDbLine
 10
38.46
 20
95.00100000000001
 30
0.0
 11
39.65999999999999
 21
94.67946000000001
 31
0.0
  0
TEXT
  5
46B
330
1E
100
AcDbEntity
  8
0
  6
CONTINUOUS
 62
     7
100
AcDbText
 10
54.64100000000001
 20
116.67368
 30
0.0
 40
3.2
  1
D13
  7
BIGFONT
100
AcDbText
  0
LINE
  5
46C
330
1E
100
AcDbEntity
  8
0
  6
CONTINUOUS
 62
     7
100
AcDbLine
 10
47.34499999999999
 20
115.93776
 30
0.0
 11
63.345
 21
115.93776
 31
0.0
  0
CIRCLE
  5
46D
330
1E
100
AcDbEntity
  8
0
  6
CONTINUOUS
 62
     7
100
AcDbCircle
 10
50.6416
 20
118.4376
 30
0.0
 40
2.5
  0
TEXT
  5
46E
330
1E
100
AcDbEntity
  8
0
  6
CONTINUOUS
 62
     7
100
AcDbText
 10
49.1238
 20
116.69064
 30
0.0
 40
3.2
  1
５
  7
BIGFONT
100
AcDbText
  0
POINT
  5
46F
330
1E
100
AcDbEntity
  8
0
  6
CONTINUOUS
 62
     7
100
AcDbPoint
 10
52.98
 20
59.22508
 30
0.0
  0
POINT
  5
470
330
1E
100
AcDbEntity
  8
0
  6
CONTINUOUS
 62
     1
100
AcDbPoint
 10
60.97999999999998
 20
59.22508
 30
0.0
  0
TEXT
  5
471
330
1E
100
AcDbEntity
  8
0
  6
CONTINUOUS
 62
     7
100
AcDbText
 10
-104.13744
 20
-22.46936
 30
0.0
 40
3.2
  1
55
  7
BIGFONT
100
AcDbText
  0
TEXT
  5
472
330
1E
100
AcDbEntity
  8
0
  6
CONTINUOUS
 62
     7
100
AcDbText
 10
-96.85688
 20
-26.47835999999999
 30
0.0
 40
3.2
  1
39
  7
BIGFONT
100
AcDbText
  0
LINE
  5
473
330
1E
100
AcDbEntity
  8
0
  6
CONTINUOUS
 62
     1
100
AcDbLine
 10
-49.88684
 20
-88.26196000000001
 30
0.0
 11
-39.05844
 21
-77.43356
 31
0.0
  0
LINE
  5
474
330
1E
100
AcDbEntity
  8
0
  6
CONTINUOUS
 62
     7
100
AcDbLine
 10
-27.65844
 20
-52.26195999999998
 30
0.0
 11
-39.07159999999999
 21
-52.26195999999998
 31
0.0
  0
LINE
  5
475
330
1E
100
AcDbEntity
  8
0
  6
CONTINUOUS
 62
     7
100
AcDbLine
 10
-37.871
 20
-51.93946
 30
0.0
 11
-39.07099999999999
 21
-52.261
 31
0.0
  0
LINE
  5
476
330
1E
100
AcDbEntity
  8
0
  6
CONTINUOUS
 62
     7
100
AcDbLine
 10
-39.07099999999999
 20
-52.261
 30
0.0
 11
-37.871
 21
-52.58253
 31
0.0
  0
LINE
  5
477
330
1E
100
AcDbEntity
  8
0
  6
CONTINUOUS
 62
     7
100
AcDbLine
 10
-75.05844
 20
-99.67995999999999
 30
0.0
 11
-75.05844
 21
-88.27996
 31
0.0
  0
LINE
  5
478
330
1E
100
AcDbEntity
  8
0
  6
CONTINUOUS
 62
     7
100
AcDbLine
 10
-74.73645999999998
 20
-89.479
 30
0.0
 11
-75.058
 21
-88.27899999999997
 31
0.0
  0
LINE
  5
479
330
1E
100
AcDbEntity
  8
0
  6
CONTINUOUS
 62
     7
100
AcDbLine
 10
-75.058
 20
-88.27899999999997
 30
0.0
 11
-75.37953
 21
-89.479
 31
0.0
  0
LINE
  5
47A
330
1E
100
AcDbEntity
  8
0
  6
CONTINUOUS
 62
     7
100
AcDbLine
 10
-94.86383999999999
 20
-29.24888
 30
0.0
 11
-94.86383999999999
 21
-22.09195999999999
 31
0.0
  0
LINE
  5
47B
330
1E
100
AcDbEntity
  8
0
  6
CONTINUOUS
 62
     7
100
AcDbLine
 10
-97.05844
 20
-22.86195999999999
 30
0.0
 11
-92.01696
 21
-22.86195999999999
 31
0.0
  0
POINT
  5
47C
330
1E
100
AcDbEntity
  8
0
  6
CONTINUOUS
 62
     7
100
AcDbPoint
 10
-94.86383999999999
 20
-22.86195999999999
 30
0.0
  0
LINE
  5
47D
330
1E
100
AcDbEntity
  8
0
  6
CONTINUOUS
 62
     7
100
AcDbLine
 10
-105.4213199999999
 20
-60.28328000000001
 30
0.0
 11
-94.85844
 21
-60.28328000000001
 31
0.0
  0
LINE
  5
47E
330
1E
100
AcDbEntity
  8
0
  6
CONTINUOUS
 62
     7
100
AcDbLine
 10
-96.05800000000002
 20
-60.60453
 30
0.0
 11
-94.85800000000001
 21
-60.283
 31
0.0
  0
LINE
  5
47F
330
1E
100
AcDbEntity
  8
0
  6
CONTINUOUS
 62
     7
100
AcDbLine
 10
-94.85800000000001
 20
-60.283
 30
0.0
 11
-96.05800000000002
 21
-59.96145999999999
 31
0.0
  0
LINE
  5
480
330
1E
100
AcDbEntity
  8
0
  6
CONTINUOUS
 62
     1
100
AcDbLine
 10
-165.68
 20
58.86476
 30
0.0
 11
-165.68
 21
99.06496
 31
0.0
  0
LINE
  5
481
330
1E
100
AcDbEntity
  8
0
  6
CONTINUOUS
 62
     1
100
AcDbLine
 10
-40.81844
 20
58.84123999999999
 30
0.0
 11
-40.81844
 21
125.0412399999997
 31
0.0
  0
LINE
  5
482
330
1E
100
AcDbEntity
  8
0
  6
CONTINUOUS
 62
     1
100
AcDbLine
 10
-95.05844000000001
 20
125.0412399999997
 30
0.0
 11
-40.81844
 21
125.0412399999997
 31
0.0
  0
LINE
  5
483
330
1E
100
AcDbEntity
  8
0
  6
CONTINUOUS
 62
     7
100
AcDbLine
 10
-40.81844
 20
96.31748000000001
 30
0.0
 11
-47.05844
 21
96.31748000000001
 31
0.0
  0
LINE
  5
484
330
1E
100
AcDbEntity
  8
0
  6
CONTINUOUS
 62
     7
100
AcDbLine
 10
-45.85799999999998
 20
96.63853000000001
 30
0.0
 11
-47.05799999999999
 21
96.31700000000002
 31
0.0
  0
LINE
  5
485
330
1E
100
AcDbEntity
  8
0
  6
CONTINUOUS
 62
     7
100
AcDbLine
 10
-47.05799999999999
 20
96.31700000000002
 30
0.0
 11
-45.85799999999998
 21
95.99546
 31
0.0
  0
LINE
  5
486
330
1E
100
AcDbEntity
  8
0
  6
CONTINUOUS
 62
     7
100
AcDbLine
 10
-27.7336
 20
96.31748000000001
 30
0.0
 11
-40.81999999999999
 21
96.31748000000001
 31
0.0
  0
LINE
  5
487
330
1E
100
AcDbEntity
  8
0
  6
CONTINUOUS
 62
     7
100
AcDbLine
 10
-39.61999999999999
 20
96.63853000000001
 30
0.0
 11
-40.81999999999999
 21
96.31700000000002
 31
0.0
  0
LINE
  5
488
330
1E
100
AcDbEntity
  8
0
  6
CONTINUOUS
 62
     7
100
AcDbLine
 10
-40.81999999999999
 20
96.31700000000002
 30
0.0
 11
-39.61999999999999
 21
95.99546
 31
0.0
  0
LINE
  5
489
330
1E
100
AcDbEntity
  8
0
  6
CONTINUOUS
 62
     7
100
AcDbLine
 10
-165.68
 20
91.85228
 30
0.0
 11
-171.9199999999999
 21
91.85228
 31
0.0
  0
LINE
  5
48A
330
1E
100
AcDbEntity
  8
0
  6
CONTINUOUS
 62
     7
100
AcDbLine
 10
-170.72
 20
92.17353000000001
 30
0.0
 11
-171.9199999999999
 21
91.852
 31
0.0
  0
LINE
  5
48B
330
1E
100
AcDbEntity
  8
0
  6
CONTINUOUS
 62
     7
100
AcDbLine
 10
-171.9199999999999
 20
91.852
 30
0.0
 11
-170.72
 21
91.53046000000001
 31
0.0
  0
LINE
  5
48C
330
1E
100
AcDbEntity
  8
0
  6
CONTINUOUS
 62
     7
100
AcDbLine
 10
-152.51988
 20
91.85228
 30
0.0
 11
-165.68
 21
91.85228
 31
0.0
  0
LINE
  5
48D
330
1E
100
AcDbEntity
  8
0
  6
CONTINUOUS
 62
     7
100
AcDbLine
 10
-164.48
 20
92.17353000000001
 30
0.0
 11
-165.68
 21
91.852
 31
0.0
  0
LINE
  5
48E
330
1E
100
AcDbEntity
  8
0
  6
CONTINUOUS
 62
     7
100
AcDbLine
 10
-165.68
 20
91.852
 30
0.0
 11
-164.48
 21
91.53046000000001
 31
0.0
  0
LINE
  5
48F
330
1E
100
AcDbEntity
  8
0
  6
CONTINUOUS
 62
     7
100
AcDbLine
 10
-171.9000399999999
 20
43.04124
 30
0.0
 11
-165.68156
 21
43.04124
 31
0.0
  0
LINE
  5
490
330
1E
100
AcDbEntity
  8
0
  6
CONTINUOUS
 62
     7
100
AcDbLine
 10
-165.68156
 20
56.06476
 30
0.0
 11
-165.68156
 21
42.24124
 31
0.0
  0
LINE
  5
491
330
1E
100
AcDbEntity
  8
0
  6
CONTINUOUS
 62
     7
100
AcDbLine
 10
-171.9000399999999
 20
46.91256
 30
0.0
 11
-171.9000399999999
 21
42.24124
 31
0.0
  0
LINE
  5
492
330
1E
100
AcDbEntity
  8
0
  6
CONTINUOUS
 62
     7
100
AcDbLine
 10
-166.8809999999999
 20
42.71945999999998
 30
0.0
 11
-165.6809999999999
 21
43.041
 31
0.0
  0
LINE
  5
493
330
1E
100
AcDbEntity
  8
0
  6
CONTINUOUS
 62
     7
100
AcDbLine
 10
-165.6809999999999
 20
43.041
 30
0.0
 11
-166.8809999999999
 21
43.36253
 31
0.0
  0
LINE
  5
494
330
1E
100
AcDbEntity
  8
0
  6
CONTINUOUS
 62
     7
100
AcDbLine
 10
-170.6999999999998
 20
43.36253
 30
0.0
 11
-171.9
 21
43.041
 31
0.0
  0
LINE
  5
495
330
1E
100
AcDbEntity
  8
0
  6
CONTINUOUS
 62
     7
100
AcDbLine
 10
-171.9
 20
43.041
 30
0.0
 11
-170.6999999999998
 21
42.71945999999998
 31
0.0
  0
LINE
  5
496
330
1E
100
AcDbEntity
  8
0
  6
CONTINUOUS
 62
     7
100
AcDbLine
 10
-171.9000399999999
 20
43.04124
 30
0.0
 11
-172.9000399999999
 21
43.04124
 31
0.0
  0
TEXT
  5
497
330
1E
100
AcDbEntity
  8
0
  6
CONTINUOUS
 62
     7
100
AcDbText
 10
-172.9000399999999
 20
43.44123999999999
 30
0.0
 40
3.2
  1
158
 41
0.78125
  7
BIGFONT
100
AcDbText
  0
LINE
  5
498
330
1E
100
AcDbEntity
  8
0
  6
CONTINUOUS
 62
     7
100
AcDbLine
 10
-47.05627999999999
 20
43.04124
 30
0.0
 11
-40.80564
 21
43.04124
 31
0.0
  0
LINE
  5
499
330
1E
100
AcDbEntity
  8
0
  6
CONTINUOUS
 62
     7
100
AcDbLine
 10
-40.80564
 20
56.04124
 30
0.0
 11
-40.80564
 21
42.24124
 31
0.0
  0
LINE
  5
49A
330
1E
100
AcDbEntity
  8
0
  6
CONTINUOUS
 62
     7
100
AcDbLine
 10
-47.05627999999999
 20
46.84744
 30
0.0
 11
-47.05627999999999
 21
42.24124
 31
0.0
  0
LINE
  5
49B
330
1E
100
AcDbEntity
  8
0
  6
CONTINUOUS
 62
     7
100
AcDbLine
 10
-42.005
 20
42.71945999999998
 30
0.0
 11
-40.80499999999999
 21
43.041
 31
0.0
  0
LINE
  5
49C
330
1E
100
AcDbEntity
  8
0
  6
CONTINUOUS
 62
     7
100
AcDbLine
 10
-40.80499999999999
 20
43.041
 30
0.0
 11
-42.005
 21
43.36253
 31
0.0
  0
LINE
  5
49D
330
1E
100
AcDbEntity
  8
0
  6
CONTINUOUS
 62
     7
100
AcDbLine
 10
-45.856
 20
43.36253
 30
0.0
 11
-47.05599999999999
 21
43.041
 31
0.0
  0
LINE
  5
49E
330
1E
100
AcDbEntity
  8
0
  6
CONTINUOUS
 62
     7
100
AcDbLine
 10
-47.05599999999999
 20
43.041
 30
0.0
 11
-45.856
 21
42.71945999999998
 31
0.0
  0
LINE
  5
49F
330
1E
100
AcDbEntity
  8
0
  6
CONTINUOUS
 62
     7
100
AcDbLine
 10
-47.05627999999999
 20
43.04124
 30
0.0
 11
-48.30628
 21
43.04124
 31
0.0
  0
TEXT
  5
4A0
330
1E
100
AcDbEntity
  8
0
  6
CONTINUOUS
 62
     7
100
AcDbText
 10
-48.30628
 20
43.44123999999999
 30
0.0
 40
3.2
  1
158
 41
0.78125
  7
BIGFONT
100
AcDbText
  0
LINE
  5
4A1
330
1E
100
AcDbEntity
  8
0
  6
DASHED
 62
     1
100
AcDbLine
 10
-211.52
 20
58.86476
 30
0.0
 11
-211.52
 21
71.12168
 31
0.0
  0
LINE
  5
4A2
330
1E
100
AcDbEntity
  8
0
  6
DASHED
 62
     1
100
AcDbLine
 10
-203.52
 20
58.86476
 30
0.0
 11
-203.52
 21
71.12168
 31
0.0
  0
LINE
  5
4A3
330
1E
100
AcDbEntity
  8
0
  6
DASHED
 62
     1
100
AcDbLine
 10
-195.5199999999999
 20
58.86476
 30
0.0
 11
-195.5199999999999
 21
71.12168
 31
0.0
  0
LINE
  5
4A4
330
1E
100
AcDbEntity
  8
0
  6
DASHED
 62
     1
100
AcDbLine
 10
-187.52
 20
58.86476
 30
0.0
 11
-187.52
 21
71.12168
 31
0.0
  0
LINE
  5
4A5
330
1E
100
AcDbEntity
  8
0
  6
DASHED
 62
     1
100
AcDbLine
 10
-179.52
 20
58.86476
 30
0.0
 11
-179.52
 21
71.12168
 31
0.0
  0
LINE
  5
4A6
330
1E
100
AcDbEntity
  8
0
  6
CONTINUOUS
 62
     1
100
AcDbLine
 10
-171.9387999999999
 20
-60.25056
 30
0.0
 11
-171.9387999999999
 21
-31.98195999999999
 31
0.0
  0
LINE
  5
4A7
330
1E
100
AcDbEntity
  8
0
  6
CONTINUOUS
 62
     1
100
AcDbLine
 10
-179.9387999999999
 20
-60.25056
 30
0.0
 11
-179.9387999999999
 21
-31.98195999999999
 31
0.0
  0
LINE
  5
4A8
330
1E
100
AcDbEntity
  8
0
  6
CONTINUOUS
 62
     1
100
AcDbLine
 10
-187.9387999999999
 20
-60.25056
 30
0.0
 11
-187.9387999999999
 21
-31.98195999999999
 31
0.0
  0
LINE
  5
4A9
330
1E
100
AcDbEntity
  8
0
  6
CONTINUOUS
 62
     1
100
AcDbLine
 10
-220.2188
 20
-80.26196
 30
0.0
 11
-191.9392
 21
-80.26196
 31
0.0
  0
LINE
  5
4AA
330
1E
100
AcDbEntity
  8
0
  6
CONTINUOUS
 62
     1
100
AcDbLine
 10
-220.2188
 20
-72.26196
 30
0.0
 11
-191.9392
 21
-72.26196
 31
0.0
  0
LINE
  5
4AB
330
1E
100
AcDbEntity
  8
0
  6
CONTINUOUS
 62
     1
100
AcDbLine
 10
-220.2188
 20
-64.26196
 30
0.0
 11
-191.9392
 21
-64.26196
 31
0.0
  0
LINE
  5
4AC
330
1E
100
AcDbEntity
  8
0
  6
CONTINUOUS
 62
     1
100
AcDbLine
 10
-203.9387999999999
 20
-88.26196000000001
 30
0.0
 11
-203.9387999999999
 21
-31.98195999999999
 31
0.0
  0
LINE
  5
4AD
330
1E
100
AcDbEntity
  8
0
  6
CONTINUOUS
 62
     1
100
AcDbLine
 10
-211.9387999999999
 20
-88.26196000000001
 30
0.0
 11
-211.9387999999999
 21
-31.98195999999999
 31
0.0
  0
LINE
  5
4AE
330
1E
100
AcDbEntity
  8
0
  6
CONTINUOUS
 62
     1
100
AcDbLine
 10
-220.2188
 20
-40.26195999999997
 30
0.0
 11
-163.9387999999998
 21
-40.26195999999997
 31
0.0
  0
LINE
  5
4AF
330
1E
100
AcDbEntity
  8
0
  6
DASHED
 62
     1
100
AcDbLine
 10
-172.3387999999999
 20
-44.21815999999998
 30
0.0
 11
-172.3387999999999
 21
-31.98195999999999
 31
0.0
  0
LINE
  5
4B0
330
1E
100
AcDbEntity
  8
0
  6
DASHED
 62
     1
100
AcDbLine
 10
-180.3387999999999
 20
-44.21815999999998
 30
0.0
 11
-180.3387999999999
 21
-31.98195999999999
 31
0.0
  0
LINE
  5
4B1
330
1E
100
AcDbEntity
  8
0
  6
DASHED
 62
     1
100
AcDbLine
 10
-188.3388
 20
-44.21815999999998
 30
0.0
 11
-188.3388
 21
-31.98195999999999
 31
0.0
  0
LINE
  5
4B2
330
1E
100
AcDbEntity
  8
0
  6
DASHED
 62
     1
100
AcDbLine
 10
-196.3387999999999
 20
-44.21815999999998
 30
0.0
 11
-196.3387999999999
 21
-31.98195999999999
 31
0.0
  0
LINE
  5
4B3
330
1E
100
AcDbEntity
  8
0
  6
DASHED
 62
     1
100
AcDbLine
 10
-204.3387999999999
 20
-44.21815999999998
 30
0.0
 11
-204.3387999999999
 21
-31.98195999999999
 31
0.0
  0
LINE
  5
4B4
330
1E
100
AcDbEntity
  8
0
  6
CONTINUOUS
 62
     7
100
AcDbLine
 10
-180.3387999999999
 20
-42.65559999999999
 30
0.0
 11
-188.3388
 21
-42.65559999999999
 31
0.0
  0
LINE
  5
4B5
330
1E
100
AcDbEntity
  8
0
  6
CONTINUOUS
 62
     7
100
AcDbLine
 10
-187.138
 20
-42.33346
 30
0.0
 11
-188.338
 21
-42.655
 31
0.0
  0
LINE
  5
4B6
330
1E
100
AcDbEntity
  8
0
  6
CONTINUOUS
 62
     7
100
AcDbLine
 10
-188.338
 20
-42.655
 30
0.0
 11
-187.138
 21
-42.97652999999999
 31
0.0
  0
LINE
  5
4B7
330
1E
100
AcDbEntity
  8
0
  6
CONTINUOUS
 62
     7
100
AcDbLine
 10
-188.3388
 20
-42.65559999999999
 30
0.0
 11
-196.3387999999999
 21
-42.65559999999999
 31
0.0
  0
LINE
  5
4B8
330
1E
100
AcDbEntity
  8
0
  6
CONTINUOUS
 62
     7
100
AcDbLine
 10
-195.138
 20
-42.33346
 30
0.0
 11
-196.3379999999999
 21
-42.655
 31
0.0
  0
LINE
  5
4B9
330
1E
100
AcDbEntity
  8
0
  6
CONTINUOUS
 62
     7
100
AcDbLine
 10
-196.3379999999999
 20
-42.655
 30
0.0
 11
-195.138
 21
-42.97652999999999
 31
0.0
  0
LINE
  5
4BA
330
1E
100
AcDbEntity
  8
0
  6
CONTINUOUS
 62
     7
100
AcDbLine
 10
-196.3387999999999
 20
-42.65559999999999
 30
0.0
 11
-204.3387999999999
 21
-42.65559999999999
 31
0.0
  0
LINE
  5
4BB
330
1E
100
AcDbEntity
  8
0
  6
CONTINUOUS
 62
     7
100
AcDbLine
 10
-203.1379999999999
 20
-42.33346
 30
0.0
 11
-204.3379999999999
 21
-42.655
 31
0.0
  0
LINE
  5
4BC
330
1E
100
AcDbEntity
  8
0
  6
CONTINUOUS
 62
     7
100
AcDbLine
 10
-204.3379999999999
 20
-42.655
 30
0.0
 11
-203.1379999999999
 21
-42.97652999999999
 31
0.0
  0
LINE
  5
4BD
330
1E
100
AcDbEntity
  8
0
  6
CONTINUOUS
 62
     7
100
AcDbLine
 10
-179.9387999999999
 20
-52.6644
 30
0.0
 11
-187.9387999999999
 21
-52.6644
 31
0.0
  0
LINE
  5
4BE
330
1E
100
AcDbEntity
  8
0
  6
CONTINUOUS
 62
     7
100
AcDbLine
 10
-186.7379999999999
 20
-52.34245999999998
 30
0.0
 11
-187.9379999999999
 21
-52.66399999999999
 31
0.0
  0
LINE
  5
4BF
330
1E
100
AcDbEntity
  8
0
  6
CONTINUOUS
 62
     7
100
AcDbLine
 10
-187.9379999999999
 20
-52.66399999999999
 30
0.0
 11
-186.7379999999999
 21
-52.98553
 31
0.0
  0
LINE
  5
4C0
330
1E
100
AcDbEntity
  8
0
  6
CONTINUOUS
 62
     7
100
AcDbLine
 10
-187.9387999999999
 20
-52.6644
 30
0.0
 11
-195.9387999999999
 21
-52.6644
 31
0.0
  0
LINE
  5
4C1
330
1E
100
AcDbEntity
  8
0
  6
CONTINUOUS
 62
     7
100
AcDbLine
 10
-194.738
 20
-52.34245999999998
 30
0.0
 11
-195.9379999999999
 21
-52.66399999999999
 31
0.0
  0
LINE
  5
4C2
330
1E
100
AcDbEntity
  8
0
  6
CONTINUOUS
 62
     7
100
AcDbLine
 10
-195.9379999999999
 20
-52.66399999999999
 30
0.0
 11
-194.738
 21
-52.98553
 31
0.0
  0
LINE
  5
4C3
330
1E
100
AcDbEntity
  8
0
  6
CONTINUOUS
 62
     7
100
AcDbLine
 10
-195.9387999999999
 20
-52.6644
 30
0.0
 11
-203.9387999999999
 21
-52.6644
 31
0.0
  0
LINE
  5
4C4
330
1E
100
AcDbEntity
  8
0
  6
CONTINUOUS
 62
     7
100
AcDbLine
 10
-202.7379999999999
 20
-52.34245999999998
 30
0.0
 11
-203.9379999999999
 21
-52.66399999999999
 31
0.0
  0
LINE
  5
4C5
330
1E
100
AcDbEntity
  8
0
  6
CONTINUOUS
 62
     7
100
AcDbLine
 10
-203.9379999999999
 20
-52.66399999999999
 30
0.0
 11
-202.7379999999999
 21
-52.98553
 31
0.0
  0
LINE
  5
4C6
330
1E
100
AcDbEntity
  8
0
  6
CONTINUOUS
 62
     7
100
AcDbLine
 10
-203.9387999999999
 20
-52.6644
 30
0.0
 11
-211.9387999999999
 21
-52.6644
 31
0.0
  0
LINE
  5
4C7
330
1E
100
AcDbEntity
  8
0
  6
CONTINUOUS
 62
     7
100
AcDbLine
 10
-210.738
 20
-52.34245999999998
 30
0.0
 11
-211.938
 21
-52.66399999999999
 31
0.0
  0
LINE
  5
4C8
330
1E
100
AcDbEntity
  8
0
  6
CONTINUOUS
 62
     7
100
AcDbLine
 10
-211.938
 20
-52.66399999999999
 30
0.0
 11
-210.738
 21
-52.98553
 31
0.0
  0
LINE
  5
4C9
330
1E
100
AcDbEntity
  8
0
  6
DASHED
 62
     1
100
AcDbLine
 10
-220.2188
 20
-79.86195999999998
 30
0.0
 11
-207.9426
 21
-79.86195999999998
 31
0.0
  0
LINE
  5
4CA
330
1E
100
AcDbEntity
  8
0
  6
DASHED
 62
     1
100
AcDbLine
 10
-220.2188
 20
-71.86195999999998
 30
0.0
 11
-207.9426
 21
-71.86195999999998
 31
0.0
  0
LINE
  5
4CB
330
1E
100
AcDbEntity
  8
0
  6
DASHED
 62
     1
100
AcDbLine
 10
-220.2188
 20
-63.86195999999999
 30
0.0
 11
-207.9426
 21
-63.86195999999999
 31
0.0
  0
LINE
  5
4CC
330
1E
100
AcDbEntity
  8
0
  6
DASHED
 62
     1
100
AcDbLine
 10
-220.2188
 20
-55.86196
 30
0.0
 11
-207.9426
 21
-55.86196
 31
0.0
  0
LINE
  5
4CD
330
1E
100
AcDbEntity
  8
0
  6
DASHED
 62
     1
100
AcDbLine
 10
-220.2188
 20
-47.86195999999999
 30
0.0
 11
-207.9426
 21
-47.86195999999999
 31
0.0
  0
LINE
  5
4CE
330
1E
100
AcDbEntity
  8
0
  6
CONTINUOUS
 62
     7
100
AcDbLine
 10
-199.9851199999999
 20
-72.28068
 30
0.0
 11
-199.9851199999999
 21
-64.26196
 31
0.0
  0
LINE
  5
4CF
330
1E
100
AcDbEntity
  8
0
  6
CONTINUOUS
 62
     7
100
AcDbLine
 10
-199.66346
 20
-65.461
 30
0.0
 11
-199.985
 21
-64.26099999999999
 31
0.0
  0
LINE
  5
4D0
330
1E
100
AcDbEntity
  8
0
  6
CONTINUOUS
 62
     7
100
AcDbLine
 10
-199.985
 20
-64.26099999999999
 30
0.0
 11
-200.30653
 21
-65.461
 31
0.0
  0
LINE
  5
4D1
330
1E
100
AcDbEntity
  8
0
  6
CONTINUOUS
 62
     7
100
AcDbLine
 10
-199.9851199999999
 20
-64.28068
 30
0.0
 11
-199.9851199999999
 21
-56.26196
 31
0.0
  0
LINE
  5
4D2
330
1E
100
AcDbEntity
  8
0
  6
CONTINUOUS
 62
     7
100
AcDbLine
 10
-199.66346
 20
-57.46100000000001
 30
0.0
 11
-199.985
 21
-56.261
 31
0.0
  0
LINE
  5
4D3
330
1E
100
AcDbEntity
  8
0
  6
CONTINUOUS
 62
     7
100
AcDbLine
 10
-199.985
 20
-56.261
 30
0.0
 11
-200.30653
 21
-57.46100000000001
 31
0.0
  0
LINE
  5
4D4
330
1E
100
AcDbEntity
  8
0
  6
CONTINUOUS
 62
     7
100
AcDbLine
 10
-199.9851199999999
 20
-56.28068
 30
0.0
 11
-199.9851199999999
 21
-48.26195999999999
 31
0.0
  0
LINE
  5
4D5
330
1E
100
AcDbEntity
  8
0
  6
CONTINUOUS
 62
     7
100
AcDbLine
 10
-199.66346
 20
-49.46100000000001
 30
0.0
 11
-199.985
 21
-48.261
 31
0.0
  0
LINE
  5
4D6
330
1E
100
AcDbEntity
  8
0
  6
CONTINUOUS
 62
     7
100
AcDbLine
 10
-199.985
 20
-48.261
 30
0.0
 11
-200.30653
 21
-49.46100000000001
 31
0.0
  0
LINE
  5
4D7
330
1E
100
AcDbEntity
  8
0
  6
CONTINUOUS
 62
     7
100
AcDbLine
 10
-199.9851199999999
 20
-48.28068
 30
0.0
 11
-199.9851199999999
 21
-40.26195999999997
 31
0.0
  0
LINE
  5
4D8
330
1E
100
AcDbEntity
  8
0
  6
CONTINUOUS
 62
     7
100
AcDbLine
 10
-199.66346
 20
-41.46099999999999
 30
0.0
 11
-199.985
 21
-40.26099999999998
 31
0.0
  0
LINE
  5
4D9
330
1E
100
AcDbEntity
  8
0
  6
CONTINUOUS
 62
     7
100
AcDbLine
 10
-199.985
 20
-40.26099999999998
 30
0.0
 11
-200.30653
 21
-41.46099999999999
 31
0.0
  0
LINE
  5
4DA
330
1E
100
AcDbEntity
  8
0
  6
CONTINUOUS
 62
     7
100
AcDbLine
 10
-199.9851199999999
 20
-40.26195999999997
 30
0.0
 11
-199.9851199999999
 21
-34.02195999999999
 31
0.0
  0
LINE
  5
4DB
330
1E
100
AcDbEntity
  8
0
  6
CONTINUOUS
 62
     7
100
AcDbLine
 10
-199.66346
 20
-35.221
 30
0.0
 11
-199.985
 21
-34.021
 31
0.0
  0
LINE
  5
4DC
330
1E
100
AcDbEntity
  8
0
  6
CONTINUOUS
 62
     7
100
AcDbLine
 10
-199.985
 20
-34.021
 30
0.0
 11
-200.30653
 21
-35.221
 31
0.0
  0
LINE
  5
4DD
330
1E
100
AcDbEntity
  8
0
  6
CONTINUOUS
 62
     7
100
AcDbLine
 10
-211.9387999999999
 20
-52.6644
 30
0.0
 11
-218.1788
 21
-52.6644
 31
0.0
  0
LINE
  5
4DE
330
1E
100
AcDbEntity
  8
0
  6
CONTINUOUS
 62
     7
100
AcDbLine
 10
-216.9779999999999
 20
-52.34245999999998
 30
0.0
 11
-218.1779999999999
 21
-52.66399999999999
 31
0.0
  0
LINE
  5
4DF
330
1E
100
AcDbEntity
  8
0
  6
CONTINUOUS
 62
     7
100
AcDbLine
 10
-218.1779999999999
 20
-52.66399999999999
 30
0.0
 11
-216.9779999999999
 21
-52.98553
 31
0.0
  0
LINE
  5
4E0
330
1E
100
AcDbEntity
  8
0
  6
CONTINUOUS
 62
     7
100
AcDbLine
 10
-209.8367599999999
 20
-71.86195999999998
 30
0.0
 11
-209.8367599999999
 21
-63.86195999999999
 31
0.0
  0
LINE
  5
4E1
330
1E
100
AcDbEntity
  8
0
  6
CONTINUOUS
 62
     7
100
AcDbLine
 10
-209.51446
 20
-65.061
 30
0.0
 11
-209.836
 21
-63.86099999999998
 31
0.0
  0
LINE
  5
4E2
330
1E
100
AcDbEntity
  8
0
  6
CONTINUOUS
 62
     7
100
AcDbLine
 10
-209.836
 20
-63.86099999999998
 30
0.0
 11
-210.1575299999999
 21
-65.061
 31
0.0
  0
LINE
  5
4E3
330
1E
100
AcDbEntity
  8
0
  6
CONTINUOUS
 62
     7
100
AcDbLine
 10
-209.8367599999999
 20
-63.86195999999999
 30
0.0
 11
-209.8367599999999
 21
-55.86196
 31
0.0
  0
LINE
  5
4E4
330
1E
100
AcDbEntity
  8
0
  6
CONTINUOUS
 62
     7
100
AcDbLine
 10
-209.51446
 20
-57.06100000000001
 30
0.0
 11
-209.836
 21
-55.861
 31
0.0
  0
LINE
  5
4E5
330
1E
100
AcDbEntity
  8
0
  6
CONTINUOUS
 62
     7
100
AcDbLine
 10
-209.836
 20
-55.861
 30
0.0
 11
-210.1575299999999
 21
-57.06100000000001
 31
0.0
  0
LINE
  5
4E6
330
1E
100
AcDbEntity
  8
0
  6
CONTINUOUS
 62
     7
100
AcDbLine
 10
-209.8367599999999
 20
-55.86196
 30
0.0
 11
-209.8367599999999
 21
-47.86195999999999
 31
0.0
  0
LINE
  5
4E7
330
1E
100
AcDbEntity
  8
0
  6
CONTINUOUS
 62
     7
100
AcDbLine
 10
-209.51446
 20
-49.06100000000001
 30
0.0
 11
-209.836
 21
-47.861
 31
0.0
  0
LINE
  5
4E8
330
1E
100
AcDbEntity
  8
0
  6
CONTINUOUS
 62
     7
100
AcDbLine
 10
-209.836
 20
-47.861
 30
0.0
 11
-210.1575299999999
 21
-49.06100000000001
 31
0.0
  0
LINE
  5
4E9
330
1E
100
AcDbEntity
  8
0
  6
CONTINUOUS
 62
     7
100
AcDbLine
 10
-211.9533999999999
 20
-22.86195999999999
 30
0.0
 11
-163.9254
 21
-22.86195999999999
 31
0.0
  0
LINE
  5
4EA
330
1E
100
AcDbEntity
  8
0
  6
CONTINUOUS
 62
     7
100
AcDbLine
 10
-163.9254
 20
-29.26196
 30
0.0
 11
-163.9254
 21
-22.06195999999999
 31
0.0
  0
LINE
  5
4EB
330
1E
100
AcDbEntity
  8
0
  6
CONTINUOUS
 62
     7
100
AcDbLine
 10
-211.9533999999999
 20
-29.26196
 30
0.0
 11
-211.9533999999999
 21
-22.06195999999999
 31
0.0
  0
LINE
  5
4EC
330
1E
100
AcDbEntity
  8
0
  6
CONTINUOUS
 62
     7
100
AcDbLine
 10
-165.125
 20
-23.18252999999999
 30
0.0
 11
-163.925
 21
-22.861
 31
0.0
  0
LINE
  5
4ED
330
1E
100
AcDbEntity
  8
0
  6
CONTINUOUS
 62
     7
100
AcDbLine
 10
-163.925
 20
-22.861
 30
0.0
 11
-165.125
 21
-22.53946
 31
0.0
  0
LINE
  5
4EE
330
1E
100
AcDbEntity
  8
0
  6
CONTINUOUS
 62
     7
100
AcDbLine
 10
-210.7529999999999
 20
-22.53946
 30
0.0
 11
-211.953
 21
-22.861
 31
0.0
  0
LINE
  5
4EF
330
1E
100
AcDbEntity
  8
0
  6
CONTINUOUS
 62
     7
100
AcDbLine
 10
-211.953
 20
-22.861
 30
0.0
 11
-210.7529999999999
 21
-23.18252999999999
 31
0.0
  0
LINE
  5
4F0
330
1E
100
AcDbEntity
  8
0
  6
CONTINUOUS
 62
     7
100
AcDbLine
 10
-163.9254
 20
-22.86195999999999
 30
0.0
 11
-161.9387999999998
 21
-22.86195999999999
 31
0.0
  0
LINE
  5
4F1
330
1E
100
AcDbEntity
  8
0
  6
CONTINUOUS
 62
     7
100
AcDbLine
 10
-161.9387999999998
 20
-26.41044
 30
0.0
 11
-161.9387999999998
 21
-22.06195999999999
 31
0.0
  0
LINE
  5
4F2
330
1E
100
AcDbEntity
  8
0
  6
CONTINUOUS
 62
     7
100
AcDbLine
 10
-159.5387999999998
 20
-22.86195999999999
 30
0.0
 11
-161.9387999999998
 21
-22.86195999999999
 31
0.0
  0
LINE
  5
4F3
330
1E
100
AcDbEntity
  8
0
  6
CONTINUOUS
 62
     7
100
AcDbLine
 10
-160.738
 20
-22.53946
 30
0.0
 11
-161.9379999999999
 21
-22.861
 31
0.0
  0
LINE
  5
4F4
330
1E
100
AcDbEntity
  8
0
  6
CONTINUOUS
 62
     7
100
AcDbLine
 10
-161.9379999999999
 20
-22.861
 30
0.0
 11
-160.738
 21
-23.18252999999999
 31
0.0
  0
LINE
  5
4F5
330
1E
100
AcDbEntity
  8
0
  6
CONTINUOUS
 62
     7
100
AcDbLine
 10
-163.9254
 20
-22.86195999999999
 30
0.0
 11
-166.3254
 21
-22.86195999999999
 31
0.0
  0
LINE
  5
4F6
330
1E
100
AcDbEntity
  8
0
  6
CONTINUOUS
 62
     7
100
AcDbLine
 10
-165.125
 20
-23.18252999999999
 30
0.0
 11
-163.925
 21
-22.861
 31
0.0
  0
LINE
  5
4F7
330
1E
100
AcDbEntity
  8
0
  6
CONTINUOUS
 62
     7
100
AcDbLine
 10
-163.925
 20
-22.861
 30
0.0
 11
-165.125
 21
-22.53946
 31
0.0
  0
LINE
  5
4F8
330
1E
100
AcDbEntity
  8
0
  6
CONTINUOUS
 62
     7
100
AcDbLine
 10
-159.5387999999998
 20
-22.86195999999999
 30
0.0
 11
-155.1887999999999
 21
-22.86195999999999
 31
0.0
  0
TEXT
  5
4F9
330
1E
100
AcDbEntity
  8
0
  6
CONTINUOUS
 62
     7
100
AcDbText
 10
-160.1887999999999
 20
-22.46196
 30
0.0
 40
3.2
  1
50
 41
0.78125
  7
BIGFONT
100
AcDbText
  0
TEXT
  5
4FA
330
1E
100
AcDbEntity
  8
0
  6
CONTINUOUS
 62
     7
100
AcDbText
 10
-201.5648399999999
 20
-22.49204
 30
0.0
 40
3.2
  1
6×200=1200
  7
BIGFONT
100
AcDbText
  0
LINE
  5
4FB
330
1E
100
AcDbEntity
  8
0
  6
CONTINUOUS
 62
     7
100
AcDbLine
 10
-218.2694399999999
 20
-22.86195999999999
 30
0.0
 11
-211.9533999999999
 21
-22.86195999999999
 31
0.0
  0
LINE
  5
4FC
330
1E
100
AcDbEntity
  8
0
  6
CONTINUOUS
 62
     7
100
AcDbLine
 10
-211.9533999999999
 20
-26.4798
 30
0.0
 11
-211.9533999999999
 21
-22.06195999999999
 31
0.0
  0
LINE
  5
4FD
330
1E
100
AcDbEntity
  8
0
  6
CONTINUOUS
 62
     7
100
AcDbLine
 10
-218.2694399999999
 20
-29.26196
 30
0.0
 11
-218.2694399999999
 21
-22.06195999999999
 31
0.0
  0
LINE
  5
4FE
330
1E
100
AcDbEntity
  8
0
  6
CONTINUOUS
 62
     7
100
AcDbLine
 10
-213.153
 20
-23.18252999999999
 30
0.0
 11
-211.953
 21
-22.861
 31
0.0
  0
LINE
  5
4FF
330
1E
100
AcDbEntity
  8
0
  6
CONTINUOUS
 62
     7
100
AcDbLine
 10
-211.953
 20
-22.861
 30
0.0
 11
-213.153
 21
-22.53946
 31
0.0
  0
LINE
  5
500
330
1E
100
AcDbEntity
  8
0
  6
CONTINUOUS
 62
     7
100
AcDbLine
 10
-217.069
 20
-22.53946
 30
0.0
 11
-218.269
 21
-22.861
 31
0.0
  0
LINE
  5
501
330
1E
100
AcDbEntity
  8
0
  6
CONTINUOUS
 62
     7
100
AcDbLine
 10
-218.269
 20
-22.861
 30
0.0
 11
-217.069
 21
-23.18252999999999
 31
0.0
  0
TEXT
  5
502
330
1E
100
AcDbEntity
  8
0
  6
CONTINUOUS
 62
     7
100
AcDbText
 10
-219.73232
 20
-22.45716
 30
0.0
 40
3.2
  1
158
  7
BIGFONT
100
AcDbText
  0
LINE
  5
503
330
1E
100
AcDbEntity
  8
0
  6
CONTINUOUS
 62
     1
100
AcDbLine
 10
-94.85844
 20
-40.26195999999997
 30
0.0
 11
-39.05844
 21
-40.26195999999997
 31
0.0
  0
LINE
  5
504
330
1E
100
AcDbEntity
  8
0
  6
CONTINUOUS
 62
     1
100
AcDbLine
 10
-94.85844
 20
-48.26195999999999
 30
0.0
 11
-39.05844
 21
-48.26195999999999
 31
0.0
  0
LINE
  5
505
330
1E
100
AcDbEntity
  8
0
  6
CONTINUOUS
 62
     1
100
AcDbLine
 10
-94.85844
 20
-56.26196
 30
0.0
 11
-39.05844
 21
-56.26196
 31
0.0
  0
LINE
  5
506
330
1E
100
AcDbEntity
  8
0
  6
CONTINUOUS
 62
     1
100
AcDbLine
 10
-94.85844
 20
-64.26196
 30
0.0
 11
-39.05844
 21
-64.26196
 31
0.0
  0
LINE
  5
507
330
1E
100
AcDbEntity
  8
0
  6
CONTINUOUS
 62
     1
100
AcDbLine
 10
-94.85844
 20
-72.26196
 30
0.0
 11
-39.05844
 21
-72.26196
 31
0.0
  0
LINE
  5
508
330
1E
100
AcDbEntity
  8
0
  6
CONTINUOUS
 62
     1
100
AcDbLine
 10
-94.85844
 20
-80.26196
 30
0.0
 11
-41.88684
 21
-80.26196
 31
0.0
  0
LINE
  5
509
330
1E
100
AcDbEntity
  8
0
  6
CONTINUOUS
 62
     1
100
AcDbLine
 10
-87.05844
 20
-88.26196000000001
 30
0.0
 11
-87.05844
 21
-32.46195999999999
 31
0.0
  0
LINE
  5
50A
330
1E
100
AcDbEntity
  8
0
  6
CONTINUOUS
 62
     1
100
AcDbLine
 10
-79.05844
 20
-88.26196000000001
 30
0.0
 11
-79.05844
 21
-32.46195999999999
 31
0.0
  0
LINE
  5
50B
330
1E
100
AcDbEntity
  8
0
  6
CONTINUOUS
 62
     1
100
AcDbLine
 10
-71.05844000000002
 20
-88.26196000000001
 30
0.0
 11
-71.05844000000002
 21
-32.46195999999999
 31
0.0
  0
LINE
  5
50C
330
1E
100
AcDbEntity
  8
0
  6
CONTINUOUS
 62
     1
100
AcDbLine
 10
-63.05844
 20
-88.26196000000001
 30
0.0
 11
-63.05844
 21
-32.46195999999999
 31
0.0
  0
LINE
  5
50D
330
1E
100
AcDbEntity
  8
0
  6
CONTINUOUS
 62
     1
100
AcDbLine
 10
-55.05844
 20
-88.26196000000001
 30
0.0
 11
-55.05844
 21
-32.46195999999999
 31
0.0
  0
LINE
  5
50E
330
1E
100
AcDbEntity
  8
0
  6
CONTINUOUS
 62
     1
100
AcDbLine
 10
-47.05844
 20
-85.43356000000001
 30
0.0
 11
-47.05844
 21
-32.46195999999999
 31
0.0
  0
LINE
  5
50F
330
1E
100
AcDbEntity
  8
0
  6
CONTINUOUS
 62
     7
100
AcDbLine
 10
-93.29731999999999
 20
-22.86195999999999
 30
0.0
 11
-87.06180000000001
 21
-22.86195999999999
 31
0.0
  0
LINE
  5
510
330
1E
100
AcDbEntity
  8
0
  6
CONTINUOUS
 62
     7
100
AcDbLine
 10
-87.06180000000001
 20
-29.26196
 30
0.0
 11
-87.06180000000001
 21
-22.06195999999999
 31
0.0
  0
LINE
  5
511
330
1E
100
AcDbEntity
  8
0
  6
CONTINUOUS
 62
     7
100
AcDbLine
 10
-93.29731999999999
 20
-29.26196
 30
0.0
 11
-93.29731999999999
 21
-22.06195999999999
 31
0.0
  0
LINE
  5
512
330
1E
100
AcDbEntity
  8
0
  6
CONTINUOUS
 62
     7
100
AcDbLine
 10
-88.26100000000002
 20
-23.18252999999999
 30
0.0
 11
-87.06100000000002
 21
-22.861
 31
0.0
  0
LINE
  5
513
330
1E
100
AcDbEntity
  8
0
  6
CONTINUOUS
 62
     7
100
AcDbLine
 10
-87.06100000000002
 20
-22.861
 30
0.0
 11
-88.26100000000002
 21
-22.53946
 31
0.0
  0
LINE
  5
514
330
1E
100
AcDbEntity
  8
0
  6
CONTINUOUS
 62
     7
100
AcDbLine
 10
-92.09699999999999
 20
-22.53946
 30
0.0
 11
-93.297
 21
-22.861
 31
0.0
  0
LINE
  5
515
330
1E
100
AcDbEntity
  8
0
  6
CONTINUOUS
 62
     7
100
AcDbLine
 10
-93.297
 20
-22.861
 30
0.0
 11
-92.09699999999999
 21
-23.18252999999999
 31
0.0
  0
TEXT
  5
516
330
1E
100
AcDbEntity
  8
0
  6
CONTINUOUS
 62
     7
100
AcDbText
 10
-93.67955999999999
 20
-22.46196
 30
0.0
 40
3.2
  1
156
 41
0.78125
  7
BIGFONT
100
AcDbText
  0
LINE
  5
517
330
1E
100
AcDbEntity
  8
0
  6
CONTINUOUS
 62
     7
100
AcDbLine
 10
-87.06180000000001
 20
-22.86195999999999
 30
0.0
 11
-39.18036
 21
-22.86195999999999
 31
0.0
  0
LINE
  5
518
330
1E
100
AcDbEntity
  8
0
  6
CONTINUOUS
 62
     7
100
AcDbLine
 10
-39.18036
 20
-29.26196
 30
0.0
 11
-39.18036
 21
-22.06195999999999
 31
0.0
  0
LINE
  5
519
330
1E
100
AcDbEntity
  8
0
  6
CONTINUOUS
 62
     7
100
AcDbLine
 10
-40.38
 20
-23.18252999999999
 30
0.0
 11
-39.18
 21
-22.861
 31
0.0
  0
LINE
  5
51A
330
1E
100
AcDbEntity
  8
0
  6
CONTINUOUS
 62
     7
100
AcDbLine
 10
-39.18
 20
-22.861
 30
0.0
 11
-40.38
 21
-22.53946
 31
0.0
  0
LINE
  5
51B
330
1E
100
AcDbEntity
  8
0
  6
CONTINUOUS
 62
     7
100
AcDbLine
 10
-85.861
 20
-22.53946
 30
0.0
 11
-87.06100000000002
 21
-22.861
 31
0.0
  0
LINE
  5
51C
330
1E
100
AcDbEntity
  8
0
  6
CONTINUOUS
 62
     7
100
AcDbLine
 10
-87.06100000000002
 20
-22.861
 30
0.0
 11
-85.861
 21
-23.18252999999999
 31
0.0
  0
LINE
  5
51D
330
1E
100
AcDbEntity
  8
0
  6
CONTINUOUS
 62
     7
100
AcDbLine
 10
-39.18036
 20
-22.86195999999999
 30
0.0
 11
-37.05844
 21
-22.86195999999999
 31
0.0
  0
LINE
  5
51E
330
1E
100
AcDbEntity
  8
0
  6
CONTINUOUS
 62
     7
100
AcDbLine
 10
-37.05844
 20
-25.966
 30
0.0
 11
-37.05844
 21
-22.06195999999999
 31
0.0
  0
LINE
  5
51F
330
1E
100
AcDbEntity
  8
0
  6
CONTINUOUS
 62
     7
100
AcDbLine
 10
-34.65844
 20
-22.86195999999999
 30
0.0
 11
-37.05844
 21
-22.86195999999999
 31
0.0
  0
LINE
  5
520
330
1E
100
AcDbEntity
  8
0
  6
CONTINUOUS
 62
     7
100
AcDbLine
 10
-35.85799999999997
 20
-22.53946
 30
0.0
 11
-37.05799999999999
 21
-22.861
 31
0.0
  0
LINE
  5
521
330
1E
100
AcDbEntity
  8
0
  6
CONTINUOUS
 62
     7
100
AcDbLine
 10
-37.05799999999999
 20
-22.861
 30
0.0
 11
-35.85799999999997
 21
-23.18252999999999
 31
0.0
  0
LINE
  5
522
330
1E
100
AcDbEntity
  8
0
  6
CONTINUOUS
 62
     7
100
AcDbLine
 10
-39.18036
 20
-22.86195999999999
 30
0.0
 11
-41.58036
 21
-22.86195999999999
 31
0.0
  0
LINE
  5
523
330
1E
100
AcDbEntity
  8
0
  6
CONTINUOUS
 62
     7
100
AcDbLine
 10
-40.38
 20
-23.18252999999999
 30
0.0
 11
-39.18
 21
-22.861
 31
0.0
  0
LINE
  5
524
330
1E
100
AcDbEntity
  8
0
  6
CONTINUOUS
 62
     7
100
AcDbLine
 10
-39.18
 20
-22.861
 30
0.0
 11
-40.38
 21
-22.53946
 31
0.0
  0
LINE
  5
525
330
1E
100
AcDbEntity
  8
0
  6
CONTINUOUS
 62
     7
100
AcDbLine
 10
-34.65844
 20
-22.86195999999999
 30
0.0
 11
-30.55844
 21
-22.86195999999999
 31
0.0
  0
TEXT
  5
526
330
1E
100
AcDbEntity
  8
0
  6
CONTINUOUS
 62
     7
100
AcDbText
 10
-35.55844
 20
-22.46196
 30
0.0
 40
3.2
  1
50
 41
0.78125
  7
BIGFONT
100
AcDbText
  0
TEXT
  5
527
330
1E
100
AcDbEntity
  8
0
  6
CONTINUOUS
 62
     7
100
AcDbText
 10
-76.65172
 20
-22.49204
 30
0.0
 40
3.2
  1
6×200=1200
  7
BIGFONT
100
AcDbText
  0
LINE
  5
528
330
1E
100
AcDbEntity
  8
0
  6
CONTINUOUS
 62
     7
100
AcDbLine
 10
-103.76996
 20
-22.86195999999999
 30
0.0
 11
-97.05844
 21
-22.86195999999999
 31
0.0
  0
LINE
  5
529
330
1E
100
AcDbEntity
  8
0
  6
CONTINUOUS
 62
     7
100
AcDbLine
 10
-98.258
 20
-23.18252999999999
 30
0.0
 11
-97.05800000000001
 21
-22.861
 31
0.0
  0
LINE
  5
52A
330
1E
100
AcDbEntity
  8
0
  6
CONTINUOUS
 62
     7
100
AcDbLine
 10
-97.05800000000001
 20
-22.861
 30
0.0
 11
-98.258
 21
-22.53946
 31
0.0
  0
LINE
  5
52B
330
1E
100
AcDbEntity
  8
0
  6
CONTINUOUS
 62
     7
100
AcDbLine
 10
-79.05844
 20
-52.26195999999998
 30
0.0
 11
-87.05844
 21
-52.26195999999998
 31
0.0
  0
LINE
  5
52C
330
1E
100
AcDbEntity
  8
0
  6
CONTINUOUS
 62
     7
100
AcDbLine
 10
-85.85799999999997
 20
-51.93946
 30
0.0
 11
-87.05800000000001
 21
-52.261
 31
0.0
  0
LINE
  5
52D
330
1E
100
AcDbEntity
  8
0
  6
CONTINUOUS
 62
     7
100
AcDbLine
 10
-87.05800000000001
 20
-52.261
 30
0.0
 11
-85.85799999999997
 21
-52.58253
 31
0.0
  0
LINE
  5
52E
330
1E
100
AcDbEntity
  8
0
  6
CONTINUOUS
 62
     7
100
AcDbLine
 10
-87.05844
 20
-52.26195999999998
 30
0.0
 11
-93.29843999999999
 21
-52.26195999999998
 31
0.0
  0
LINE
  5
52F
330
1E
100
AcDbEntity
  8
0
  6
CONTINUOUS
 62
     7
100
AcDbLine
 10
-92.09799999999999
 20
-51.93946
 30
0.0
 11
-93.29799999999998
 21
-52.261
 31
0.0
  0
LINE
  5
530
330
1E
100
AcDbEntity
  8
0
  6
CONTINUOUS
 62
     7
100
AcDbLine
 10
-93.29799999999998
 20
-52.261
 30
0.0
 11
-92.09799999999999
 21
-52.58253
 31
0.0
  0
LINE
  5
531
330
1E
100
AcDbEntity
  8
0
  6
CONTINUOUS
 62
     7
100
AcDbLine
 10
-75.05844
 20
-40.26195999999997
 30
0.0
 11
-75.05844
 21
-34.02195999999999
 31
0.0
  0
LINE
  5
532
330
1E
100
AcDbEntity
  8
0
  6
CONTINUOUS
 62
     7
100
AcDbLine
 10
-74.73645999999998
 20
-35.221
 30
0.0
 11
-75.058
 21
-34.021
 31
0.0
  0
LINE
  5
533
330
1E
100
AcDbEntity
  8
0
  6
CONTINUOUS
 62
     7
100
AcDbLine
 10
-75.058
 20
-34.021
 30
0.0
 11
-75.37953
 21
-35.221
 31
0.0
  0
LINE
  5
534
330
1E
100
AcDbEntity
  8
0
  6
CONTINUOUS
 62
     7
100
AcDbLine
 10
-75.05844
 20
-48.26195999999999
 30
0.0
 11
-75.05844
 21
-40.24615999999999
 31
0.0
  0
LINE
  5
535
330
1E
100
AcDbEntity
  8
0
  6
CONTINUOUS
 62
     7
100
AcDbLine
 10
-74.73645999999998
 20
-41.44599999999999
 30
0.0
 11
-75.058
 21
-40.246
 31
0.0
  0
LINE
  5
536
330
1E
100
AcDbEntity
  8
0
  6
CONTINUOUS
 62
     7
100
AcDbLine
 10
-75.058
 20
-40.246
 30
0.0
 11
-75.37953
 21
-41.44599999999999
 31
0.0
  0
LINE
  5
537
330
1E
100
AcDbEntity
  8
0
  6
CONTINUOUS
 62
     7
100
AcDbLine
 10
-71.05844000000002
 20
-52.26195999999998
 30
0.0
 11
-79.05844
 21
-52.26195999999998
 31
0.0
  0
LINE
  5
538
330
1E
100
AcDbEntity
  8
0
  6
CONTINUOUS
 62
     7
100
AcDbLine
 10
-77.858
 20
-51.93946
 30
0.0
 11
-79.05800000000002
 21
-52.261
 31
0.0
  0
LINE
  5
539
330
1E
100
AcDbEntity
  8
0
  6
CONTINUOUS
 62
     7
100
AcDbLine
 10
-79.05800000000002
 20
-52.261
 30
0.0
 11
-77.858
 21
-52.58253
 31
0.0
  0
LINE
  5
53A
330
1E
100
AcDbEntity
  8
0
  6
CONTINUOUS
 62
     7
100
AcDbLine
 10
-63.05844
 20
-52.26195999999998
 30
0.0
 11
-71.05844000000002
 21
-52.26195999999998
 31
0.0
  0
LINE
  5
53B
330
1E
100
AcDbEntity
  8
0
  6
CONTINUOUS
 62
     7
100
AcDbLine
 10
-69.85800000000001
 20
-51.93946
 30
0.0
 11
-71.05800000000002
 21
-52.261
 31
0.0
  0
LINE
  5
53C
330
1E
100
AcDbEntity
  8
0
  6
CONTINUOUS
 62
     7
100
AcDbLine
 10
-71.05800000000002
 20
-52.261
 30
0.0
 11
-69.85800000000001
 21
-52.58253
 31
0.0
  0
LINE
  5
53D
330
1E
100
AcDbEntity
  8
0
  6
CONTINUOUS
 62
     7
100
AcDbLine
 10
-55.05844
 20
-52.26195999999998
 30
0.0
 11
-63.05844
 21
-52.26195999999998
 31
0.0
  0
LINE
  5
53E
330
1E
100
AcDbEntity
  8
0
  6
CONTINUOUS
 62
     7
100
AcDbLine
 10
-61.858
 20
-51.93946
 30
0.0
 11
-63.058
 21
-52.261
 31
0.0
  0
LINE
  5
53F
330
1E
100
AcDbEntity
  8
0
  6
CONTINUOUS
 62
     7
100
AcDbLine
 10
-63.058
 20
-52.261
 30
0.0
 11
-61.858
 21
-52.58253
 31
0.0
  0
LINE
  5
540
330
1E
100
AcDbEntity
  8
0
  6
CONTINUOUS
 62
     7
100
AcDbLine
 10
-47.05844
 20
-52.26195999999998
 30
0.0
 11
-55.05844
 21
-52.26195999999998
 31
0.0
  0
LINE
  5
541
330
1E
100
AcDbEntity
  8
0
  6
CONTINUOUS
 62
     7
100
AcDbLine
 10
-53.85799999999999
 20
-51.93946
 30
0.0
 11
-55.058
 21
-52.261
 31
0.0
  0
LINE
  5
542
330
1E
100
AcDbEntity
  8
0
  6
CONTINUOUS
 62
     7
100
AcDbLine
 10
-55.058
 20
-52.261
 30
0.0
 11
-53.85799999999999
 21
-52.58253
 31
0.0
  0
LINE
  5
543
330
1E
100
AcDbEntity
  8
0
  6
CONTINUOUS
 62
     7
100
AcDbLine
 10
-39.05844
 20
-52.26195999999998
 30
0.0
 11
-47.05844
 21
-52.26195999999998
 31
0.0
  0
LINE
  5
544
330
1E
100
AcDbEntity
  8
0
  6
CONTINUOUS
 62
     7
100
AcDbLine
 10
-45.85799999999998
 20
-51.93946
 30
0.0
 11
-47.05799999999999
 21
-52.261
 31
0.0
  0
LINE
  5
545
330
1E
100
AcDbEntity
  8
0
  6
CONTINUOUS
 62
     7
100
AcDbLine
 10
-47.05799999999999
 20
-52.261
 30
0.0
 11
-45.85799999999998
 21
-52.58253
 31
0.0
  0
LINE
  5
546
330
1E
100
AcDbEntity
  8
0
  6
CONTINUOUS
 62
     7
100
AcDbLine
 10
-75.05844
 20
-56.26196
 30
0.0
 11
-75.05844
 21
-48.24615999999998
 31
0.0
  0
LINE
  5
547
330
1E
100
AcDbEntity
  8
0
  6
CONTINUOUS
 62
     7
100
AcDbLine
 10
-74.73645999999998
 20
-49.44600000000001
 30
0.0
 11
-75.058
 21
-48.246
 31
0.0
  0
LINE
  5
548
330
1E
100
AcDbEntity
  8
0
  6
CONTINUOUS
 62
     7
100
AcDbLine
 10
-75.058
 20
-48.246
 30
0.0
 11
-75.37953
 21
-49.44600000000001
 31
0.0
  0
LINE
  5
549
330
1E
100
AcDbEntity
  8
0
  6
CONTINUOUS
 62
     7
100
AcDbLine
 10
-75.05844
 20
-64.26196
 30
0.0
 11
-75.05844
 21
-56.24615999999999
 31
0.0
  0
LINE
  5
54A
330
1E
100
AcDbEntity
  8
0
  6
CONTINUOUS
 62
     7
100
AcDbLine
 10
-74.73645999999998
 20
-57.44600000000001
 30
0.0
 11
-75.058
 21
-56.246
 31
0.0
  0
LINE
  5
54B
330
1E
100
AcDbEntity
  8
0
  6
CONTINUOUS
 62
     7
100
AcDbLine
 10
-75.058
 20
-56.246
 30
0.0
 11
-75.37953
 21
-57.44600000000001
 31
0.0
  0
LINE
  5
54C
330
1E
100
AcDbEntity
  8
0
  6
CONTINUOUS
 62
     7
100
AcDbLine
 10
-75.05844
 20
-72.26196
 30
0.0
 11
-75.05844
 21
-64.24616
 31
0.0
  0
LINE
  5
54D
330
1E
100
AcDbEntity
  8
0
  6
CONTINUOUS
 62
     7
100
AcDbLine
 10
-74.73645999999998
 20
-65.44599999999999
 30
0.0
 11
-75.058
 21
-64.24599999999999
 31
0.0
  0
LINE
  5
54E
330
1E
100
AcDbEntity
  8
0
  6
CONTINUOUS
 62
     7
100
AcDbLine
 10
-75.058
 20
-64.24599999999999
 30
0.0
 11
-75.37953
 21
-65.44599999999999
 31
0.0
  0
LINE
  5
54F
330
1E
100
AcDbEntity
  8
0
  6
CONTINUOUS
 62
     7
100
AcDbLine
 10
-75.05844
 20
-80.26196
 30
0.0
 11
-75.05844
 21
-72.24616000000001
 31
0.0
  0
LINE
  5
550
330
1E
100
AcDbEntity
  8
0
  6
CONTINUOUS
 62
     7
100
AcDbLine
 10
-74.73645999999998
 20
-73.44599999999998
 30
0.0
 11
-75.058
 21
-72.24599999999998
 31
0.0
  0
LINE
  5
551
330
1E
100
AcDbEntity
  8
0
  6
CONTINUOUS
 62
     7
100
AcDbLine
 10
-75.058
 20
-72.24599999999998
 30
0.0
 11
-75.37953
 21
-73.44599999999998
 31
0.0
  0
LINE
  5
552
330
1E
100
AcDbEntity
  8
0
  6
CONTINUOUS
 62
     7
100
AcDbLine
 10
-75.05844
 20
-88.26196000000001
 30
0.0
 11
-75.05844
 21
-80.24615999999998
 31
0.0
  0
LINE
  5
553
330
1E
100
AcDbEntity
  8
0
  6
CONTINUOUS
 62
     7
100
AcDbLine
 10
-74.73645999999998
 20
-81.446
 30
0.0
 11
-75.058
 21
-80.24599999999997
 31
0.0
  0
LINE
  5
554
330
1E
100
AcDbEntity
  8
0
  6
CONTINUOUS
 62
     7
100
AcDbLine
 10
-75.058
 20
-80.24599999999997
 30
0.0
 11
-75.37953
 21
-81.446
 31
0.0
  0
LINE
  5
555
330
1E
100
AcDbEntity
  8
0
  6
CONTINUOUS
 62
     1
100
AcDbLine
 10
-95.05844000000001
 20
120.28124
 30
0.0
 11
-40.81844
 21
120.28124
 31
0.0
  0
LINE
  5
556
330
1E
100
AcDbEntity
  8
0
  6
CONTINUOUS
 62
     1
100
AcDbLine
 10
-95.05844000000001
 20
110.2812399999999
 30
0.0
 11
-40.81844
 21
110.2812399999999
 31
0.0
  0
LINE
  5
557
330
1E
100
AcDbEntity
  8
0
  6
CONTINUOUS
 62
     1
100
AcDbLine
 10
-95.05844000000001
 20
100.28124
 30
0.0
 11
-40.81844
 21
100.28124
 31
0.0
  0
LINE
  5
558
330
1E
100
AcDbEntity
  8
0
  6
CONTINUOUS
 62
     1
100
AcDbLine
 10
-95.05844000000001
 20
90.28124
 30
0.0
 11
-40.81844
 21
90.28124
 31
0.0
  0
LINE
  5
559
330
1E
100
AcDbEntity
  8
0
  6
CONTINUOUS
 62
     1
100
AcDbLine
 10
-95.05844000000001
 20
80.28124
 30
0.0
 11
-40.81844
 21
80.28124
 31
0.0
  0
LINE
  5
55A
330
1E
100
AcDbEntity
  8
0
  6
CONTINUOUS
 62
     1
100
AcDbLine
 10
-95.05844000000001
 20
70.28124
 30
0.0
 11
-40.81844
 21
70.28124
 31
0.0
  0
LINE
  5
55B
330
1E
100
AcDbEntity
  8
0
  6
CONTINUOUS
 62
     1
100
AcDbLine
 10
-95.05844000000001
 20
60.28124
 30
0.0
 11
-40.81844
 21
60.28124
 31
0.0
  0
LINE
  5
55C
330
1E
100
AcDbEntity
  8
0
  6
CONTINUOUS
 62
     1
100
AcDbLine
 10
-95.05844000000001
 20
59.24124
 30
0.0
 11
-40.81844
 21
59.24124
 31
0.0
  0
LINE
  5
55D
330
1E
100
AcDbEntity
  8
0
  6
CONTINUOUS
 62
     7
100
AcDbLine
 10
-99.0538
 20
134.4155199999997
 30
0.0
 11
-83.05379999999997
 21
134.4155199999997
 31
0.0
  0
TEXT
  5
55E
330
1E
100
AcDbEntity
  8
0
  6
CONTINUOUS
 62
     7
100
AcDbText
 10
-92.10956000000001
 20
135.17748
 30
0.0
 40
3.2
  1
D13
  7
BIGFONT
100
AcDbText
  0
CIRCLE
  5
55F
330
1E
100
AcDbEntity
  8
0
  6
CONTINUOUS
 62
     7
100
AcDbCircle
 10
-96.0888
 20
136.9146799999997
 30
0.0
 40
2.5
  0
TEXT
  5
560
330
1E
100
AcDbEntity
  8
0
  6
CONTINUOUS
 62
     7
100
AcDbText
 10
-97.69415999999999
 20
135.1594799999999
 30
0.0
 40
3.2
  1
２
  7
BIGFONT
100
AcDbText
  0
CIRCLE
  5
561
330
1E
100
AcDbEntity
  8
0
  6
CONTINUOUS
 62
     7
100
AcDbCircle
 10
-71.75395999999998
 20
51.50036
 30
0.0
 40
2.5
  0
TEXT
  5
562
330
1E
100
AcDbEntity
  8
0
  6
CONTINUOUS
 62
     7
100
AcDbText
 10
-73.37220000000002
 20
49.75128
 30
0.0
 40
3.2
  1
３
  7
BIGFONT
100
AcDbText
  0
TEXT
  5
563
330
1E
100
AcDbEntity
  8
0
  6
CONTINUOUS
 62
     7
100
AcDbText
 10
-68.11808
 20
49.84052
 30
0.0
 40
3.2
  1
D10
  7
BIGFONT
100
AcDbText
  0
LINE
  5
564
330
1E
100
AcDbEntity
  8
0
  6
CONTINUOUS
 62
     7
100
AcDbLine
 10
-75.05844
 20
49.0
 30
0.0
 11
-59.05844
 21
49.0
 31
0.0
  0
LINE
  5
565
330
1E
100
AcDbEntity
  8
0
  6
CONTINUOUS
 62
     7
100
AcDbLine
 10
-104.4818
 20
60.27591999999999
 30
0.0
 11
-104.4818
 21
120.29524
 31
0.0
  0
LINE
  5
566
330
1E
100
AcDbEntity
  8
0
  6
CONTINUOUS
 62
     7
100
AcDbLine
 10
-97.93843999999999
 20
120.29524
 30
0.0
 11
-105.2818
 21
120.29524
 31
0.0
  0
LINE
  5
567
330
1E
100
AcDbEntity
  8
0
  6
CONTINUOUS
 62
     7
100
AcDbLine
 10
-98.05844
 20
60.27591999999999
 30
0.0
 11
-105.2818
 21
60.27591999999999
 31
0.0
  0
LINE
  5
568
330
1E
100
AcDbEntity
  8
0
  6
CONTINUOUS
 62
     7
100
AcDbLine
 10
-104.15946
 20
119.0949999999999
 30
0.0
 11
-104.481
 21
120.2949999999999
 31
0.0
  0
LINE
  5
569
330
1E
100
AcDbEntity
  8
0
  6
CONTINUOUS
 62
     7
100
AcDbLine
 10
-104.481
 20
120.2949999999999
 30
0.0
 11
-104.80253
 21
119.0949999999999
 31
0.0
  0
LINE
  5
56A
330
1E
100
AcDbEntity
  8
0
  6
CONTINUOUS
 62
     7
100
AcDbLine
 10
-104.80253
 20
61.475
 30
0.0
 11
-104.481
 21
60.27499999999999
 31
0.0
  0
LINE
  5
56B
330
1E
100
AcDbEntity
  8
0
  6
CONTINUOUS
 62
     7
100
AcDbLine
 10
-104.481
 20
60.27499999999999
 30
0.0
 11
-104.15946
 21
61.475
 31
0.0
  0
LINE
  5
56C
330
1E
100
AcDbEntity
  8
0
  6
CONTINUOUS
 62
     7
100
AcDbLine
 10
-104.4818
 20
120.29524
 30
0.0
 11
-104.4818
 21
125.0393199999999
 31
0.0
  0
LINE
  5
56D
330
1E
100
AcDbEntity
  8
0
  6
CONTINUOUS
 62
     7
100
AcDbLine
 10
-98.05844
 20
125.0393199999999
 30
0.0
 11
-105.2818
 21
125.0393199999999
 31
0.0
  0
LINE
  5
56E
330
1E
100
AcDbEntity
  8
0
  6
CONTINUOUS
 62
     7
100
AcDbLine
 10
-104.15946
 20
123.839
 30
0.0
 11
-104.481
 21
125.039
 31
0.0
  0
LINE
  5
56F
330
1E
100
AcDbEntity
  8
0
  6
CONTINUOUS
 62
     7
100
AcDbLine
 10
-104.481
 20
125.039
 30
0.0
 11
-104.80253
 21
123.839
 31
0.0
  0
LINE
  5
570
330
1E
100
AcDbEntity
  8
0
  6
CONTINUOUS
 62
     7
100
AcDbLine
 10
-104.80253
 20
121.4949999999999
 30
0.0
 11
-104.481
 21
120.2949999999999
 31
0.0
  0
LINE
  5
571
330
1E
100
AcDbEntity
  8
0
  6
CONTINUOUS
 62
     7
100
AcDbLine
 10
-104.481
 20
120.2949999999999
 30
0.0
 11
-104.15946
 21
121.4949999999999
 31
0.0
  0
LINE
  5
572
330
1E
100
AcDbEntity
  8
0
  6
CONTINUOUS
 62
     7
100
AcDbLine
 10
-104.4818
 20
120.29524
 30
0.0
 11
-104.4818
 21
118.0452399999999
 31
0.0
  0
TEXT
  5
573
330
1E
100
AcDbEntity
  8
0
  6
CONTINUOUS
 62
     7
100
AcDbText
 10
-104.7453998898555
 20
119.9530861936749
 30
0.0
 40
3.2
  1
119
 50
90.0
 41
0.78125
  7
BIGFONT
100
AcDbText
  0
LINE
  5
574
330
1E
100
AcDbEntity
  8
0
  6
CONTINUOUS
 62
     7
100
AcDbLine
 10
-104.4818
 20
125.0393199999999
 30
0.0
 11
-104.4818
 21
127.0412399999997
 31
0.0
  0
LINE
  5
575
330
1E
100
AcDbEntity
  8
0
  6
CONTINUOUS
 62
     7
100
AcDbLine
 10
-100.5617199999999
 20
127.0412399999997
 30
0.0
 11
-105.2818
 21
127.0412399999997
 31
0.0
  0
LINE
  5
576
330
1E
100
AcDbEntity
  8
0
  6
CONTINUOUS
 62
     7
100
AcDbLine
 10
-104.4818
 20
129.4412399999999
 30
0.0
 11
-104.4818
 21
127.0412399999997
 31
0.0
  0
LINE
  5
577
330
1E
100
AcDbEntity
  8
0
  6
CONTINUOUS
 62
     7
100
AcDbLine
 10
-104.80253
 20
128.241
 30
0.0
 11
-104.481
 21
127.041
 31
0.0
  0
LINE
  5
578
330
1E
100
AcDbEntity
  8
0
  6
CONTINUOUS
 62
     7
100
AcDbLine
 10
-104.481
 20
127.041
 30
0.0
 11
-104.15946
 21
128.241
 31
0.0
  0
LINE
  5
579
330
1E
100
AcDbEntity
  8
0
  6
CONTINUOUS
 62
     7
100
AcDbLine
 10
-104.4818
 20
125.0393199999999
 30
0.0
 11
-104.4818
 21
122.6393199999999
 31
0.0
  0
LINE
  5
57A
330
1E
100
AcDbEntity
  8
0
  6
CONTINUOUS
 62
     7
100
AcDbLine
 10
-104.15946
 20
123.839
 30
0.0
 11
-104.481
 21
125.039
 31
0.0
  0
LINE
  5
57B
330
1E
100
AcDbEntity
  8
0
  6
CONTINUOUS
 62
     7
100
AcDbLine
 10
-104.481
 20
125.039
 30
0.0
 11
-104.80253
 21
123.839
 31
0.0
  0
LINE
  5
57C
330
1E
100
AcDbEntity
  8
0
  6
CONTINUOUS
 62
     7
100
AcDbLine
 10
-104.4818
 20
129.4412399999999
 30
0.0
 11
-104.4818
 21
134.5412399999997
 31
0.0
  0
TEXT
  5
57D
330
1E
100
AcDbEntity
  8
0
  6
CONTINUOUS
 62
     7
100
AcDbText
 10
-104.8818
 20
129.5412399999999
 30
0.0
 40
3.2
  1
50
 50
90.0
 41
0.78125
  7
BIGFONT
100
AcDbText
  0
LINE
  5
57E
330
1E
100
AcDbEntity
  8
0
  6
CONTINUOUS
 62
     7
100
AcDbLine
 10
-105.2769199999999
 20
59.22752
 30
0.0
 11
-98.04672
 21
59.22752
 31
0.0
  0
TEXT
  5
57F
330
1E
100
AcDbEntity
  8
0
  6
CONTINUOUS
 62
     7
100
AcDbText
 10
-229.7466399999999
 20
56.04088
 30
0.0
 40
3.2
  1
105
 50
90.0
  7
BIGFONT
100
AcDbText
  0
LINE
  5
580
330
1E
100
AcDbEntity
  8
0
  6
CONTINUOUS
 62
     7
100
AcDbLine
 10
-104.4818
 20
55.98488
 30
0.0
 11
-104.4818
 21
61.99184
 31
0.0
  0
POINT
  5
581
330
1E
100
AcDbEntity
  8
0
  6
CONTINUOUS
 62
     7
100
AcDbPoint
 10
-104.4818
 20
59.22752
 30
0.0
  0
TEXT
  5
582
330
1E
100
AcDbEntity
  8
0
  6
CONTINUOUS
 62
     7
100
AcDbText
 10
-104.86712
 20
57.54024000000001
 30
0.0
 40
3.2
  1
26
 50
90.0
  7
BIGFONT
100
AcDbText
  0
TEXT
  5
583
330
1E
100
AcDbEntity
  8
0
  6
CONTINUOUS
 62
     7
100
AcDbText
 10
-104.86816
 20
49.95692
 30
0.0
 40
3.2
  1
55
 50
90.0
  7
BIGFONT
100
AcDbText
  0
LINE
  5
584
330
1E
100
AcDbEntity
  8
0
  6
CONTINUOUS
 62
     7
100
AcDbLine
 10
-104.4818
 20
50.25412
 30
0.0
 11
-104.4818
 21
57.0
 31
0.0
  0
LINE
  5
585
330
1E
100
AcDbEntity
  8
0
  6
CONTINUOUS
 62
     7
100
AcDbLine
 10
-104.4818
 20
57.0
 30
0.0
 11
-104.4818
 21
59.4
 31
0.0
  0
LINE
  5
586
330
1E
100
AcDbEntity
  8
0
  6
CONTINUOUS
 62
     7
100
AcDbLine
 10
-104.15946
 20
55.8
 30
0.0
 11
-104.481
 21
57.0
 31
0.0
  0
LINE
  5
587
330
1E
100
AcDbEntity
  8
0
  6
CONTINUOUS
 62
     7
100
AcDbLine
 10
-104.481
 20
57.0
 30
0.0
 11
-104.80253
 21
55.8
 31
0.0
  0
LINE
  5
588
330
1E
100
AcDbEntity
  8
0
  6
CONTINUOUS
 62
     7
100
AcDbLine
 10
-67.05844
 20
125.0416799999999
 30
0.0
 11
-67.05844
 21
120.2703999999999
 31
0.0
  0
LINE
  5
589
330
1E
100
AcDbEntity
  8
0
  6
CONTINUOUS
 62
     7
100
AcDbLine
 10
-67.37953
 20
121.47
 30
0.0
 11
-67.058
 21
120.2699999999999
 31
0.0
  0
LINE
  5
58A
330
1E
100
AcDbEntity
  8
0
  6
CONTINUOUS
 62
     7
100
AcDbLine
 10
-67.058
 20
120.2699999999999
 30
0.0
 11
-66.73645999999999
 21
121.47
 31
0.0
  0
LINE
  5
58B
330
1E
100
AcDbEntity
  8
0
  6
CONTINUOUS
 62
     7
100
AcDbLine
 10
-67.05844
 20
110.2703999999999
 30
0.0
 11
-67.05844
 21
100.2704
 31
0.0
  0
LINE
  5
58C
330
1E
100
AcDbEntity
  8
0
  6
CONTINUOUS
 62
     7
100
AcDbLine
 10
-67.37953
 20
101.4699999999999
 30
0.0
 11
-67.058
 21
100.2699999999999
 31
0.0
  0
LINE
  5
58D
330
1E
100
AcDbEntity
  8
0
  6
CONTINUOUS
 62
     7
100
AcDbLine
 10
-67.058
 20
100.2699999999999
 30
0.0
 11
-66.73645999999999
 21
101.4699999999999
 31
0.0
  0
LINE
  5
58E
330
1E
100
AcDbEntity
  8
0
  6
CONTINUOUS
 62
     7
100
AcDbLine
 10
-67.05844
 20
100.2704
 30
0.0
 11
-67.05844
 21
90.27039999999999
 31
0.0
  0
LINE
  5
58F
330
1E
100
AcDbEntity
  8
0
  6
CONTINUOUS
 62
     7
100
AcDbLine
 10
-67.37953
 20
91.47
 30
0.0
 11
-67.058
 21
90.26999999999999
 31
0.0
  0
LINE
  5
590
330
1E
100
AcDbEntity
  8
0
  6
CONTINUOUS
 62
     7
100
AcDbLine
 10
-67.058
 20
90.26999999999999
 30
0.0
 11
-66.73645999999999
 21
91.47
 31
0.0
  0
LINE
  5
591
330
1E
100
AcDbEntity
  8
0
  6
CONTINUOUS
 62
     7
100
AcDbLine
 10
-67.05844
 20
90.27039999999999
 30
0.0
 11
-67.05844
 21
80.27039999999997
 31
0.0
  0
LINE
  5
592
330
1E
100
AcDbEntity
  8
0
  6
CONTINUOUS
 62
     7
100
AcDbLine
 10
-67.37953
 20
81.47
 30
0.0
 11
-67.058
 21
80.26999999999999
 31
0.0
  0
LINE
  5
593
330
1E
100
AcDbEntity
  8
0
  6
CONTINUOUS
 62
     7
100
AcDbLine
 10
-67.058
 20
80.26999999999999
 30
0.0
 11
-66.73645999999999
 21
81.47
 31
0.0
  0
LINE
  5
594
330
1E
100
AcDbEntity
  8
0
  6
CONTINUOUS
 62
     7
100
AcDbLine
 10
-67.05844
 20
80.27039999999997
 30
0.0
 11
-67.05844
 21
70.27039999999999
 31
0.0
  0
LINE
  5
595
330
1E
100
AcDbEntity
  8
0
  6
CONTINUOUS
 62
     7
100
AcDbLine
 10
-67.37953
 20
71.47
 30
0.0
 11
-67.058
 21
70.27
 31
0.0
  0
LINE
  5
596
330
1E
100
AcDbEntity
  8
0
  6
CONTINUOUS
 62
     7
100
AcDbLine
 10
-67.058
 20
70.27
 30
0.0
 11
-66.73645999999999
 21
71.47
 31
0.0
  0
LINE
  5
597
330
1E
100
AcDbEntity
  8
0
  6
CONTINUOUS
 62
     7
100
AcDbLine
 10
-83.05379999999997
 20
134.4155199999997
 30
0.0
 11
-83.05379999999997
 21
60.28124
 31
0.0
  0
LINE
  5
598
330
1E
100
AcDbEntity
  8
0
  6
CONTINUOUS
 62
     7
100
AcDbLine
 10
-83.37453000000001
 20
61.481
 30
0.0
 11
-83.053
 21
60.28100000000002
 31
0.0
  0
LINE
  5
599
330
1E
100
AcDbEntity
  8
0
  6
CONTINUOUS
 62
     7
100
AcDbLine
 10
-83.053
 20
60.28100000000002
 30
0.0
 11
-82.73146
 21
61.481
 31
0.0
  0
LINE
  5
59A
330
1E
100
AcDbEntity
  8
0
  6
CONTINUOUS
 62
     7
100
AcDbLine
 10
-75.05844
 20
49.0
 30
0.0
 11
-75.05844
 21
59.24124
 31
0.0
  0
LINE
  5
59B
330
1E
100
AcDbEntity
  8
0
  6
CONTINUOUS
 62
     7
100
AcDbLine
 10
-74.73645999999998
 20
58.041
 30
0.0
 11
-75.058
 21
59.24100000000001
 31
0.0
  0
LINE
  5
59C
330
1E
100
AcDbEntity
  8
0
  6
CONTINUOUS
 62
     7
100
AcDbLine
 10
-75.058
 20
59.24100000000001
 30
0.0
 11
-75.37953
 21
58.041
 31
0.0
  0
POINT
  5
59D
330
1E
100
AcDbEntity
  8
0
  6
CONTINUOUS
 62
     1
100
AcDbPoint
 10
38.84
 20
120.2329199999999
 30
0.0
  0
POINT
  5
59E
330
1E
100
AcDbEntity
  8
0
  6
CONTINUOUS
 62
     7
100
AcDbPoint
 10
38.84
 20
110.23292
 30
0.0
  0
POINT
  5
59F
330
1E
100
AcDbEntity
  8
0
  6
CONTINUOUS
 62
     1
100
AcDbPoint
 10
38.84
 20
100.2329199999999
 30
0.0
  0
POINT
  5
5A0
330
1E
100
AcDbEntity
  8
0
  6
CONTINUOUS
 62
     1
100
AcDbPoint
 10
38.84
 20
90.23291999999999
 30
0.0
  0
POINT
  5
5A1
330
1E
100
AcDbEntity
  8
0
  6
CONTINUOUS
 62
     1
100
AcDbPoint
 10
38.84
 20
80.23291999999996
 30
0.0
  0
POINT
  5
5A2
330
1E
100
AcDbEntity
  8
0
  6
CONTINUOUS
 62
     1
100
AcDbPoint
 10
38.84
 20
70.23291999999999
 30
0.0
  0
POINT
  5
5A3
330
1E
100
AcDbEntity
  8
0
  6
CONTINUOUS
 62
     1
100
AcDbPoint
 10
38.9408
 20
60.42228000000001
 30
0.0
  0
LINE
  5
5A4
330
1E
100
AcDbEntity
  8
0
  6
CONTINUOUS
 62
     7
100
AcDbLine
 10
34.97999999999999
 20
57.0
 30
0.0
 11
34.97999999999999
 21
57.62291999999999
 31
0.0
  0
LINE
  5
5A5
330
1E
100
AcDbEntity
  8
0
  6
CONTINUOUS
 62
     7
100
AcDbLine
 10
34.97999999999999
 20
57.62291999999999
 30
0.0
 11
34.97999999999999
 21
65.28628000000001
 31
0.0
  0
LINE
  5
5A6
330
1E
100
AcDbEntity
  8
0
  6
CONTINUOUS
 62
     7
100
AcDbLine
 10
34.97999999999999
 20
65.28628000000001
 30
0.0
 11
34.97999999999999
 21
126.6399999999999
 31
0.0
  0
LINE
  5
5A7
330
1E
100
AcDbEntity
  8
0
  6
CONTINUOUS
 62
     7
100
AcDbLine
 10
50.93108
 20
78.4718
 30
0.0
 11
41.06144
 21
63.6152
 31
0.0
  0
LINE
  5
5A8
330
1E
100
AcDbEntity
  8
0
  6
CONTINUOUS
 62
     7
100
AcDbLine
 10
41.45719
 20
64.79245999999999
 30
0.0
 11
41.061
 21
63.615
 31
0.0
  0
LINE
  5
5A9
330
1E
100
AcDbEntity
  8
0
  6
CONTINUOUS
 62
     7
100
AcDbLine
 10
41.061
 20
63.615
 30
0.0
 11
41.99284
 21
64.43661
 31
0.0
  0
LINE
  5
5AA
330
1E
100
AcDbEntity
  8
0
  6
CONTINUOUS
 62
     7
100
AcDbLine
 10
55.49204
 20
48.99824
 30
0.0
 11
49.30124
 21
58.84123999999999
 31
0.0
  0
LINE
  5
5AB
330
1E
100
AcDbEntity
  8
0
  6
CONTINUOUS
 62
     7
100
AcDbLine
 10
50.21206
 20
57.9964
 30
0.0
 11
49.301
 21
58.841
 31
0.0
  0
LINE
  5
5AC
330
1E
100
AcDbEntity
  8
0
  6
CONTINUOUS
 62
     7
100
AcDbLine
 10
49.301
 20
58.841
 30
0.0
 11
49.6677
 21
57.65401999999999
 31
0.0
  0
LINE
  5
5AD
330
1E
100
AcDbEntity
  8
0
  6
CONTINUOUS
 62
     7
100
AcDbLine
 10
55.49204
 20
48.99824
 30
0.0
 11
52.98
 21
59.22508
 31
0.0
  0
LINE
  5
5AE
330
1E
100
AcDbEntity
  8
0
  6
CONTINUOUS
 62
     7
100
AcDbLine
 10
53.5785
 20
58.13634
 30
0.0
 11
52.98
 21
59.225
 31
0.0
  0
LINE
  5
5AF
330
1E
100
AcDbEntity
  8
0
  6
CONTINUOUS
 62
     7
100
AcDbLine
 10
52.98
 20
59.225
 30
0.0
 11
52.95399
 21
57.98294
 31
0.0
  0
LINE
  5
5B0
330
1E
100
AcDbEntity
  8
0
  6
CONTINUOUS
 62
     7
100
AcDbLine
 10
64.59064000000001
 20
70.18132
 30
0.0
 11
56.97259999999999
 21
60.8
 31
0.0
  0
LINE
  5
5B1
330
1E
100
AcDbEntity
  8
0
  6
CONTINUOUS
 62
     7
100
AcDbLine
 10
57.47884
 20
61.93423000000001
 30
0.0
 11
56.972
 21
60.8
 31
0.0
  0
LINE
  5
5B2
330
1E
100
AcDbEntity
  8
0
  6
CONTINUOUS
 62
     7
100
AcDbLine
 10
56.972
 20
60.8
 30
0.0
 11
57.97806
 21
61.52885
 31
0.0
  0
LINE
  5
5B3
330
1E
100
AcDbEntity
  8
0
  6
CONTINUOUS
 62
     7
100
AcDbLine
 10
64.5904
 20
70.18104
 30
0.0
 11
80.59040000000001
 21
70.18104
 31
0.0
  0
TEXT
  5
5B4
330
1E
100
AcDbEntity
  8
0
  6
CONTINUOUS
 62
     7
100
AcDbText
 10
71.59411999999997
 20
71.14676
 30
0.0
 40
3.2
  1
D13
  7
BIGFONT
100
AcDbText
  0
CIRCLE
  5
5B5
330
1E
100
AcDbEntity
  8
0
  6
CONTINUOUS
 62
     7
100
AcDbCircle
 10
67.5954
 20
72.68019999999999
 30
0.0
 40
2.5
  0
TEXT
  5
5B6
330
1E
100
AcDbEntity
  8
0
  6
CONTINUOUS
 62
     7
100
AcDbText
 10
65.97944
 20
71.15184000000002
 30
0.0
 40
3.2
  1
２
  7
BIGFONT
100
AcDbText
  0
LINE
  5
5B7
330
1E
100
AcDbEntity
  8
0
  6
CONTINUOUS
 62
     7
100
AcDbLine
 10
221.5924
 20
-84.70504
 30
0.0
 11
226.99252
 21
-78.26944000000001
 31
0.0
  0
LINE
  5
5B8
330
1E
100
AcDbEntity
  8
0
  6
CONTINUOUS
 62
     7
100
AcDbLine
 10
215.0
 20
-90.26196
 30
0.0
 11
221.5924
 21
-84.70504
 31
0.0
  0
ARC
  5
5B9
330
1E
100
AcDbEntity
  8
0
  6
CONTINUOUS
 62
     7
100
AcDbCircle
 10
221.5932399999999
 20
-84.70404
 30
0.0
 40
2.76404
100
AcDbArc
 50
50.0
 51
220.1299999999999
  0
ARC
  5
5BA
330
1E
100
AcDbEntity
  8
0
  6
CONTINUOUS
 62
     7
100
AcDbCircle
 10
222.2016899999999
 20
-85.09149
 30
0.0
 40
2.76407
100
AcDbArc
 50
65.019261
 51
89.89376100000001
  0
ARC
  5
5BB
330
1E
100
AcDbEntity
  8
0
  6
CONTINUOUS
 62
     7
100
AcDbCircle
 10
221.1053299999999
 20
-84.17215999999998
 30
0.0
 40
2.76407
100
AcDbArc
 50
35.019261
 51
59.893761
  0
ARC
  5
5BC
330
1E
100
AcDbEntity
  8
0
  6
CONTINUOUS
 62
     7
100
AcDbCircle
 10
221.06001
 20
-84.21753999999998
 30
0.0
 40
2.764219999999999
100
AcDbArc
 50
210.2403199999999
 51
235.11342
  0
ARC
  5
5BD
330
1E
100
AcDbEntity
  8
0
  6
CONTINUOUS
 62
     7
100
AcDbCircle
 10
221.98192
 20
-85.31181999999999
 30
0.0
 40
2.764219999999999
100
AcDbArc
 50
180.24032
 51
205.1134199999999
  0
TEXT
  5
5BE
330
1E
100
AcDbEntity
  8
0
  6
CONTINUOUS
 62
     7
100
AcDbText
 10
215.7275999999999
 20
-85.48218
 30
0.0
 40
3.2
  1
１７０°
 50
39.88
 41
0.78125
  7
BIGFONT
100
AcDbText
  0
LINE
  5
5BF
330
1E
100
AcDbEntity
  8
0
  6
CONTINUOUS
 62
     7
100
AcDbLine
 10
172.5999999999999
 20
-40.93199999999998
 30
0.0
 11
177.68596
 21
-35.86195999999999
 31
0.0
  0
LINE
  5
5C0
330
1E
100
AcDbEntity
  8
0
  6
CONTINUOUS
 62
     7
100
AcDbLine
 10
177.68596
 20
-35.86195999999999
 30
0.0
 11
227.0
 21
-35.86195999999999
 31
0.0
  0
LINE
  5
5C1
330
1E
100
AcDbEntity
  8
0
  6
CONTINUOUS
 62
     7
100
AcDbLine
 10
172.5999999999999
 20
-90.26196
 30
0.0
 11
172.5999999999999
 21
-40.93199999999998
 31
0.0
  0
LINE
  5
5C2
330
1E
100
AcDbEntity
  8
0
  6
CONTINUOUS
 62
     7
100
AcDbLine
 10
179.1926799999997
 20
-47.5454
 30
0.0
 11
184.2786399999999
 21
-42.47538
 31
0.0
  0
LINE
  5
5C3
330
1E
100
AcDbEntity
  8
0
  6
CONTINUOUS
 62
     7
100
AcDbLine
 10
178.39195
 20
-36.57017
 30
0.0
 11
184.84344
 21
-43.04196
 31
0.0
  0
LINE
  5
5C4
330
1E
100
AcDbEntity
  8
0
  6
CONTINUOUS
 62
     7
100
AcDbLine
 10
173.3059899999999
 20
-41.64020999999999
 30
0.0
 11
179.75747
 21
-48.11196999999999
 31
0.0
  0
LINE
  5
5C5
330
1E
100
AcDbEntity
  8
0
  6
CONTINUOUS
 62
     7
100
AcDbLine
 10
183.6551399999999
 20
-43.54991
 30
0.0
 11
184.2779999999999
 21
-42.475
 31
0.0
  0
LINE
  5
5C6
330
1E
100
AcDbEntity
  8
0
  6
CONTINUOUS
 62
     7
100
AcDbLine
 10
184.2779999999999
 20
-42.475
 30
0.0
 11
183.2011299999999
 21
-43.09447
 31
0.0
  0
LINE
  5
5C7
330
1E
100
AcDbEntity
  8
0
  6
CONTINUOUS
 62
     7
100
AcDbLine
 10
179.81485
 20
-46.47007999999998
 30
0.0
 11
179.192
 21
-47.545
 31
0.0
  0
LINE
  5
5C8
330
1E
100
AcDbEntity
  8
0
  6
CONTINUOUS
 62
     7
100
AcDbLine
 10
179.192
 20
-47.545
 30
0.0
 11
180.26886
 21
-46.92552
 31
0.0
  0
TEXT
  5
5C9
330
1E
100
AcDbEntity
  8
0
  6
CONTINUOUS
 62
     7
100
AcDbText
 10
181.62143
 20
-50.20745
 30
0.0
 40
3.2
  1
１８０
 50
44.9
 41
0.78125
  7
BIGFONT
100
AcDbText
  0
LINE
  5
5CA
330
1E
100
AcDbEntity
  8
0
  6
CONTINUOUS
 62
     7
100
AcDbLine
 10
221.5924
 20
57.0
 30
0.0
 11
221.5924
 21
62.6
 31
0.0
  0
LINE
  5
5CB
330
1E
100
AcDbEntity
  8
0
  6
CONTINUOUS
 62
     7
100
AcDbLine
 10
-167.35388
 20
-84.71491999999997
 30
0.0
 11
-161.95376
 21
-78.27932
 31
0.0
  0
LINE
  5
5CC
330
1E
100
AcDbEntity
  8
0
  6
CONTINUOUS
 62
     7
100
AcDbLine
 10
-173.94628
 20
-90.27184
 30
0.0
 11
-167.35388
 21
-84.71491999999997
 31
0.0
  0
LINE
  5
5CD
330
1E
100
AcDbEntity
  8
0
  6
CONTINUOUS
 62
     7
100
AcDbLine
 10
-42.47352
 20
-84.71491999999997
 30
0.0
 11
-37.0734
 21
-78.27932
 31
0.0
  0
LINE
  5
5CE
330
1E
100
AcDbEntity
  8
0
  6
CONTINUOUS
 62
     7
100
AcDbLine
 10
-49.06591999999999
 20
-90.27184
 30
0.0
 11
-42.47352
 21
-84.71491999999997
 31
0.0
  0
LINE
  5
60F
330
1E
100
AcDbEntity
  8
2
  6
CONTINUOUS
 62
     7
100
AcDbLine
 10
69.3311
 20
-141.8086999999998
 30
0.0
 11
137.3310999999999
 21
-141.8086999999998
 31
0.0
  0
LINE
  5
610
330
1E
100
AcDbEntity
  8
2
  6
CONTINUOUS
 62
     7
100
AcDbLine
 10
137.3310999999999
 20
-166.8086999999998
 30
0.0
 11
137.3310999999999
 21
-141.8086999999998
 31
0.0
  0
LINE
  5
611
330
1E
100
AcDbEntity
  8
2
  6
CONTINUOUS
 62
     7
100
AcDbLine
 10
69.3311
 20
-166.8086999999998
 30
0.0
 11
137.3310999999999
 21
-166.8086999999998
 31
0.0
  0
LINE
  5
612
330
1E
100
AcDbEntity
  8
2
  6
CONTINUOUS
 62
     7
100
AcDbLine
 10
69.3311
 20
-166.8086999999998
 30
0.0
 11
69.3311
 21
-141.8086999999998
 31
0.0
  0
LINE
  5
613
330
1E
100
AcDbEntity
  8
2
  6
CONTINUOUS
 62
     7
100
AcDbLine
 10
69.3311
 20
-148.8086999999999
 30
0.0
 11
137.3310999999999
 21
-148.8086999999999
 31
0.0
  0
LINE
  5
614
330
1E
100
AcDbEntity
  8
2
  6
CONTINUOUS
 62
     7
100
AcDbLine
 10
69.3311
 20
-154.8086999999999
 30
0.0
 11
137.3310999999999
 21
-154.8086999999999
 31
0.0
  0
LINE
  5
615
330
1E
100
AcDbEntity
  8
2
  6
CONTINUOUS
 62
     7
100
AcDbLine
 10
69.3311
 20
-160.8086999999999
 30
0.0
 11
137.3310999999999
 21
-160.8086999999999
 31
0.0
  0
LINE
  5
616
330
1E
100
AcDbEntity
  8
2
  6
CONTINUOUS
 62
     7
100
AcDbLine
 10
117.3310999999999
 20
-166.8086999999998
 30
0.0
 11
117.3310999999999
 21
-148.8086999999999
 31
0.0
  0
TEXT
  5
617
330
1E
100
AcDbEntity
  8
2
  6
CONTINUOUS
 62
     7
100
AcDbText
 10
75.17759999999999
 20
-153.8086999999999
 30
0.0
 40
4.0
  1
鉄　　筋
  7
BIGFONT
100
AcDbText
  0
TEXT
  5
618
330
1E
100
AcDbEntity
  8
2
  6
CONTINUOUS
 62
     7
100
AcDbText
 10
75.17759999999999
 20
-159.8086999999999
 30
0.0
 40
4.0
  1
コンクリート容積
  7
BIGFONT
100
AcDbText
  0
TEXT
  5
619
330
1E
100
AcDbEntity
  8
2
  6
CONTINUOUS
 62
     7
100
AcDbText
 10
75.17759999999999
 20
-165.8086999999999
 30
0.0
 40
4.0
  1
総　重　量
  7
BIGFONT
100
AcDbText
  0
TEXT
  5
61A
330
1E
100
AcDbEntity
  8
2
  6
CONTINUOUS
 62
     7
100
AcDbText
 10
77.10899999999998
 20
-147.5932
 30
0.0
 40
5.0
  1
重　量　内　訳　表
  7
BIGFONT
100
AcDbText
  0
TEXT
  5
61B
330
1E
100
AcDbEntity
  8
2
  6
CONTINUOUS
 62
     7
100
AcDbText
 10
119.2825999999999
 20
-153.8086999999999
 30
0.0
 40
3.2
  1
97.26
  7
BIGFONT
100
AcDbText
  0
TEXT
  5
61C
330
1E
100
AcDbEntity
  8
2
  6
CONTINUOUS
 62
     7
100
AcDbText
 10
133.0447251648404
 20
-153.8086999999999
 30
0.0
 40
2.799999999999998
  1
ｋｇ
 41
0.7
  7
BIGFONT
100
AcDbText
  0
TEXT
  5
61D
330
1E
100
AcDbEntity
  8
2
  6
CONTINUOUS
 62
     7
100
AcDbText
 10
119.5826
 20
-159.9372999999999
 30
0.0
 40
3.2
  1
0.965
  7
BIGFONT
100
AcDbText
  0
TEXT
  5
61E
330
1E
100
AcDbEntity
  8
2
  6
CONTINUOUS
 62
     7
100
AcDbText
 10
120.4826
 20
-165.9372999999999
 30
0.0
 40
3.2
  1
2320
  7
BIGFONT
100
AcDbText
  0
TEXT
  5
61F
330
1E
100
AcDbEntity
  8
2
  6
CONTINUOUS
 62
     7
100
AcDbText
 10
132.9936251648404
 20
-165.8086999999999
 30
0.0
 40
2.799999999999998
  1
ｋｇ
 41
0.7
  7
BIGFONT
100
AcDbText
  0
TEXT
  5
620
330
1E
100
AcDbEntity
  8
2
  6
CONTINUOUS
 62
     7
100
AcDbText
 10
133.1964911718372
 20
-159.8086999999999
 30
0.0
 40
2.799999999999998
  1
ｍ
 41
0.7
  7
BIGFONT
100
AcDbText
  0
TEXT
  5
621
330
1E
100
AcDbEntity
  8
2
  6
CONTINUOUS
 62
     7
100
AcDbText
 10
134.9419
 20
-158.6054999999998
 30
0.0
 40
1.199999999999999
  1
３
 41
0.8
  7
BIGFONT
100
AcDbText
  0
TEXT
  5
6E2
330
1E
100
AcDbEntity
  8
2
  6
CONTINUOUS
 62
     7
100
AcDbText
 10
6.093900000000076
 20
-55.3136000000001
 30
0.0
 40
4.0
  1
径
  7
BIGFONT
100
AcDbText
  0
TEXT
  5
6E3
330
1E
100
AcDbEntity
  8
2
  6
CONTINUOUS
 62
     7
100
AcDbText
 10
-2.349999999999909
 20
-45.75170000000006
 30
0.0
 40
5.0
  1
鉄筋表
  7
BIGFONT
100
AcDbText
  0
TEXT
  5
6E4
330
1E
100
AcDbEntity
  8
2
  6
CONTINUOUS
 62
     7
100
AcDbText
 10
3.777200000000106
 20
-62.2944000000001
 30
0.0
 40
3.5
  1
D13
  7
BIGFONT
100
AcDbText
  0
TEXT
  5
6E5
330
1E
100
AcDbEntity
  8
2
  6
CONTINUOUS
 62
     7
100
AcDbText
 10
3.812500000000113
 20
-70.6758000000001
 30
0.0
 40
3.5
  1
D13
  7
BIGFONT
100
AcDbText
  0
TEXT
  5
6E6
330
1E
100
AcDbEntity
  8
2
  6
CONTINUOUS
 62
     7
100
AcDbText
 10
3.812500000000113
 20
-88.1758000000001
 30
0.0
 40
3.5
  1
D10
  7
BIGFONT
100
AcDbText
  0
TEXT
  5
6E7
330
1E
100
AcDbEntity
  8
2
  6
CONTINUOUS
 62
     7
100
AcDbText
 10
3.812500000000113
 20
-92.86910000000013
 30
0.0
 40
3.5
  1
D10
  7
BIGFONT
100
AcDbText
  0
TEXT
  5
6E8
330
1E
100
AcDbEntity
  8
2
  6
CONTINUOUS
 62
     7
100
AcDbText
 10
3.812500000000113
 20
-75.36910000000013
 30
0.0
 40
3.5
  1
D13
  7
BIGFONT
100
AcDbText
  0
TEXT
  5
6E9
330
1E
100
AcDbEntity
  8
2
  6
CONTINUOUS
 62
     7
100
AcDbText
 10
3.777200000000106
 20
-101.2944
 30
0.0
 40
3.5
  1
D10
  7
BIGFONT
100
AcDbText
  0
TEXT
  5
6EA
330
1E
100
AcDbEntity
  8
2
  6
CONTINUOUS
 62
     7
100
AcDbText
 10
3.777200000000106
 20
-109.2944000000001
 30
0.0
 40
3.5
  1
D13
  7
BIGFONT
100
AcDbText
  0
TEXT
  5
6EB
330
1E
100
AcDbEntity
  8
2
  6
CONTINUOUS
 62
     7
100
AcDbText
 10
3.777200000000106
 20
-117.2943999999999
 30
0.0
 40
3.5
  1
D10
  7
BIGFONT
100
AcDbText
  0
TEXT
  5
6EC
330
1E
100
AcDbEntity
  8
2
  6
CONTINUOUS
 62
     7
100
AcDbText
 10
3.777200000000106
 20
-125.2944
 30
0.0
 40
3.5
  1
D10
  7
BIGFONT
100
AcDbText
  0
LINE
  5
6ED
330
1E
100
AcDbEntity
  8
2
  6
CONTINUOUS
 62
     7
100
AcDbLine
 10
-9.668899999999895
 20
-135.8086999999999
 30
0.0
 11
137.3310999999999
 21
-135.8086999999999
 31
0.0
  0
LINE
  5
6EE
330
1E
100
AcDbEntity
  8
2
  6
CONTINUOUS
 62
     7
100
AcDbLine
 10
-9.668899999999895
 20
-127.8087000000001
 30
0.0
 11
137.3310999999999
 21
-127.8087000000001
 31
0.0
  0
LINE
  5
6EF
330
1E
100
AcDbEntity
  8
2
  6
CONTINUOUS
 62
     7
100
AcDbLine
 10
-9.668899999999895
 20
-119.8087000000001
 30
0.0
 11
137.3310999999999
 21
-119.8087000000001
 31
0.0
  0
LINE
  5
6F0
330
1E
100
AcDbEntity
  8
2
  6
CONTINUOUS
 62
     7
100
AcDbLine
 10
-9.668899999999895
 20
-111.8087
 30
0.0
 11
137.3310999999999
 21
-111.8087
 31
0.0
  0
LINE
  5
6F1
330
1E
100
AcDbEntity
  8
2
  6
CONTINUOUS
 62
     7
100
AcDbLine
 10
-9.668899999999895
 20
-95.80870000000007
 30
0.0
 11
137.3310999999999
 21
-95.80870000000007
 31
0.0
  0
LINE
  5
6F2
330
1E
100
AcDbEntity
  8
2
  6
CONTINUOUS
 62
     7
100
AcDbLine
 10
-9.668899999999895
 20
-82.8087000000001
 30
0.0
 11
137.3310999999999
 21
-82.8087000000001
 31
0.0
  0
LINE
  5
6F3
330
1E
100
AcDbEntity
  8
2
  6
CONTINUOUS
 62
     7
100
AcDbLine
 10
-9.668899999999895
 20
-103.8086999999999
 30
0.0
 11
137.3310999999999
 21
-103.8086999999999
 31
0.0
  0
LINE
  5
6F4
330
1E
100
AcDbEntity
  8
2
  6
CONTINUOUS
 62
     7
100
AcDbLine
 10
-9.668899999999895
 20
-56.80870000000011
 30
0.0
 11
137.3310999999999
 21
-56.80870000000011
 31
0.0
  0
LINE
  5
6F5
330
1E
100
AcDbEntity
  8
2
  6
CONTINUOUS
 62
     7
100
AcDbLine
 10
-9.668899999999895
 20
-64.8087000000001
 30
0.0
 11
137.3310999999999
 21
-64.8087000000001
 31
0.0
  0
LINE
  5
6F6
330
1E
100
AcDbEntity
  8
2
  6
CONTINUOUS
 62
     7
100
AcDbLine
 10
-9.668899999999895
 20
-48.80870000000011
 30
0.0
 11
137.3310999999999
 21
-48.80870000000011
 31
0.0
  0
LINE
  5
6F7
330
1E
100
AcDbEntity
  8
2
  6
CONTINUOUS
 62
     7
100
AcDbLine
 10
-9.668899999999895
 20
-135.8086999999999
 30
0.0
 11
-9.668899999999895
 21
-103.8086999999999
 31
0.0
  0
LINE
  5
6F8
330
1E
100
AcDbEntity
  8
2
  6
CONTINUOUS
 62
     7
100
AcDbLine
 10
0.3311000000001059
 20
-127.8087000000001
 30
0.0
 11
0.3311000000001059
 21
-48.80870000000011
 31
0.0
  0
LINE
  5
6F9
330
1E
100
AcDbEntity
  8
2
  6
CONTINUOUS
 62
     7
100
AcDbLine
 10
-9.668899999999895
 20
-64.8087000000001
 30
0.0
 11
-9.668899999999895
 21
-48.80870000000011
 31
0.0
  0
LINE
  5
6FA
330
1E
100
AcDbEntity
  8
2
  6
CONTINUOUS
 62
     7
100
AcDbLine
 10
-9.668899999999895
 20
-103.8086999999999
 30
0.0
 11
-9.668899999999895
 21
-64.8087000000001
 31
0.0
  0
TEXT
  5
6FB
330
1E
100
AcDbEntity
  8
2
  6
CONTINUOUS
 62
     7
100
AcDbText
 10
-6.222799999999892
 20
-117.2943999999999
 30
0.0
 40
3.5
  1
６
  7
BIGFONT
100
AcDbText
  0
TEXT
  5
6FC
330
1E
100
AcDbEntity
  8
2
  6
CONTINUOUS
 62
     7
100
AcDbText
 10
-6.222799999999892
 20
-125.2944
 30
0.0
 40
3.5
  1
７
  7
BIGFONT
100
AcDbText
  0
TEXT
  5
6FD
330
1E
100
AcDbEntity
  8
2
  6
CONTINUOUS
 62
     7
100
AcDbText
 10
-6.222799999999892
 20
-101.2944
 30
0.0
 40
3.5
  1
４
  7
BIGFONT
100
AcDbText
  0
TEXT
  5
6FE
330
1E
100
AcDbEntity
  8
2
  6
CONTINUOUS
 62
     7
100
AcDbText
 10
-6.222799999999892
 20
-109.2944000000001
 30
0.0
 40
3.5
  1
５
  7
BIGFONT
100
AcDbText
  0
TEXT
  5
6FF
330
1E
100
AcDbEntity
  8
2
  6
CONTINUOUS
 62
     7
100
AcDbText
 10
-6.187499999999886
 20
-88.1758000000001
 30
0.0
 40
3.5
  1
３
  7
BIGFONT
100
AcDbText
  0
TEXT
  5
700
330
1E
100
AcDbEntity
  8
2
  6
CONTINUOUS
 62
     7
100
AcDbText
 10
-6.222799999999892
 20
-62.2944000000001
 30
0.0
 40
3.5
  1
１
  7
BIGFONT
100
AcDbText
  0
TEXT
  5
701
330
1E
100
AcDbEntity
  8
2
  6
CONTINUOUS
 62
     7
100
AcDbText
 10
-6.187499999999886
 20
-70.6758000000001
 30
0.0
 40
3.5
  1
２
  7
BIGFONT
100
AcDbText
  0
TEXT
  5
702
330
1E
100
AcDbEntity
  8
2
  6
CONTINUOUS
 62
     7
100
AcDbText
 10
-8.946099999999887
 20
-55.1379000000001
 30
0.0
 40
4.0
  1
番号
  7
BIGFONT
100
AcDbText
  0
LINE
  5
703
330
1E
100
AcDbEntity
  8
2
  6
CONTINUOUS
 62
     7
100
AcDbLine
 10
137.3310999999999
 20
-135.8086999999999
 30
0.0
 11
137.3310999999999
 21
-103.8086999999999
 31
0.0
  0
LINE
  5
704
330
1E
100
AcDbEntity
  8
2
  6
CONTINUOUS
 62
     7
100
AcDbLine
 10
102.3311
 20
-135.8086999999999
 30
0.0
 11
102.3311
 21
-48.80870000000011
 31
0.0
  0
TEXT
  5
705
330
1E
100
AcDbEntity
  8
2
  6
CONTINUOUS
 62
     7
100
AcDbText
 10
85.06590000000008
 20
-134.0662
 30
0.0
 40
4.0
  1
合計
  7
BIGFONT
100
AcDbText
  0
TEXT
  5
706
330
1E
100
AcDbEntity
  8
2
  6
CONTINUOUS
 62
     7
100
AcDbText
 10
114.8765
 20
-134.0662
 30
0.0
 40
3.2
  1
97.26
  7
BIGFONT
100
AcDbText
  0
TEXT
  5
707
330
1E
100
AcDbEntity
  8
2
  6
CONTINUOUS
 62
     7
100
AcDbText
 10
129.0024999999999
 20
-134.0662
 30
0.0
 40
3.2
  1
ｋｇ
  7
BIGFONT
100
AcDbText
  0
TEXT
  5
708
330
1E
100
AcDbEntity
  8
2
  6
CONTINUOUS
 62
     7
100
AcDbText
 10
88.09916550422736
 20
-109.3323
 30
0.0
 40
3.5
  1
2717
  7
BIGFONT
100
AcDbText
  0
TEXT
  5
709
330
1E
100
AcDbEntity
  8
2
  6
CONTINUOUS
 62
     7
100
AcDbText
 10
86.86173566778075
 20
-117.3323
 30
0.0
 40
3.5
  1
2795
  7
BIGFONT
100
AcDbText
  0
LINE
  5
70A
330
1E
100
AcDbEntity
  8
2
  6
CONTINUOUS
 62
     7
100
AcDbLine
 10
33.3311000000001
 20
-127.8087000000001
 30
0.0
 11
33.3311000000001
 21
-48.80870000000011
 31
0.0
  0
LINE
  5
70B
330
1E
100
AcDbEntity
  8
2
  6
CONTINUOUS
 62
     7
100
AcDbLine
 10
51.3311000000001
 20
-127.8087000000001
 30
0.0
 11
51.3311000000001
 21
-48.80870000000011
 31
0.0
  0
LINE
  5
70C
330
1E
100
AcDbEntity
  8
2
  6
CONTINUOUS
 62
     7
100
AcDbLine
 10
69.3311000000001
 20
-127.8087000000001
 30
0.0
 11
69.3311000000001
 21
-48.80870000000011
 31
0.0
  0
LINE
  5
70D
330
1E
100
AcDbEntity
  8
2
  6
CONTINUOUS
 62
     7
100
AcDbLine
 10
84.33110000000011
 20
-127.8087000000001
 30
0.0
 11
84.33110000000011
 21
-48.80870000000011
 31
0.0
  0
LINE
  5
70E
330
1E
100
AcDbEntity
  8
2
  6
CONTINUOUS
 62
     7
100
AcDbLine
 10
15.3311000000001
 20
-127.8087000000001
 30
0.0
 11
15.3311000000001
 21
-48.80870000000011
 31
0.0
  0
TEXT
  5
70F
330
1E
100
AcDbEntity
  8
2
  6
CONTINUOUS
 62
     7
100
AcDbText
 10
19.26965234875501
 20
-117.3323000000001
 30
0.0
 40
3.5
  1
1370
  7
BIGFONT
100
AcDbText
  0
TEXT
  5
710
330
1E
100
AcDbEntity
  8
2
  6
CONTINUOUS
 62
     7
100
AcDbText
 10
23.30073653413023
 20
-125.3322999999999
 30
0.0
 40
3.5
  1
411
  7
BIGFONT
100
AcDbText
  0
TEXT
  5
711
330
1E
100
AcDbEntity
  8
2
  6
CONTINUOUS
 62
     7
100
AcDbText
 10
25.07277944111161
 20
-101.3322999999999
 30
0.0
 40
3.5
  1
80
  7
BIGFONT
100
AcDbText
  0
TEXT
  5
712
330
1E
100
AcDbEntity
  8
2
  6
CONTINUOUS
 62
     7
100
AcDbText
 10
19.13220167732309
 20
-109.3323
 30
0.0
 40
3.5
  1
1330
  7
BIGFONT
100
AcDbText
  0
TEXT
  5
713
330
1E
100
AcDbEntity
  8
2
  6
CONTINUOUS
 62
     7
100
AcDbText
 10
41.04219154709949
 20
-117.3323000000001
 30
0.0
 40
3.5
  1
55
  7
BIGFONT
100
AcDbText
  0
TEXT
  5
714
330
1E
100
AcDbEntity
  8
2
  6
CONTINUOUS
 62
     7
100
AcDbText
 10
45.03103794601543
 20
-125.3322999999999
 30
0.0
 40
3.5
  1
0
  7
BIGFONT
100
AcDbText
  0
TEXT
  5
715
330
1E
100
AcDbEntity
  8
2
  6
CONTINUOUS
 62
     7
100
AcDbText
 10
38.74558306665608
 20
-101.3322999999999
 30
0.0
 40
3.5
  1
320
  7
BIGFONT
100
AcDbText
  0
TEXT
  5
716
330
1E
100
AcDbEntity
  8
2
  6
CONTINUOUS
 62
     7
100
AcDbText
 10
41.04219154709949
 20
-109.3323
 30
0.0
 40
3.5
  1
57
  7
BIGFONT
100
AcDbText
  0
TEXT
  5
717
330
1E
100
AcDbEntity
  8
2
  6
CONTINUOUS
 62
     7
100
AcDbText
 10
21.68830360416655
 20
-69.95025091359849
 30
0.0
 40
3.5
  1
1117
  7
BIGFONT
100
AcDbText
  0
TEXT
  5
718
330
1E
100
AcDbEntity
  8
2
  6
CONTINUOUS
 62
     7
100
AcDbText
 10
20.55960129737854
 20
-75.82880954686228
 30
0.0
 40
3.5
  1
1317
  7
BIGFONT
100
AcDbText
  0
TEXT
  5
719
330
1E
100
AcDbEntity
  8
2
  6
CONTINUOUS
 62
     7
100
AcDbText
 10
19.43460690056213
 20
-93.82880954686227
 30
0.0
 40
3.5
  1
1380
  7
BIGFONT
100
AcDbText
  0
TEXT
  5
71A
330
1E
100
AcDbEntity
  8
2
  6
CONTINUOUS
 62
     7
100
AcDbText
 10
21.68830360416655
 20
-87.9502509135985
 30
0.0
 40
3.5
  1
670
  7
BIGFONT
100
AcDbText
  0
TEXT
  5
71B
330
1E
100
AcDbEntity
  8
2
  6
CONTINUOUS
 62
     7
100
AcDbText
 10
20.13138468265811
 20
-62.33230000000009
 30
0.0
 40
3.5
  1
1607
  7
BIGFONT
100
AcDbText
  0
TEXT
  5
71C
330
1E
100
AcDbEntity
  8
2
  6
CONTINUOUS
 62
     7
100
AcDbText
 10
41.04219154709949
 20
-75.82880954686228
 30
0.0
 40
3.5
  1
57
  7
BIGFONT
100
AcDbText
  0
TEXT
  5
71D
330
1E
100
AcDbEntity
  8
2
  6
CONTINUOUS
 62
     7
100
AcDbText
 10
41.04219154709949
 20
-87.9502509135985
 30
0.0
 40
3.5
  1
55
  7
BIGFONT
100
AcDbText
  0
TEXT
  5
71E
330
1E
100
AcDbEntity
  8
2
  6
CONTINUOUS
 62
     7
100
AcDbText
 10
41.04219154709949
 20
-93.82880954686227
 30
0.0
 40
3.5
  1
55
  7
BIGFONT
100
AcDbText
  0
TEXT
  5
71F
330
1E
100
AcDbEntity
  8
2
  6
CONTINUOUS
 62
     7
100
AcDbText
 10
41.04219154709949
 20
-62.33230000000009
 30
0.0
 40
3.5
  1
57
  7
BIGFONT
100
AcDbText
  0
TEXT
  5
720
330
1E
100
AcDbEntity
  8
2
  6
CONTINUOUS
 62
     7
100
AcDbText
 10
41.04219154709949
 20
-69.95025091359849
 30
0.0
 40
3.5
  1
57
  7
BIGFONT
100
AcDbText
  0
TEXT
  5
721
330
1E
100
AcDbEntity
  8
2
  6
CONTINUOUS
 62
     7
100
AcDbText
 10
73.79118515869162
 20
-109.3323
 30
0.0
 40
3.5
  1
30
  7
BIGFONT
100
AcDbText
  0
TEXT
  5
722
330
1E
100
AcDbEntity
  8
2
  6
CONTINUOUS
 62
     7
100
AcDbText
 10
73.79118515869162
 20
-117.3323
 30
0.0
 40
3.5
  1
30
  7
BIGFONT
100
AcDbText
  0
TEXT
  5
723
330
1E
100
AcDbEntity
  8
2
  6
CONTINUOUS
 62
     7
100
AcDbText
 10
63.78385355243631
 20
-125.3322999999999
 30
0.0
 40
3.5
  1
0
  7
BIGFONT
100
AcDbText
  0
TEXT
  5
724
330
1E
100
AcDbEntity
  8
2
  6
CONTINUOUS
 62
     7
100
AcDbText
 10
54.42492068952174
 20
-117.3323000000001
 30
0.0
 40
3.5
  1
1370
  7
BIGFONT
100
AcDbText
  0
TEXT
  5
725
330
1E
100
AcDbEntity
  8
2
  6
CONTINUOUS
 62
     7
100
AcDbText
 10
54.42492068952174
 20
-109.3323
 30
0.0
 40
3.5
  1
1330
  7
BIGFONT
100
AcDbText
  0
TEXT
  5
726
330
1E
100
AcDbEntity
  8
2
  6
CONTINUOUS
 62
     7
100
AcDbText
 10
60.42576845642791
 20
-101.3322999999999
 30
0.0
 40
3.5
  1
80
  7
BIGFONT
100
AcDbText
  0
TEXT
  5
727
330
1E
100
AcDbEntity
  8
2
  6
CONTINUOUS
 62
     7
100
AcDbText
 10
77.31717511317047
 20
-125.3322999999999
 30
0.0
 40
3.5
  1
0
  7
BIGFONT
100
AcDbText
  0
TEXT
  5
728
330
1E
100
AcDbEntity
  8
2
  6
CONTINUOUS
 62
     7
100
AcDbText
 10
92.34177916273994
 20
-125.3322999999999
 30
0.0
 40
3.5
  1
411
  7
BIGFONT
100
AcDbText
  0
TEXT
  5
729
330
1E
100
AcDbEntity
  8
2
  6
CONTINUOUS
 62
     7
100
AcDbText
 10
77.31717511317061
 20
-101.3322999999999
 30
0.0
 40
3.5
  1
0
  7
BIGFONT
100
AcDbText
  0
TEXT
  5
72A
330
1E
100
AcDbEntity
  8
2
  6
CONTINUOUS
 62
     7
100
AcDbText
 10
90.92757336959198
 20
-101.3322999999999
 30
0.0
 40
3.5
  1
480
  7
BIGFONT
100
AcDbText
  0
TEXT
  5
72B
330
1E
100
AcDbEntity
  8
2
  6
CONTINUOUS
 62
     7
100
AcDbText
 10
73.79118515869162
 20
-62.33230000000009
 30
0.0
 40
3.5
  1
30
  7
BIGFONT
100
AcDbText
  0
TEXT
  5
72C
330
1E
100
AcDbEntity
  8
2
  6
CONTINUOUS
 62
     7
100
AcDbText
 10
73.79118515869162
 20
-69.52032932312754
 30
0.0
 40
3.5
  1
30
  7
BIGFONT
100
AcDbText
  0
TEXT
  5
72D
330
1E
100
AcDbEntity
  8
2
  6
CONTINUOUS
 62
     7
100
AcDbText
 10
73.79118515869162
 20
-87.52032932312756
 30
0.0
 40
3.5
  1
30
  7
BIGFONT
100
AcDbText
  0
TEXT
  5
72E
330
1E
100
AcDbEntity
  8
2
  6
CONTINUOUS
 62
     7
100
AcDbText
 10
73.79118515869162
 20
-94.03088950402738
 30
0.0
 40
3.5
  1
30
  7
BIGFONT
100
AcDbText
  0
TEXT
  5
72F
330
1E
100
AcDbEntity
  8
2
  6
CONTINUOUS
 62
     7
100
AcDbText
 10
73.79118515869162
 20
-76.03088950402734
 30
0.0
 40
3.5
  1
30
  7
BIGFONT
100
AcDbText
  0
TEXT
  5
730
330
1E
100
AcDbEntity
  8
2
  6
CONTINUOUS
 62
     7
100
AcDbText
 10
57.95091064400072
 20
-75.82880954686228
 30
0.0
 40
3.5
  1
104
  7
BIGFONT
100
AcDbText
  0
TEXT
  5
731
330
1E
100
AcDbEntity
  8
2
  6
CONTINUOUS
 62
     7
100
AcDbText
 10
56.89977850194896
 20
-93.82880954686227
 30
0.0
 40
3.5
  1
970
  7
BIGFONT
100
AcDbText
  0
TEXT
  5
732
330
1E
100
AcDbEntity
  8
2
  6
CONTINUOUS
 62
     7
100
AcDbText
 10
56.89977850194896
 20
-87.9502509135985
 30
0.0
 40
3.5
  1
970
  7
BIGFONT
100
AcDbText
  0
TEXT
  5
733
330
1E
100
AcDbEntity
  8
2
  6
CONTINUOUS
 62
     7
100
AcDbText
 10
57.95091064400072
 20
-69.95025091359849
 30
0.0
 40
3.5
  1
104
  7
BIGFONT
100
AcDbText
  0
TEXT
  5
734
330
1E
100
AcDbEntity
  8
2
  6
CONTINUOUS
 62
     7
100
AcDbText
 10
57.95091064400072
 20
-62.33230000000009
 30
0.0
 40
3.5
  1
104
  7
BIGFONT
100
AcDbText
  0
TEXT
  5
735
330
1E
100
AcDbEntity
  8
2
  6
CONTINUOUS
 62
     7
100
AcDbText
 10
88.09916550422736
 20
-76.03088950402734
 30
0.0
 40
3.5
  1
1478
  7
BIGFONT
100
AcDbText
  0
TEXT
  5
736
330
1E
100
AcDbEntity
  8
2
  6
CONTINUOUS
 62
     7
100
AcDbText
 10
87.3920616774196
 20
-94.03088950402738
 30
0.0
 40
3.5
  1
2405
  7
BIGFONT
100
AcDbText
  0
TEXT
  5
737
330
1E
100
AcDbEntity
  8
2
  6
CONTINUOUS
 62
     7
100
AcDbText
 10
88.09916550422736
 20
-87.52032932312756
 30
0.0
 40
3.5
  1
1695
  7
BIGFONT
100
AcDbText
  0
TEXT
  5
738
330
1E
100
AcDbEntity
  8
2
  6
CONTINUOUS
 62
     7
100
AcDbText
 10
88.09916550422736
 20
-69.52032932312754
 30
0.0
 40
3.5
  1
1278
  7
BIGFONT
100
AcDbText
  0
TEXT
  5
739
330
1E
100
AcDbEntity
  8
2
  6
CONTINUOUS
 62
     7
100
AcDbText
 10
88.09916550422736
 20
-62.33230000000009
 30
0.0
 40
3.5
  1
1768
  7
BIGFONT
100
AcDbText
  0
TEXT
  5
73A
330
1E
100
AcDbEntity
  8
2
  6
CONTINUOUS
 62
     7
100
AcDbText
 10
21.07490000000006
 20
-55.31670000000008
 30
0.0
 40
4.0
  1
Ｌ１
  7
BIGFONT
100
AcDbText
  0
TEXT
  5
73B
330
1E
100
AcDbEntity
  8
2
  6
CONTINUOUS
 62
     7
100
AcDbText
 10
38.77370000000007
 20
-55.35210000000009
 30
0.0
 40
4.0
  1
Ｌ２
  7
BIGFONT
100
AcDbText
  0
TEXT
  5
73C
330
1E
100
AcDbEntity
  8
2
  6
CONTINUOUS
 62
     7
100
AcDbText
 10
75.13340000000017
 20
-55.31670000000008
 30
0.0
 40
4.0
  1
Ｒ
  7
BIGFONT
100
AcDbText
  0
TEXT
  5
73D
330
1E
100
AcDbEntity
  8
2
  6
CONTINUOUS
 62
     7
100
AcDbText
 10
55.96320000000014
 20
-55.28120000000011
 30
0.0
 40
4.0
  1
Ｌ３
  7
BIGFONT
100
AcDbText
  0
TEXT
  5
73E
330
1E
100
AcDbEntity
  8
2
  6
CONTINUOUS
 62
     7
100
AcDbText
 10
91.03450000000007
 20
-55.35210000000009
 30
0.0
 40
4.0
  1
Ｌ
  7
BIGFONT
100
AcDbText
  0
LINE
  5
73F
330
1E
100
AcDbEntity
  8
2
  6
CONTINUOUS
 62
     7
100
AcDbLine
 10
137.3310999999999
 20
-64.8087000000001
 30
0.0
 11
137.3310999999999
 21
-48.80870000000011
 31
0.0
  0
LINE
  5
740
330
1E
100
AcDbEntity
  8
2
  6
CONTINUOUS
 62
     7
100
AcDbLine
 10
117.3310999999999
 20
-127.8087000000001
 30
0.0
 11
117.3310999999999
 21
-48.80870000000011
 31
0.0
  0
LINE
  5
741
330
1E
100
AcDbEntity
  8
2
  6
CONTINUOUS
 62
     7
100
AcDbLine
 10
137.3310999999999
 20
-103.8086999999999
 30
0.0
 11
137.3310999999999
 21
-64.8087000000001
 31
0.0
  0
TEXT
  5
742
330
1E
100
AcDbEntity
  8
2
  6
CONTINUOUS
 62
     7
100
AcDbText
 10
108.7153492117894
 20
-125.3322999999999
 30
0.0
 40
3.5
  1
1
  7
BIGFONT
100
AcDbText
  0
TEXT
  5
743
330
1E
100
AcDbEntity
  8
2
  6
CONTINUOUS
 62
     7
100
AcDbText
 10
108.7153492117897
 20
-117.3323
 30
0.0
 40
3.5
  1
4
  7
BIGFONT
100
AcDbText
  0
TEXT
  5
744
330
1E
100
AcDbEntity
  8
2
  6
CONTINUOUS
 62
     7
100
AcDbText
 10
108.7153492117897
 20
-109.3323
 30
0.0
 40
3.5
  1
7
  7
BIGFONT
100
AcDbText
  0
TEXT
  5
745
330
1E
100
AcDbEntity
  8
2
  6
CONTINUOUS
 62
     7
100
AcDbText
 10
106.7708192694682
 20
-101.3322999999999
 30
0.0
 40
3.5
  1
12
  7
BIGFONT
100
AcDbText
  0
TEXT
  5
746
330
1E
100
AcDbEntity
  8
2
  6
CONTINUOUS
 62
     7
100
AcDbText
 10
124.0111516781577
 20
-125.3322999999999
 30
0.0
 40
3.5
  1
0.23
  7
BIGFONT
100
AcDbText
  0
TEXT
  5
747
330
1E
100
AcDbEntity
  8
2
  6
CONTINUOUS
 62
     7
100
AcDbText
 10
123.5939680854637
 20
-117.3323
 30
0.0
 40
3.5
  1
6.26
  7
BIGFONT
100
AcDbText
  0
TEXT
  5
748
330
1E
100
AcDbEntity
  8
2
  6
CONTINUOUS
 62
     7
100
AcDbText
 10
121.4037467819532
 20
-109.3323
 30
0.0
 40
3.5
  1
18.93
  7
BIGFONT
100
AcDbText
  0
TEXT
  5
749
330
1E
100
AcDbEntity
  8
2
  6
CONTINUOUS
 62
     7
100
AcDbText
 10
123.5939680854637
 20
-101.3322999999999
 30
0.0
 40
3.5
  1
3.23
  7
BIGFONT
100
AcDbText
  0
TEXT
  5
74A
330
1E
100
AcDbEntity
  8
2
  6
CONTINUOUS
 62
     7
100
AcDbText
 10
108.7153492117897
 20
-76.03088950402734
 30
0.0
 40
3.5
  1
2
  7
BIGFONT
100
AcDbText
  0
TEXT
  5
74B
330
1E
100
AcDbEntity
  8
2
  6
CONTINUOUS
 62
     7
100
AcDbText
 10
108.7153492117897
 20
-94.03088950402738
 30
0.0
 40
3.5
  1
8
  7
BIGFONT
100
AcDbText
  0
TEXT
  5
74C
330
1E
100
AcDbEntity
  8
2
  6
CONTINUOUS
 62
     7
100
AcDbText
 10
108.7153492117897
 20
-87.52032932312756
 30
0.0
 40
3.5
  1
8
  7
BIGFONT
100
AcDbText
  0
TEXT
  5
74D
330
1E
100
AcDbEntity
  8
2
  6
CONTINUOUS
 62
     7
100
AcDbText
 10
108.7153492117897
 20
-69.52032932312754
 30
0.0
 40
3.5
  1
2
  7
BIGFONT
100
AcDbText
  0
TEXT
  5
74E
330
1E
100
AcDbEntity
  8
2
  6
CONTINUOUS
 62
     7
100
AcDbText
 10
106.7708192694682
 20
-62.33230000000009
 30
0.0
 40
3.5
  1
15
  7
BIGFONT
100
AcDbText
  0
TEXT
  5
74F
330
1E
100
AcDbEntity
  8
2
  6
CONTINUOUS
 62
     7
100
AcDbText
 10
123.5939680854637
 20
-76.03088950402734
 30
0.0
 40
3.5
  1
2.94
  7
BIGFONT
100
AcDbText
  0
TEXT
  5
750
330
1E
100
AcDbEntity
  8
2
  6
CONTINUOUS
 62
     7
100
AcDbText
 10
121.8209322351142
 20
-94.03088950402738
 30
0.0
 40
3.5
  1
10.77
  7
BIGFONT
100
AcDbText
  0
TEXT
  5
751
330
1E
100
AcDbEntity
  8
2
  6
CONTINUOUS
 62
     7
100
AcDbText
 10
123.5939680854637
 20
-87.52032932312756
 30
0.0
 40
3.5
  1
7.59
  7
BIGFONT
100
AcDbText
  0
TEXT
  5
752
330
1E
100
AcDbEntity
  8
2
  6
CONTINUOUS
 62
     7
100
AcDbText
 10
123.5939680854637
 20
-69.52032932312754
 30
0.0
 40
3.5
  1
2.54
  7
BIGFONT
100
AcDbText
  0
TEXT
  5
753
330
1E
100
AcDbEntity
  8
2
  6
CONTINUOUS
 62
     7
100
AcDbText
 10
120.1521941434045
 20
-62.33230000000009
 30
0.0
 40
3.5
  1
26.39
  7
BIGFONT
100
AcDbText
  0
TEXT
  5
754
330
1E
100
AcDbEntity
  8
2
  6
CONTINUOUS
 62
     7
100
AcDbText
 10
121.4301
 20
-55.2137000000001
 30
0.0
 40
4.0
  1
重量
  7
BIGFONT
100
AcDbText
  0
TEXT
  5
755
330
1E
100
AcDbEntity
  8
2
  6
CONTINUOUS
 62
     7
100
AcDbText
 10
104.9870999999999
 20
-55.21360000000011
 30
0.0
 40
4.0
  1
本数
  7
BIGFONT
100
AcDbText
  0
TEXT
  5
756
330
1E
100
AcDbEntity
  8
2
  6
CONTINUOUS
 62
     7
100
AcDbText
 10
3.812500000000113
 20
-80.68561489931779
 30
0.0
 40
3.5
  1
D13
  7
BIGFONT
100
AcDbText
  0
TEXT
  5
757
330
1E
100
AcDbEntity
  8
2
  6
CONTINUOUS
 62
     7
100
AcDbText
 10
106.7708192694682
 20
-81.34740440334502
 30
0.0
 40
3.5
  1
12
  7
BIGFONT
100
AcDbText
  0
TEXT
  5
758
330
1E
100
AcDbEntity
  8
2
  6
CONTINUOUS
 62
     7
100
AcDbText
 10
57.95091064400072
 20
-81.14532444617992
 30
0.0
 40
3.5
  1
104
  7
BIGFONT
100
AcDbText
  0
TEXT
  5
759
330
1E
100
AcDbEntity
  8
2
  6
CONTINUOUS
 62
     7
100
AcDbText
 10
19.26965234875456
 20
-81.14532444617992
 30
0.0
 40
3.5
  1
1377
  7
BIGFONT
100
AcDbText
  0
TEXT
  5
75A
330
1E
100
AcDbEntity
  8
2
  6
CONTINUOUS
 62
     7
100
AcDbText
 10
41.04219154709949
 20
-81.14532444617992
 30
0.0
 40
3.5
  1
57
  7
BIGFONT
100
AcDbText
  0
TEXT
  5
75B
330
1E
100
AcDbEntity
  8
2
  6
CONTINUOUS
 62
     7
100
AcDbText
 10
73.79118515869162
 20
-81.34740440334502
 30
0.0
 40
3.5
  1
30
  7
BIGFONT
100
AcDbText
  0
TEXT
  5
75C
330
1E
100
AcDbEntity
  8
2
  6
CONTINUOUS
 62
     7
100
AcDbText
 10
88.09916550422736
 20
-81.34740440334502
 30
0.0
 40
3.5
  1
1538
  7
BIGFONT
100
AcDbText
  0
TEXT
  5
75D
330
1E
100
AcDbEntity
  8
2
  6
CONTINUOUS
 62
     7
100
AcDbText
 10
121.1951549856064
 20
-81.34740440334502
 30
0.0
 40
3.5
  1
18.37
  7
BIGFONT
100
AcDbText
  0
ENDSEC
  0
SECTION
  2
OBJECTS
  0
DICTIONARY
  5
C
330
0
100
AcDbDictionary
  3
ACAD_GROUP
350
D
  3
ACAD_LAYOUT
350
19
  3
ACAD_MLINESTYLE
350
16
  3
ACAD_PLOTSETTINGS
350
18
1001
ACAD
1000
TREAT_AS_HARD
1070
     0
1000
TREAT_AS_HARD
1070
     0
1000
TREAT_AS_HARD
1070
     0
  0
DICTIONARY
  5
762
330
1E
100
AcDbDictionary
  3
ACAD_LAYOUTSELFREF
350
77B
1001
ACAD
1000
TREAT_AS_HARD
1070
     0
1000
TREAT_AS_HARD
1070
     0
  0
DICTIONARY
  5
760
330
1A
100
AcDbDictionary
  3
ACAD_LAYOUTSELFREF
350
77A
1001
ACAD
1000
TREAT_AS_HARD
1070
     0
1000
TREAT_AS_HARD
1070
     0
  0
DICTIONARY
  5
D
102
{ACAD_REACTORS
330
C
102
}
330
C
100
AcDbDictionary
1001
ACAD
1000
TREAT_AS_HARD
1070
     0
1000
TREAT_AS_HARD
1070
     0
1000
TREAT_AS_HARD
1070
     0
  0
DICTIONARY
  5
19
102
{ACAD_REACTORS
330
C
102
}
330
C
100
AcDbDictionary
1001
ACAD
1000
TREAT_AS_HARD
1070
     0
1000
TREAT_AS_HARD
1070
     0
1000
TREAT_AS_HARD
1070
     0
  0
DICTIONARY
  5
16
102
{ACAD_REACTORS
330
C
102
}
330
C
100
AcDbDictionary
  3
STANDARD
350
17
1001
ACAD
1000
TREAT_AS_HARD
1070
     0
1000
TREAT_AS_HARD
1070
     0
1000
TREAT_AS_HARD
1070
     0
  0
DICTIONARY
  5
18
102
{ACAD_REACTORS
330
C
102
}
330
C
100
AcDbDictionary
1001
ACAD
1000
TREAT_AS_HARD
1070
     0
1000
TREAT_AS_HARD
1070
     0
1000
TREAT_AS_HARD
1070
     0
  0
XRECORD
  5
77B
102
{ACAD_REACTORS
330
762
102
}
330
762
100
AcDbXrecord
340
1E
  0
XRECORD
  5
77A
102
{ACAD_REACTORS
330
760
102
}
330
760
100
AcDbXrecord
340
1A
  0
MLINESTYLE
  5
17
102
{ACAD_REACTORS
330
16
102
}
330
16
100
AcDbMlineStyle
  2
STANDARD
 70
     0
  3

 62
   256
 51
90.0
 52
90.0
 71
     2
 49
0.5
 62
   256
  6
BYLAYER
 49
-0.5
 62
   256
  6
BYLAYER
  0
ENDSEC
  0
EOF
