  0
SECTION
  2
HEADER
  9
$ACADVER
  1
AC1012
  9
$DWGCODEPAGE
  3
dos932
  9
$INSBASE
 10
0.0
 20
0.0
 30
0.0
  9
$EXTMIN
 10
-269.3737778816998
 20
-192.3889150172342
 30
-0.0000000000000058
  9
$EXTMAX
 10
269.4190992512963
 20
192.4209604300804
 30
0.0000000000000104
  9
$LIMMIN
 10
-297.0
 20
-210.0
  9
$LIMMAX
 10
297.0
 20
210.0
  9
$ORTHOMODE
 70
     1
  9
$REGENMODE
 70
     1
  9
$FILLMODE
 70
     1
  9
$QTEXTMODE
 70
     0
  9
$MIRRTEXT
 70
     1
  9
$DRAGMODE
 70
     2
  9
$LTSCALE
 40
1.0
  9
$OSMODE
 70
  2471
  9
$ATTMODE
 70
     1
  9
$TEXTSIZE
 40
1.0
  9
$TRACEWID
 40
0.05
  9
$TEXTSTYLE
  7
BIGFONT
  9
$CLAYER
  8
0
  9
$CELTYPE
  6
CONTINUOUS
  9
$CECOLOR
 62
   256
  9
$CELTSCALE
 40
1.0
  9
$DELOBJ
 70
     1
  9
$DISPSILH
 70
     0
  9
$DIMSCALE
 40
1.0
  9
$DIMASZ
 40
0.18
  9
$DIMEXO
 40
0.0625
  9
$DIMDLI
 40
0.38
  9
$DIMRND
 40
0.0
  9
$DIMDLE
 40
0.0
  9
$DIMEXE
 40
0.18
  9
$DIMTP
 40
0.0
  9
$DIMTM
 40
0.0
  9
$DIMTXT
 40
0.18
  9
$DIMCEN
 40
0.09
  9
$DIMTSZ
 40
0.0
  9
$DIMTOL
 70
     0
  9
$DIMLIM
 70
     0
  9
$DIMTIH
 70
     1
  9
$DIMTOH
 70
     1
  9
$DIMSE1
 70
     0
  9
$DIMSE2
 70
     0
  9
$DIMTAD
 70
     0
  9
$DIMZIN
 70
     0
  9
$DIMBLK
  1

  9
$DIMASO
 70
     1
  9
$DIMSHO
 70
     1
  9
$DIMPOST
  1

  9
$DIMAPOST
  1

  9
$DIMALT
 70
     0
  9
$DIMALTD
 70
     2
  9
$DIMALTF
 40
25.4
  9
$DIMLFAC
 40
1.0
  9
$DIMTOFL
 70
     0
  9
$DIMTVP
 40
0.0
  9
$DIMTIX
 70
     0
  9
$DIMSOXD
 70
     0
  9
$DIMSAH
 70
     0
  9
$DIMBLK1
  1

  9
$DIMBLK2
  1

  9
$DIMSTYLE
  2
STANDARD
  9
$DIMCLRD
 70
     0
  9
$DIMCLRE
 70
     0
  9
$DIMCLRT
 70
     0
  9
$DIMTFAC
 40
1.0
  9
$DIMGAP
 40
0.09
  9
$DIMJUST
 70
     0
  9
$DIMSD1
 70
     0
  9
$DIMSD2
 70
     0
  9
$DIMTOLJ
 70
     1
  9
$DIMTZIN
 70
     0
  9
$DIMALTZ
 70
     0
  9
$DIMALTTZ
 70
     0
  9
$DIMFIT
 70
     3
  9
$DIMUPT
 70
     0
  9
$DIMUNIT
 70
     2
  9
$DIMDEC
 70
     4
  9
$DIMTDEC
 70
     4
  9
$DIMALTU
 70
     2
  9
$DIMALTTD
 70
     2
  9
$DIMTXSTY
  7
STANDARD
  9
$DIMAUNIT
 70
     0
  9
$LUNITS
 70
     2
  9
$LUPREC
 70
     4
  9
$SKETCHINC
 40
0.1
  9
$FILLETRAD
 40
0.0
  9
$AUNITS
 70
     0
  9
$AUPREC
 70
     0
  9
$MENU
  1
.
  9
$ELEVATION
 40
0.0
  9
$PELEVATION
 40
0.0
  9
$THICKNESS
 40
0.0
  9
$LIMCHECK
 70
     0
  9
$BLIPMODE
 70
     0
  9
$CHAMFERA
 40
0.0
  9
$CHAMFERB
 40
0.0
  9
$CHAMFERC
 40
0.0
  9
$CHAMFERD
 40
0.0
  9
$SKPOLY
 70
     0
  9
$TDCREATE
 40
2452131.731064583
  9
$TDUPDATE
 40
2453203.390459143
  9
$TDINDWG
 40
0.0515841435
  9
$TDUSRTIMER
 40
0.0515815972
  9
$USRTIMER
 70
     1
  9
$ANGBASE
 50
0.0
  9
$ANGDIR
 70
     0
  9
$PDMODE
 70
     0
  9
$PDSIZE
 40
0.0
  9
$PLINEWID
 40
0.0
  9
$COORDS
 70
     1
  9
$SPLFRAME
 70
     0
  9
$SPLINETYPE
 70
     6
  9
$SPLINESEGS
 70
     8
  9
$ATTDIA
 70
     0
  9
$ATTREQ
 70
     1
  9
$HANDLING
 70
-16383
  9
$HANDSEED
  5
798
  9
$SURFTAB1
 70
     6
  9
$SURFTAB2
 70
     6
  9
$SURFTYPE
 70
     6
  9
$SURFU
 70
     6
  9
$SURFV
 70
     6
  9
$UCSNAME
  2

  9
$UCSORG
 10
0.0
 20
0.0
 30
0.0
  9
$UCSXDIR
 10
1.0
 20
0.0
 30
0.0
  9
$UCSYDIR
 10
0.0
 20
1.0
 30
0.0
  9
$PUCSNAME
  2

  9
$PUCSORG
 10
0.0
 20
0.0
 30
0.0
  9
$PUCSXDIR
 10
1.0
 20
0.0
 30
0.0
  9
$PUCSYDIR
 10
0.0
 20
1.0
 30
0.0
  9
$USERI1
 70
     0
  9
$USERI2
 70
     0
  9
$USERI3
 70
     0
  9
$USERI4
 70
     0
  9
$USERI5
 70
     0
  9
$USERR1
 40
0.0
  9
$USERR2
 40
0.0
  9
$USERR3
 40
0.0
  9
$USERR4
 40
0.0
  9
$USERR5
 40
0.0
  9
$WORLDVIEW
 70
     1
  9
$SHADEDGE
 70
     3
  9
$SHADEDIF
 70
    70
  9
$TILEMODE
 70
     1
  9
$MAXACTVP
 70
    64
  9
$PINSBASE
 10
0.0
 20
0.0
 30
0.0
  9
$PLIMCHECK
 70
     0
  9
$PEXTMIN
 10
1.000000000000000E+20
 20
1.000000000000000E+20
 30
1.000000000000000E+20
  9
$PEXTMAX
 10
-1.000000000000000E+20
 20
-1.000000000000000E+20
 30
-1.000000000000000E+20
  9
$PLIMMIN
 10
0.0
 20
0.0
  9
$PLIMMAX
 10
12.0
 20
9.0
  9
$UNITMODE
 70
     0
  9
$VISRETAIN
 70
     1
  9
$PLINEGEN
 70
     0
  9
$PSLTSCALE
 70
     1
  9
$TREEDEPTH
 70
  3020
  9
$PICKSTYLE
 70
     3
  9
$CMLSTYLE
  2
STANDARD
  9
$CMLJUST
 70
     0
  9
$CMLSCALE
 40
1.0
  9
$SAVEIMAGES
 70
     1
  0
ENDSEC
  0
SECTION
  2
CLASSES
  0
CLASS
  1
ACDBDICTIONARYWDFLT
  2
AcDbDictionaryWithDefault
  3
AutoCAD 2000
 90
    32768
280
     0
281
     0
  0
CLASS
  1
ACDBPLACEHOLDER
  2
AcDbPlaceHolder
  3
AutoCAD 2000
 90
    32768
280
     0
281
     0
  0
CLASS
  1
LAYOUT
  2
AcDbLayout
  3
AutoCAD 2000
 90
    32768
280
     0
281
     0
  0
CLASS
  1
LONG_TRANSACTION
  2
AcDbLongTransaction
  3
AutoCAD 2000
 90
    32768
280
     0
281
     0
  0
CLASS
  1
LWPOLYLINE
  2
AcDbPolyline
  3
AutoCAD 2000
 90
    32768
280
     0
281
     1
  0
CLASS
  1
HATCH
  2
AcDbHatch
  3
AutoCAD 2000
 90
    32768
280
     0
281
     1
  0
CLASS
  1
XRECORD
  2
AcDbXrecord
  3
AutoCAD 2000
 90
    32768
280
     0
281
     0
  0
CLASS
  1
LONG_TRANSACTION
  2
AcDbLongTransaction
  3
AutoCAD 2000
 90
    32768
280
     0
281
     0
  0
CLASS
  1
LWPOLYLINE
  2
AcDbPolyline
  3
AutoCAD 2000
 90
    32768
280
     0
281
     1
  0
CLASS
  1
HATCH
  2
AcDbHatch
  3
AutoCAD 2000
 90
    32768
280
     0
281
     1
  0
CLASS
  1
XRECORD
  2
AcDbXrecord
  3
AutoCAD 2000
 90
    32768
280
     0
281
     0
  0
CLASS
  1
LONG_TRANSACTION
  2
AcDbLongTransaction
  3
AutoCAD 2000
 90
    32768
280
     0
281
     0
  0
CLASS
  1
LWPOLYLINE
  2
AcDbPolyline
  3
AutoCAD 2000
 90
    32768
280
     0
281
     1
  0
CLASS
  1
HATCH
  2
AcDbHatch
  3
AutoCAD 2000
 90
    32768
280
     0
281
     1
  0
CLASS
  1
XRECORD
  2
AcDbXrecord
  3
AutoCAD 2000
 90
    32768
280
     0
281
     0
  0
CLASS
  1
LONG_TRANSACTION
  2
AcDbLongTransaction
  3
AutoCAD 2000
 90
    32768
280
     0
281
     0
  0
CLASS
  1
LWPOLYLINE
  2
AcDbPolyline
  3
AutoCAD 2000
 90
    32768
280
     0
281
     1
  0
CLASS
  1
HATCH
  2
AcDbHatch
  3
AutoCAD 2000
 90
    32768
280
     0
281
     1
  0
CLASS
  1
XRECORD
  2
AcDbXrecord
  3
AutoCAD 2000
 90
    32768
280
     0
281
     0
  0
ENDSEC
  0
SECTION
  2
TABLES
  0
TABLE
  2
VPORT
  5
8
330
0
100
AcDbSymbolTable
 70
     2
  0
VPORT
  5
795
330
8
100
AcDbSymbolTableRecord
100
AcDbViewportTableRecord
  2
*ACTIVE
 70
     0
 10
0.0
 20
0.0
 11
1.0
 21
1.0
 12
0.0226606847982165
 22
0.0160227064230867
 13
0.0
 23
0.0
 14
1.0
 24
1.0
 15
0.0
 25
0.0
 16
0.0
 26
0.0
 36
1.0
 17
0.0
 27
0.0
 37
0.0
 40
389.301819518684
 41
1.432748538011695
 42
50.0
 43
0.0
 44
0.0
 50
0.0
 51
0.0
 71
     0
 72
   100
 73
     1
 74
     1
 75
     0
 76
     0
 77
     0
 78
     0
  0
ENDTAB
  0
TABLE
  2
LTYPE
  5
5
330
0
100
AcDbSymbolTable
 70
     5
  0
LTYPE
  5
13
330
5
100
AcDbSymbolTableRecord
100
AcDbLinetypeTableRecord
  2
BYBLOCK
 70
     0
  3

 72
    65
 73
     0
 40
0.0
  0
LTYPE
  5
14
330
5
100
AcDbSymbolTableRecord
100
AcDbLinetypeTableRecord
  2
BYLAYER
 70
     0
  3

 72
    65
 73
     0
 40
0.0
  0
LTYPE
  5
15
330
5
100
AcDbSymbolTableRecord
100
AcDbLinetypeTableRecord
  2
CONTINUOUS
 70
     0
  3
実線
 72
    65
 73
     0
 40
0.0
  0
LTYPE
  5
23
330
5
100
AcDbSymbolTableRecord
100
AcDbLinetypeTableRecord
  2
HIDDEN
 70
     0
  3
_ _ _ _ _ _ _ _ _ _ _ _ _ _ _ _ _ _ _ _ _ _ _
 72
    65
 73
     2
 40
0.375
 49
0.25
 74
     0
 49
-0.125
 74
     0
  0
LTYPE
  5
24
330
5
100
AcDbSymbolTableRecord
100
AcDbLinetypeTableRecord
  2
DASHED
 70
     0
  3
__ __ __ __ __ __ __ __ __ __ __ __ __ __ __
 72
    65
 73
     2
 40
0.75
 49
0.5
 74
     0
 49
-0.25
 74
     0
  0
LTYPE
  5
25
330
5
100
AcDbSymbolTableRecord
100
AcDbLinetypeTableRecord
  2
CENTER
 70
     0
  3
____ _ ____ _ ____ _ ____ _ ____ _ ____ _ ____
 72
    65
 73
     4
 40
2.0
 49
1.25
 74
     0
 49
-0.25
 74
     0
 49
0.25
 74
     0
 49
-0.25
 74
     0
  0
LTYPE
  5
26
330
5
100
AcDbSymbolTableRecord
100
AcDbLinetypeTableRecord
  2
PHANTOM
 70
     0
  3
_____ _ _ _____ _ _ _____ _ _ _____ _ _ ____
 72
    65
 73
     6
 40
2.5
 49
1.25
 74
     0
 49
-0.25
 74
     0
 49
0.25
 74
     0
 49
-0.25
 74
     0
 49
0.25
 74
     0
 49
-0.25
 74
     0
  0
ENDTAB
  0
TABLE
  2
LAYER
  5
2
330
0
100
AcDbSymbolTable
 70
     4
  0
LAYER
  5
10
330
2
100
AcDbSymbolTableRecord
100
AcDbLayerTableRecord
  2
0
 70
     0
 62
     7
  6
CONTINUOUS
  0
LAYER
  5
27
330
2
100
AcDbSymbolTableRecord
100
AcDbLayerTableRecord
  2
1
 70
     0
 62
     7
  6
CONTINUOUS
  0
LAYER
  5
28
330
2
100
AcDbSymbolTableRecord
100
AcDbLayerTableRecord
  2
2
 70
     0
 62
     7
  6
CONTINUOUS
  0
LAYER
  5
29
330
2
100
AcDbSymbolTableRecord
100
AcDbLayerTableRecord
  2
3
 70
     0
 62
     7
  6
CONTINUOUS
  0
ENDTAB
  0
TABLE
  2
STYLE
  5
3
330
0
100
AcDbSymbolTable
 70
     2
  0
STYLE
  5
11
330
3
100
AcDbSymbolTableRecord
100
AcDbTextStyleTableRecord
  2
STANDARD
 70
     0
 40
0.0
 41
1.0
 50
0.0
 71
     0
 42
0.2
  3
txt
  4

  0
STYLE
  5
22
330
3
100
AcDbSymbolTableRecord
100
AcDbTextStyleTableRecord
  2
BIGFONT
 70
     0
 40
0.0
 41
1.0
 50
0.0
 71
     0
 42
1.0
  3

  4
bigfont
  0
ENDTAB
  0
TABLE
  2
VIEW
  5
6
330
0
100
AcDbSymbolTable
 70
     0
  0
ENDTAB
  0
TABLE
  2
UCS
  5
7
330
0
100
AcDbSymbolTable
 70
     0
  0
ENDTAB
  0
TABLE
  2
APPID
  5
9
330
0
100
AcDbSymbolTable
 70
     1
  0
APPID
  5
12
330
9
100
AcDbSymbolTableRecord
100
AcDbRegAppTableRecord
  2
ACAD
 70
     0
  0
ENDTAB
  0
TABLE
  2
DIMSTYLE
  5
A
330
0
100
AcDbSymbolTable
 70
     1
  0
DIMSTYLE
105
634
330
A
100
AcDbSymbolTableRecord
100
AcDbDimStyleTableRecord
  2
STANDARD
 70
     0
  3

  4

  5

  6

  7

 40
1.0
 41
0.18
 42
0.0625
 43
0.38
 44
0.18
 45
0.0
 46
0.0
 47
0.0
 48
0.0
140
0.18
141
0.09
142
0.0
143
25.4
144
1.0
145
0.0
146
1.0
147
0.09
 71
     0
 72
     0
 73
     1
 74
     1
 75
     0
 76
     0
 77
     0
 78
     0
170
     0
171
     2
172
     0
173
     0
174
     0
175
     0
176
     0
177
     0
178
     0
270
     2
271
     4
272
     4
273
     2
274
     2
340
11
275
     0
280
     0
281
     0
282
     0
283
     1
284
     0
285
     0
286
     0
287
     3
288
     0
  0
ENDTAB
  0
TABLE
  2
BLOCK_RECORD
  5
1
330
0
100
AcDbSymbolTable
 70
     0
  0
BLOCK_RECORD
  5
1E
102
{ACAD_XDICTIONARY
360
726
102
}
330
1
100
AcDbSymbolTableRecord
100
AcDbBlockTableRecord
  2
*MODEL_SPACE
  0
BLOCK_RECORD
  5
1A
102
{ACAD_XDICTIONARY
360
724
102
}
330
1
100
AcDbSymbolTableRecord
100
AcDbBlockTableRecord
  2
*PAPER_SPACE
  0
ENDTAB
  0
ENDSEC
  0
SECTION
  2
BLOCKS
  0
BLOCK
  5
1F
330
1E
100
AcDbEntity
  8
0
100
AcDbBlockBegin
  2
*MODEL_SPACE
 70
     0
 10
0.0
 20
0.0
 30
0.0
  3
*MODEL_SPACE
  1

  0
ENDBLK
  5
20
330
1E
100
AcDbEntity
  8
0
100
AcDbBlockEnd
  0
BLOCK
  5
1B
330
1A
100
AcDbEntity
 67
     1
  8
0
100
AcDbBlockBegin
  2
*PAPER_SPACE
 70
     0
 10
0.0
 20
0.0
 30
0.0
  3
*PAPER_SPACE
  1

  0
ENDBLK
  5
1C
330
1A
100
AcDbEntity
 67
     1
  8
0
100
AcDbBlockEnd
  0
ENDSEC
  0
SECTION
  2
ENTITIES
  0
LINE
  5
2D
330
1E
100
AcDbEntity
  8
0
  6
CONTINUOUS
 62
     7
100
AcDbLine
 10
242.5
 20
104.8818999999999
 30
0.0
 11
242.5
 21
124.8819
 31
0.0
  0
LINE
  5
2E
330
1E
100
AcDbEntity
  8
0
  6
CONTINUOUS
 62
     7
100
AcDbLine
 10
242.35
 20
104.7318999999999
 30
0.0
 11
242.5
 21
104.8818999999999
 31
0.0
  0
LINE
  5
2F
330
1E
100
AcDbEntity
  8
0
  6
CONTINUOUS
 62
     7
100
AcDbLine
 10
242.35
 20
64.0323
 30
0.0
 11
242.5
 21
63.8823
 31
0.0
  0
LINE
  5
30
330
1E
100
AcDbEntity
  8
0
  6
CONTINUOUS
 62
     7
100
AcDbLine
 10
175.0
 20
49.8819
 30
0.0
 11
242.5
 21
49.8819
 31
0.0
  0
LINE
  5
31
330
1E
100
AcDbEntity
  8
0
  6
CONTINUOUS
 62
     7
100
AcDbLine
 10
175.0
 20
49.8819
 30
0.0
 11
175.0
 21
124.4318999999999
 31
0.0
  0
LINE
  5
32
330
1E
100
AcDbEntity
  8
0
  6
CONTINUOUS
 62
     7
100
AcDbLine
 10
175.4499999999999
 20
124.8819
 30
0.0
 11
180.55
 21
124.8819
 31
0.0
  0
LINE
  5
33
330
1E
100
AcDbEntity
  8
0
  6
HIDDEN
 62
     7
100
AcDbLine
 10
175.0
 20
100.5068999999999
 30
0.0
 11
181.0
 21
100.5068999999999
 31
0.0
  0
LINE
  5
34
330
1E
100
AcDbEntity
  8
0
  6
HIDDEN
 62
     7
100
AcDbLine
 10
175.0
 20
96.75690000000001
 30
0.0
 11
181.07815
 21
96.75690000000001
 31
0.0
  0
LINE
  5
35
330
1E
100
AcDbEntity
  8
0
  6
CONTINUOUS
 62
     7
100
AcDbLine
 10
172.3525999999999
 20
98.63190000000001
 30
0.0
 11
177.4024499999999
 21
98.63190000000001
 31
0.0
  0
LINE
  5
36
330
1E
100
AcDbEntity
  8
0
  6
CONTINUOUS
 62
     7
100
AcDbLine
 10
178.0492
 20
98.63190000000001
 30
0.0
 11
178.1868
 21
98.63190000000001
 31
0.0
  0
LINE
  5
37
330
1E
100
AcDbEntity
  8
0
  6
CONTINUOUS
 62
     7
100
AcDbLine
 10
178.7466
 20
98.63190000000001
 30
0.0
 11
183.787
 21
98.63190000000001
 31
0.0
  0
LINE
  5
38
330
1E
100
AcDbEntity
  8
0
  6
CONTINUOUS
 62
     7
100
AcDbLine
 10
175.0
 20
104.8818999999999
 30
0.0
 11
181.0
 21
104.8818999999999
 31
0.0
  0
LINE
  5
39
330
1E
100
AcDbEntity
  8
0
  6
CONTINUOUS
 62
     7
100
AcDbLine
 10
142.5
 20
49.8819
 30
0.0
 11
142.5
 21
124.8819
 31
0.0
  0
LINE
  5
3A
330
1E
100
AcDbEntity
  8
0
  6
CONTINUOUS
 62
     7
100
AcDbLine
 10
174.0
 20
124.8819
 30
0.0
 11
141.6999999999999
 21
124.8819
 31
0.0
  0
LINE
  5
3B
330
1E
100
AcDbEntity
  8
0
  6
CONTINUOUS
 62
     7
100
AcDbLine
 10
174.0
 20
49.8819
 30
0.0
 11
141.6999999999999
 21
49.8819
 31
0.0
  0
LINE
  5
3C
330
1E
100
AcDbEntity
  8
0
  6
CONTINUOUS
 62
     7
100
AcDbLine
 10
142.8215299999999
 20
123.6809999999999
 30
0.0
 11
142.5
 21
124.8809999999999
 31
0.0
  0
LINE
  5
3D
330
1E
100
AcDbEntity
  8
0
  6
CONTINUOUS
 62
     7
100
AcDbLine
 10
142.5
 20
124.8809999999999
 30
0.0
 11
142.17846
 21
123.6809999999999
 31
0.0
  0
LINE
  5
3E
330
1E
100
AcDbEntity
  8
0
  6
CONTINUOUS
 62
     7
100
AcDbLine
 10
142.17846
 20
51.081
 30
0.0
 11
142.5
 21
49.881
 31
0.0
  0
LINE
  5
3F
330
1E
100
AcDbEntity
  8
0
  6
CONTINUOUS
 62
     7
100
AcDbLine
 10
142.5
 20
49.881
 30
0.0
 11
142.8215299999999
 21
51.081
 31
0.0
  0
TEXT
  5
40
330
1E
100
AcDbEntity
  8
0
  6
CONTINUOUS
 62
     7
100
AcDbText
 10
142.1
 20
82.18189999999998
 30
0.0
 40
3.2
  1
1500
 50
90.0
 41
0.8125
  7
BIGFONT
100
AcDbText
  0
LINE
  5
41
330
1E
100
AcDbEntity
  8
0
  6
CONTINUOUS
 62
     7
100
AcDbLine
 10
175.0
 20
124.4318999999999
 30
0.0
 11
175.4499999999999
 21
124.8819
 31
0.0
  0
LINE
  5
42
330
1E
100
AcDbEntity
  8
0
  6
CONTINUOUS
 62
     7
100
AcDbLine
 10
180.55
 20
124.8819
 30
0.0
 11
181.0
 21
124.4318999999999
 31
0.0
  0
LINE
  5
43
330
1E
100
AcDbEntity
  8
0
  6
CONTINUOUS
 62
     7
100
AcDbLine
 10
157.5
 20
49.8819
 30
0.0
 11
157.5
 21
63.8819
 31
0.0
  0
LINE
  5
44
330
1E
100
AcDbEntity
  8
0
  6
CONTINUOUS
 62
     7
100
AcDbLine
 10
174.0
 20
63.8819
 30
0.0
 11
156.6999999999999
 21
63.8819
 31
0.0
  0
LINE
  5
45
330
1E
100
AcDbEntity
  8
0
  6
CONTINUOUS
 62
     7
100
AcDbLine
 10
157.5
 20
49.8819
 30
0.0
 11
157.5
 21
49.8819
 31
0.0
  0
LINE
  5
46
330
1E
100
AcDbEntity
  8
0
  6
CONTINUOUS
 62
     7
100
AcDbLine
 10
157.82153
 20
62.681
 30
0.0
 11
157.5
 21
63.881
 31
0.0
  0
LINE
  5
47
330
1E
100
AcDbEntity
  8
0
  6
CONTINUOUS
 62
     7
100
AcDbLine
 10
157.5
 20
63.881
 30
0.0
 11
157.1784599999999
 21
62.681
 31
0.0
  0
LINE
  5
48
330
1E
100
AcDbEntity
  8
0
  6
CONTINUOUS
 62
     7
100
AcDbLine
 10
157.1784599999999
 20
51.081
 30
0.0
 11
157.5
 21
49.881
 31
0.0
  0
LINE
  5
49
330
1E
100
AcDbEntity
  8
0
  6
CONTINUOUS
 62
     7
100
AcDbLine
 10
157.5
 20
49.881
 30
0.0
 11
157.82153
 21
51.081
 31
0.0
  0
TEXT
  5
4A
330
1E
100
AcDbEntity
  8
0
  6
CONTINUOUS
 62
     7
100
AcDbText
 10
157.0999999999999
 20
52.9819
 30
0.0
 40
3.2
  1
280
 50
90.0
 41
0.8125
  7
BIGFONT
100
AcDbText
  0
LINE
  5
4B
330
1E
100
AcDbEntity
  8
0
  6
CONTINUOUS
 62
     7
100
AcDbLine
 10
157.5
 20
63.8819
 30
0.0
 11
157.5
 21
104.8818999999999
 31
0.0
  0
LINE
  5
4C
330
1E
100
AcDbEntity
  8
0
  6
CONTINUOUS
 62
     7
100
AcDbLine
 10
174.0
 20
104.8818999999999
 30
0.0
 11
156.6999999999999
 21
104.8818999999999
 31
0.0
  0
LINE
  5
4D
330
1E
100
AcDbEntity
  8
0
  6
CONTINUOUS
 62
     7
100
AcDbLine
 10
157.82153
 20
103.681
 30
0.0
 11
157.5
 21
104.881
 31
0.0
  0
LINE
  5
4E
330
1E
100
AcDbEntity
  8
0
  6
CONTINUOUS
 62
     7
100
AcDbLine
 10
157.5
 20
104.881
 30
0.0
 11
157.1784599999999
 21
103.681
 31
0.0
  0
LINE
  5
4F
330
1E
100
AcDbEntity
  8
0
  6
CONTINUOUS
 62
     7
100
AcDbLine
 10
157.1784599999999
 20
65.081
 30
0.0
 11
157.5
 21
63.881
 31
0.0
  0
LINE
  5
50
330
1E
100
AcDbEntity
  8
0
  6
CONTINUOUS
 62
     7
100
AcDbLine
 10
157.5
 20
63.881
 30
0.0
 11
157.82153
 21
65.081
 31
0.0
  0
TEXT
  5
51
330
1E
100
AcDbEntity
  8
0
  6
CONTINUOUS
 62
     7
100
AcDbText
 10
157.0999999999999
 20
80.48189999999998
 30
0.0
 40
3.2
  1
820
 50
90.0
 41
0.8125
  7
BIGFONT
100
AcDbText
  0
LINE
  5
52
330
1E
100
AcDbEntity
  8
0
  6
CONTINUOUS
 62
     7
100
AcDbLine
 10
157.5
 20
104.8818999999999
 30
0.0
 11
157.5
 21
124.8819
 31
0.0
  0
LINE
  5
53
330
1E
100
AcDbEntity
  8
0
  6
CONTINUOUS
 62
     7
100
AcDbLine
 10
157.5
 20
124.8819
 30
0.0
 11
157.5
 21
124.8819
 31
0.0
  0
LINE
  5
54
330
1E
100
AcDbEntity
  8
0
  6
CONTINUOUS
 62
     7
100
AcDbLine
 10
157.82153
 20
123.6809999999999
 30
0.0
 11
157.5
 21
124.8809999999999
 31
0.0
  0
LINE
  5
55
330
1E
100
AcDbEntity
  8
0
  6
CONTINUOUS
 62
     7
100
AcDbLine
 10
157.5
 20
124.8809999999999
 30
0.0
 11
157.1784599999999
 21
123.6809999999999
 31
0.0
  0
LINE
  5
56
330
1E
100
AcDbEntity
  8
0
  6
CONTINUOUS
 62
     7
100
AcDbLine
 10
157.1784599999999
 20
106.081
 30
0.0
 11
157.5
 21
104.881
 31
0.0
  0
LINE
  5
57
330
1E
100
AcDbEntity
  8
0
  6
CONTINUOUS
 62
     7
100
AcDbLine
 10
157.5
 20
104.881
 30
0.0
 11
157.82153
 21
106.081
 31
0.0
  0
TEXT
  5
58
330
1E
100
AcDbEntity
  8
0
  6
CONTINUOUS
 62
     7
100
AcDbText
 10
157.0999999999999
 20
110.9818999999999
 30
0.0
 40
3.2
  1
400
 50
90.0
 41
0.8125
  7
BIGFONT
100
AcDbText
  0
LINE
  5
59
330
1E
100
AcDbEntity
  8
0
  6
CONTINUOUS
 62
     7
100
AcDbLine
 10
242.35
 20
67.15040000000001
 30
0.0
 11
242.35
 21
104.7318999999999
 31
0.0
  0
LINE
  5
5A
330
1E
100
AcDbEntity
  8
0
  6
CONTINUOUS
 62
     7
100
AcDbLine
 10
242.35
 20
64.0323
 30
0.0
 11
242.35
 21
67.15040000000001
 31
0.0
  0
LINE
  5
5B
330
1E
100
AcDbEntity
  8
0
  6
CONTINUOUS
 62
     7
100
AcDbLine
 10
213.1606999999999
 20
98.63190000000001
 30
0.0
 11
222.5869499999999
 21
98.63190000000001
 31
0.0
  0
LINE
  5
5C
330
1E
100
AcDbEntity
  8
0
  6
CONTINUOUS
 62
     7
100
AcDbLine
 10
217.5
 20
93.9319
 30
0.0
 11
217.5
 21
103.3319
 31
0.0
  0
CIRCLE
  5
5D
330
1E
100
AcDbEntity
  8
0
  6
CONTINUOUS
 62
     7
100
AcDbCircle
 10
217.5
 20
98.63190000000001
 30
0.0
 40
1.875
  0
LINE
  5
5E
330
1E
100
AcDbEntity
  8
0
  6
CONTINUOUS
 62
     7
100
AcDbLine
 10
165.0
 20
108.3938999999999
 30
0.0
 11
165.0
 21
124.8819
 31
0.0
  0
LINE
  5
5F
330
1E
100
AcDbEntity
  8
0
  6
CONTINUOUS
 62
     7
100
AcDbLine
 10
166.8409
 20
124.8819
 30
0.0
 11
164.1999999999999
 21
124.8819
 31
0.0
  0
LINE
  5
60
330
1E
100
AcDbEntity
  8
0
  6
CONTINUOUS
 62
     7
100
AcDbLine
 10
174.0
 20
108.3938999999999
 30
0.0
 11
164.1999999999999
 21
108.3938999999999
 31
0.0
  0
LINE
  5
61
330
1E
100
AcDbEntity
  8
0
  6
CONTINUOUS
 62
     7
100
AcDbLine
 10
165.32153
 20
123.6809999999999
 30
0.0
 11
165.0
 21
124.8809999999999
 31
0.0
  0
LINE
  5
62
330
1E
100
AcDbEntity
  8
0
  6
CONTINUOUS
 62
     7
100
AcDbLine
 10
165.0
 20
124.8809999999999
 30
0.0
 11
164.67846
 21
123.6809999999999
 31
0.0
  0
LINE
  5
63
330
1E
100
AcDbEntity
  8
0
  6
CONTINUOUS
 62
     7
100
AcDbLine
 10
164.67846
 20
109.5929999999997
 30
0.0
 11
165.0
 21
108.3929999999997
 31
0.0
  0
LINE
  5
64
330
1E
100
AcDbEntity
  8
0
  6
CONTINUOUS
 62
     7
100
AcDbLine
 10
165.0
 20
108.3929999999997
 30
0.0
 11
165.32153
 21
109.5929999999997
 31
0.0
  0
TEXT
  5
65
330
1E
100
AcDbEntity
  8
0
  6
CONTINUOUS
 62
     7
100
AcDbText
 10
164.5999999999999
 20
112.7378999999999
 30
0.0
 40
3.2
  1
330
 50
90.0
 41
0.8125
  7
BIGFONT
100
AcDbText
  0
LINE
  5
66
330
1E
100
AcDbEntity
  8
0
  6
CONTINUOUS
 62
     7
100
AcDbLine
 10
159.3086999999998
 20
55.8786
 30
0.0
 11
174.0534
 21
55.8786
 31
0.0
  0
LINE
  5
67
330
1E
100
AcDbEntity
  8
3
  6
CONTINUOUS
 62
     7
100
AcDbLine
 10
167.273
 20
-190.3
 30
0.0
 11
167.273
 21
-140.3
 31
0.0
  0
LINE
  5
68
330
1E
100
AcDbEntity
  8
3
  6
CONTINUOUS
 62
     7
100
AcDbLine
 10
167.273
 20
-190.3
 30
0.0
 11
167.273
 21
-140.3
 31
0.0
  0
LINE
  5
69
330
1E
100
AcDbEntity
  8
3
  6
CONTINUOUS
 62
     7
100
AcDbLine
 10
167.273
 20
-190.3
 30
0.0
 11
167.273
 21
-140.3
 31
0.0
  0
LINE
  5
6A
330
1E
100
AcDbEntity
  8
3
  6
CONTINUOUS
 62
     7
100
AcDbLine
 10
167.273
 20
-190.3
 30
0.0
 11
167.273
 21
-140.3
 31
0.0
  0
LINE
  5
6B
330
1E
100
AcDbEntity
  8
3
  6
CONTINUOUS
 62
     7
100
AcDbLine
 10
167.273
 20
-190.3
 30
0.0
 11
167.273
 21
-140.3
 31
0.0
  0
LINE
  5
6C
330
1E
100
AcDbEntity
  8
3
  6
CONTINUOUS
 62
     7
100
AcDbLine
 10
167.273
 20
-190.3
 30
0.0
 11
167.273
 21
-140.3
 31
0.0
  0
LINE
  5
6D
330
1E
100
AcDbEntity
  8
3
  6
CONTINUOUS
 62
     7
100
AcDbLine
 10
167.273
 20
-140.3
 30
0.0
 11
267.2729999999999
 21
-140.3
 31
0.0
  0
LINE
  5
6E
330
1E
100
AcDbEntity
  8
3
  6
CONTINUOUS
 62
     7
100
AcDbLine
 10
267.2729999999999
 20
-190.3
 30
0.0
 11
267.2729999999999
 21
-140.3
 31
0.0
  0
LINE
  5
6F
330
1E
100
AcDbEntity
  8
3
  6
CONTINUOUS
 62
     7
100
AcDbLine
 10
167.273
 20
-190.3
 30
0.0
 11
267.2729999999999
 21
-190.3
 31
0.0
  0
LINE
  5
70
330
1E
100
AcDbEntity
  8
3
  6
CONTINUOUS
 62
     7
100
AcDbLine
 10
167.273
 20
-190.3
 30
0.0
 11
167.273
 21
-140.3
 31
0.0
  0
LINE
  5
71
330
1E
100
AcDbEntity
  8
3
  6
CONTINUOUS
 62
     7
100
AcDbLine
 10
167.273
 20
-190.3
 30
0.0
 11
267.2729999999999
 21
-190.3
 31
0.0
  0
LINE
  5
72
330
1E
100
AcDbEntity
  8
3
  6
CONTINUOUS
 62
     7
100
AcDbLine
 10
167.273
 20
-190.3
 30
0.0
 11
167.273
 21
-140.3
 31
0.0
  0
LINE
  5
73
330
1E
100
AcDbEntity
  8
3
  6
CONTINUOUS
 62
     7
100
AcDbLine
 10
167.273
 20
-150.3
 30
0.0
 11
267.2729999999999
 21
-150.3
 31
0.0
  0
LINE
  5
74
330
1E
100
AcDbEntity
  8
3
  6
CONTINUOUS
 62
     7
100
AcDbLine
 10
167.273
 20
-158.3
 30
0.0
 11
267.2729999999999
 21
-158.3
 31
0.0
  0
LINE
  5
75
330
1E
100
AcDbEntity
  8
3
  6
CONTINUOUS
 62
     7
100
AcDbLine
 10
167.273
 20
-166.3
 30
0.0
 11
267.2729999999999
 21
-166.3
 31
0.0
  0
LINE
  5
76
330
1E
100
AcDbEntity
  8
3
  6
CONTINUOUS
 62
     7
100
AcDbLine
 10
167.273
 20
-179.3
 30
0.0
 11
267.2729999999999
 21
-179.3
 31
0.0
  0
LINE
  5
77
330
1E
100
AcDbEntity
  8
3
  6
CONTINUOUS
 62
     7
100
AcDbLine
 10
194.273
 20
-179.3
 30
0.0
 11
194.273
 21
-140.3
 31
0.0
  0
LINE
  5
78
330
1E
100
AcDbEntity
  8
3
  6
CONTINUOUS
 62
     7
100
AcDbLine
 10
187.2729999999999
 20
-179.3
 30
0.0
 11
187.2729999999999
 21
-166.3
 31
0.0
  0
LINE
  5
79
330
1E
100
AcDbEntity
  8
3
  6
CONTINUOUS
 62
     7
100
AcDbLine
 10
174.2729999999999
 20
-179.3
 30
0.0
 11
174.2729999999999
 21
-166.3
 31
0.0
  0
LINE
  5
7A
330
1E
100
AcDbEntity
  8
3
  6
CONTINUOUS
 62
     7
100
AcDbLine
 10
207.2729999999999
 20
-179.3
 30
0.0
 11
207.2729999999999
 21
-166.3
 31
0.0
  0
LINE
  5
7B
330
1E
100
AcDbEntity
  8
3
  6
CONTINUOUS
 62
     7
100
AcDbLine
 10
214.2729999999999
 20
-179.3
 30
0.0
 11
214.2729999999999
 21
-166.3
 31
0.0
  0
LINE
  5
7C
330
1E
100
AcDbEntity
  8
3
  6
CONTINUOUS
 62
     7
100
AcDbLine
 10
227.273
 20
-179.3
 30
0.0
 11
227.273
 21
-166.3
 31
0.0
  0
LINE
  5
7D
330
1E
100
AcDbEntity
  8
3
  6
CONTINUOUS
 62
     7
100
AcDbLine
 10
234.2729999999999
 20
-179.3
 30
0.0
 11
234.2729999999999
 21
-166.3
 31
0.0
  0
LINE
  5
7E
330
1E
100
AcDbEntity
  8
3
  6
CONTINUOUS
 62
     7
100
AcDbLine
 10
247.2729999999998
 20
-179.3
 30
0.0
 11
247.2729999999998
 21
-166.3
 31
0.0
  0
LINE
  5
7F
330
1E
100
AcDbEntity
  8
3
  6
CONTINUOUS
 62
     7
100
AcDbLine
 10
254.273
 20
-179.3
 30
0.0
 11
254.273
 21
-166.3
 31
0.0
  0
LINE
  5
80
330
1E
100
AcDbEntity
  8
3
  6
CONTINUOUS
 62
     7
100
AcDbLine
 10
219.273
 20
-158.3
 30
0.0
 11
219.273
 21
-150.3
 31
0.0
  0
LINE
  5
81
330
1E
100
AcDbEntity
  8
3
  6
CONTINUOUS
 62
     7
100
AcDbLine
 10
242.273
 20
-158.3
 30
0.0
 11
242.273
 21
-150.3
 31
0.0
  0
TEXT
  5
82
330
1E
100
AcDbEntity
  8
3
  6
CONTINUOUS
 62
     7
100
AcDbText
 10
170.588
 20
-148.1639999999998
 30
0.0
 40
5.0
  1
図面名
  7
BIGFONT
100
AcDbText
  0
TEXT
  5
83
330
1E
100
AcDbEntity
  8
3
  6
CONTINUOUS
 62
     7
100
AcDbText
 10
171.0679999999999
 20
-156.526
 30
0.0
 40
4.0
  1
縮尺
  7
BIGFONT
100
AcDbText
  0
TEXT
  5
84
330
1E
100
AcDbEntity
  8
3
  6
CONTINUOUS
 62
     7
100
AcDbText
 10
221.504
 20
-156.43
 30
0.0
 40
4.0
  1
図面番号
  7
BIGFONT
100
AcDbText
  0
TEXT
  5
85
330
1E
100
AcDbEntity
  8
3
  6
CONTINUOUS
 62
     7
100
AcDbText
 10
170.8759999999998
 20
-164.5039999999999
 30
0.0
 40
4.0
  1
設計年月日
  7
BIGFONT
100
AcDbText
  0
TEXT
  5
86
330
1E
100
AcDbEntity
  8
3
  6
CONTINUOUS
 62
     7
100
AcDbText
 10
202.963
 20
-164.5039999999999
 30
0.0
 40
4.0
  1
平成　　年　　月　　日
  7
BIGFONT
100
AcDbText
  0
TEXT
  5
87
330
1E
100
AcDbEntity
  8
3
  6
CONTINUOUS
 62
     7
100
AcDbText
 10
189.0693321552369
 20
-188.234
 30
0.0
 40
6.0
  1
千葉窯業株式会社
  7
BIGFONT
100
AcDbText
  0
TEXT
  5
88
330
1E
100
AcDbEntity
  8
3
  6
CONTINUOUS
 62
     7
100
AcDbText
 10
168.955
 20
-168.0609999999999
 30
0.0
 40
4.0
  1
部長
 50
270.0
  7
BIGFONT
100
AcDbText
  0
TEXT
  5
89
330
1E
100
AcDbEntity
  8
3
  6
CONTINUOUS
 62
     7
100
AcDbText
 10
188.937
 20
-168.0609999999999
 30
0.0
 40
4.0
  1
課長
 50
270.0
  7
BIGFONT
100
AcDbText
  0
TEXT
  5
8A
330
1E
100
AcDbEntity
  8
3
  6
CONTINUOUS
 62
     7
100
AcDbText
 10
208.919
 20
-168.0609999999999
 30
0.0
 40
4.0
  1
検図
 50
270.0
  7
BIGFONT
100
AcDbText
  0
TEXT
  5
8B
330
1E
100
AcDbEntity
  8
3
  6
CONTINUOUS
 62
     7
100
AcDbText
 10
229.0939999999999
 20
-168.0609999999999
 30
0.0
 40
4.0
  1
設計
 50
270.0
  7
BIGFONT
100
AcDbText
  0
TEXT
  5
8C
330
1E
100
AcDbEntity
  8
3
  6
CONTINUOUS
 62
     7
100
AcDbText
 10
248.9799999999999
 20
-167.965
 30
0.0
 40
4.0
  1
製図
 50
270.0
  7
BIGFONT
100
AcDbText
  0
LINE
  5
8D
330
1E
100
AcDbEntity
  8
3
  6
CONTINUOUS
 62
     7
100
AcDbLine
 10
167.273
 20
-190.3
 30
0.0
 11
267.2729999999999
 21
-190.3
 31
0.0
  0
LINE
  5
8E
330
1E
100
AcDbEntity
  8
3
  6
CONTINUOUS
 62
     7
100
AcDbLine
 10
167.273
 20
-190.3
 30
0.0
 11
167.273
 21
-140.3
 31
0.0
  0
TEXT
  5
9E
330
1E
100
AcDbEntity
  8
3
  6
CONTINUOUS
 62
     7
100
AcDbText
 10
217.408
 20
-164.5309999999998
 30
0.0
 40
3.799999999999998
  1
３
  7
BIGFONT
100
AcDbText
  0
TEXT
  5
9F
330
1E
100
AcDbEntity
  8
3
  6
CONTINUOUS
 62
     7
100
AcDbText
 10
232.7059999999999
 20
-164.532
 30
0.0
 40
3.799999999999998
  1
６
  7
BIGFONT
100
AcDbText
  0
TEXT
  5
A0
330
1E
100
AcDbEntity
  8
3
  6
CONTINUOUS
 62
     7
100
AcDbText
 10
248.0379999999999
 20
-164.5469999999999
 30
0.0
 40
3.799999999999998
  1
１
  7
BIGFONT
100
AcDbText
  0
TEXT
  5
A1
330
1E
100
AcDbEntity
  8
3
  6
CONTINUOUS
 62
     7
100
AcDbText
 10
200.1009999999999
 20
-156.455
 30
0.0
 40
4.0
  1
１：２０
  7
BIGFONT
100
AcDbText
  0
LINE
  5
A2
330
1E
100
AcDbEntity
  8
0
  6
CONTINUOUS
 62
     7
100
AcDbLine
 10
-269.3583499999999
 20
192.3929
 30
0.0
 11
269.39165
 21
192.3929
 31
0.0
  0
LINE
  5
A3
330
1E
100
AcDbEntity
  8
0
  6
CONTINUOUS
 62
     7
100
AcDbLine
 10
269.39165
 20
-192.37965
 30
0.0
 11
269.39165
 21
192.3929
 31
0.0
  0
LINE
  5
A4
330
1E
100
AcDbEntity
  8
0
  6
CONTINUOUS
 62
     7
100
AcDbLine
 10
-269.3583499999999
 20
-192.37965
 30
0.0
 11
-269.3583499999999
 21
192.3929
 31
0.0
  0
LINE
  5
A5
330
1E
100
AcDbEntity
  8
0
  6
CONTINUOUS
 62
     7
100
AcDbLine
 10
-269.3583499999999
 20
-192.37965
 30
0.0
 11
269.39165
 21
-192.37965
 31
0.0
  0
LINE
  5
A6
330
1E
100
AcDbEntity
  8
0
  6
CONTINUOUS
 62
     7
100
AcDbLine
 10
-158.74795
 20
167.01585
 30
0.0
 11
158.7944
 21
167.01585
 31
0.0
  0
TEXT
  5
A7
330
1E
100
AcDbEntity
  8
0
  6
CONTINUOUS
 62
     7
100
AcDbText
 10
-154.32895
 20
169.2071
 30
0.0
 40
10.0
  1
ＫＬウォール３型．コーナー部構造図
  7
BIGFONT
100
AcDbText
  0
TEXT
  5
A8
330
1E
100
AcDbEntity
  8
0
  6
CONTINUOUS
 62
     7
100
AcDbText
 10
121.8392499999999
 20
170.0342
 30
0.0
 40
5.5
  1
Ｓ＝１：２０
  7
BIGFONT
100
AcDbText
  0
TEXT
  5
A9
330
1E
100
AcDbEntity
  8
0
  6
CONTINUOUS
 62
     7
100
AcDbText
 10
51.30034579570546
 20
169.8924
 30
0.0
 40
6.5
  1
(H=1500-90°)
  7
BIGFONT
100
AcDbText
  0
LINE
  5
AA
330
1E
100
AcDbEntity
  8
0
  6
CONTINUOUS
 62
     7
100
AcDbLine
 10
-97.9396
 20
146.9527
 30
0.0
 11
-45.42229999999999
 21
146.9527
 31
0.0
  0
LINE
  5
AB
330
1E
100
AcDbEntity
  8
0
  6
CONTINUOUS
 62
     7
100
AcDbLine
 10
-228.2440999999999
 20
146.9527
 30
0.0
 11
-175.7975
 21
146.9527
 31
0.0
  0
TEXT
  5
AC
330
1E
100
AcDbEntity
  8
0
  6
CONTINUOUS
 62
     7
100
AcDbText
 10
-225.14845
 20
148.15265
 30
0.0
 40
6.0
  1
Ａ－Ａ
 41
0.8666665999999999
  7
BIGFONT
100
AcDbText
  0
TEXT
  5
AD
330
1E
100
AcDbEntity
  8
0
  6
CONTINUOUS
 62
     7
100
AcDbText
 10
-94.80639999999999
 20
148.03925
 30
0.0
 40
6.0
  1
Ｂ－Ｂ
 41
0.8666665999999999
  7
BIGFONT
100
AcDbText
  0
TEXT
  5
AE
330
1E
100
AcDbEntity
  8
0
  6
CONTINUOUS
 62
     7
100
AcDbText
 10
-225.3224499999999
 20
-5.983749999999997
 30
0.0
 40
6.0
  1
Ｃ－Ｃ
 41
0.8666665999999999
  7
BIGFONT
100
AcDbText
  0
TEXT
  5
AF
330
1E
100
AcDbEntity
  8
0
  6
CONTINUOUS
 62
     7
100
AcDbText
 10
-95.1092
 20
-5.75485
 30
0.0
 40
6.0
  1
Ｄ－Ｄ
 41
0.8666665999999999
  7
BIGFONT
100
AcDbText
  0
TEXT
  5
B0
330
1E
100
AcDbEntity
  8
0
  6
CONTINUOUS
 62
     7
100
AcDbText
 10
-71.2959
 20
-5.878549999999997
 30
0.0
 40
6.0
  1
断面図
  7
BIGFONT
100
AcDbText
  0
TEXT
  5
B1
330
1E
100
AcDbEntity
  8
0
  6
CONTINUOUS
 62
     7
100
AcDbText
 10
-201.6409499999999
 20
-5.88065
 30
0.0
 40
6.0
  1
断面図
  7
BIGFONT
100
AcDbText
  0
TEXT
  5
B2
330
1E
100
AcDbEntity
  8
0
  6
CONTINUOUS
 62
     7
100
AcDbText
 10
-201.6083
 20
148.0637999999999
 30
0.0
 40
6.0
  1
断面図
  7
BIGFONT
100
AcDbText
  0
TEXT
  5
B3
330
1E
100
AcDbEntity
  8
0
  6
CONTINUOUS
 62
     7
100
AcDbText
 10
-71.3061
 20
148.18475
 30
0.0
 40
6.0
  1
断面図
  7
BIGFONT
100
AcDbText
  0
LINE
  5
B4
330
1E
100
AcDbEntity
  8
0
  6
CONTINUOUS
 62
     7
100
AcDbLine
 10
-228.2440999999999
 20
-7.082349999999999
 30
0.0
 11
-175.9505499999999
 21
-7.082349999999999
 31
0.0
  0
LINE
  5
B5
330
1E
100
AcDbEntity
  8
0
  6
CONTINUOUS
 62
     7
100
AcDbLine
 10
-97.9396
 20
-7.082349999999999
 30
0.0
 11
-45.52195
 21
-7.082349999999999
 31
0.0
  0
LINE
  5
B6
330
1E
100
AcDbEntity
  8
0
  6
CONTINUOUS
 62
     7
100
AcDbLine
 10
195.82685
 20
146.9527
 30
0.0
 11
222.3369
 21
146.9527
 31
0.0
  0
TEXT
  5
B7
330
1E
100
AcDbEntity
  8
0
  6
CONTINUOUS
 62
     7
100
AcDbText
 10
197.08635
 20
148.0977
 30
0.0
 40
6.2
  1
側面図
  7
BIGFONT
100
AcDbText
  0
TEXT
  5
B8
330
1E
100
AcDbEntity
  8
0
  6
CONTINUOUS
 62
     7
100
AcDbText
 10
197.02805
 20
-5.901699999999999
 30
0.0
 40
6.2
  1
平面図
  7
BIGFONT
100
AcDbText
  0
LINE
  5
B9
330
1E
100
AcDbEntity
  8
0
  6
CONTINUOUS
 62
     7
100
AcDbLine
 10
195.77685
 20
-7.082349999999999
 30
0.0
 11
222.2668999999999
 21
-7.082349999999999
 31
0.0
  0
LINE
  5
BA
330
1E
100
AcDbEntity
  8
0
  6
CONTINUOUS
 62
     7
100
AcDbLine
 10
175.0
 20
-33.23344999999999
 30
0.0
 11
242.5
 21
-33.23344999999999
 31
0.0
  0
LINE
  5
BB
330
1E
100
AcDbEntity
  8
0
  6
CONTINUOUS
 62
     7
100
AcDbLine
 10
175.0
 20
-100.73345
 30
0.0
 11
175.0
 21
-33.23344999999999
 31
0.0
  0
LINE
  5
BC
330
1E
100
AcDbEntity
  8
0
  6
CONTINUOUS
 62
     7
100
AcDbLine
 10
186.0
 20
-100.73345
 30
0.0
 11
186.0
 21
-50.73344999999999
 31
0.0
  0
LINE
  5
BD
330
1E
100
AcDbEntity
  8
0
  6
CONTINUOUS
 62
     7
100
AcDbLine
 10
192.5
 20
-44.23345
 30
0.0
 11
242.5
 21
-44.23345
 31
0.0
  0
LINE
  5
BE
330
1E
100
AcDbEntity
  8
0
  6
CONTINUOUS
 62
     7
100
AcDbLine
 10
181.0
 20
-50.73344999999999
 30
0.0
 11
186.0
 21
-50.73344999999999
 31
0.0
  0
LINE
  5
BF
330
1E
100
AcDbEntity
  8
0
  6
CONTINUOUS
 62
     7
100
AcDbLine
 10
192.5
 20
-44.23345
 30
0.0
 11
192.5
 21
-39.23344999999999
 31
0.0
  0
LINE
  5
C0
330
1E
100
AcDbEntity
  8
0
  6
CONTINUOUS
 62
     7
100
AcDbLine
 10
175.0
 20
-100.73345
 30
0.0
 11
227.4999999999999
 21
-100.73345
 31
0.0
  0
LINE
  5
C1
330
1E
100
AcDbEntity
  8
0
  6
CONTINUOUS
 62
     7
100
AcDbLine
 10
242.5
 20
-85.73345000000001
 30
0.0
 11
242.5
 21
-33.23344999999999
 31
0.0
  0
LINE
  5
C2
330
1E
100
AcDbEntity
  8
0
  6
CONTINUOUS
 62
     7
100
AcDbLine
 10
157.5
 20
-100.73345
 30
0.0
 11
157.5
 21
-33.23344999999999
 31
0.0
  0
LINE
  5
C3
330
1E
100
AcDbEntity
  8
0
  6
CONTINUOUS
 62
     7
100
AcDbLine
 10
174.0
 20
-33.23344999999999
 30
0.0
 11
156.6999999999999
 21
-33.23344999999999
 31
0.0
  0
LINE
  5
C4
330
1E
100
AcDbEntity
  8
0
  6
CONTINUOUS
 62
     7
100
AcDbLine
 10
174.0
 20
-100.73345
 30
0.0
 11
156.6999999999999
 21
-100.73345
 31
0.0
  0
LINE
  5
C5
330
1E
100
AcDbEntity
  8
0
  6
CONTINUOUS
 62
     7
100
AcDbLine
 10
157.82153
 20
-34.433
 30
0.0
 11
157.5
 21
-33.23299999999999
 31
0.0
  0
LINE
  5
C6
330
1E
100
AcDbEntity
  8
0
  6
CONTINUOUS
 62
     7
100
AcDbLine
 10
157.5
 20
-33.23299999999999
 30
0.0
 11
157.1784599999999
 21
-34.433
 31
0.0
  0
LINE
  5
C7
330
1E
100
AcDbEntity
  8
0
  6
CONTINUOUS
 62
     7
100
AcDbLine
 10
157.1784599999999
 20
-99.53299999999998
 30
0.0
 11
157.5
 21
-100.7329999999999
 31
0.0
  0
LINE
  5
C8
330
1E
100
AcDbEntity
  8
0
  6
CONTINUOUS
 62
     7
100
AcDbLine
 10
157.5
 20
-100.7329999999999
 30
0.0
 11
157.82153
 21
-99.53299999999998
 31
0.0
  0
TEXT
  5
C9
330
1E
100
AcDbEntity
  8
0
  6
CONTINUOUS
 62
     7
100
AcDbText
 10
157.0999999999999
 20
-72.18344999999998
 30
0.0
 40
3.2
  1
1350
 50
90.0
 41
0.8125
  7
BIGFONT
100
AcDbText
  0
LINE
  5
CA
330
1E
100
AcDbEntity
  8
0
  6
CONTINUOUS
 62
     7
100
AcDbLine
 10
165.0
 20
-100.73345
 30
0.0
 11
165.0
 21
-50.7295
 31
0.0
  0
LINE
  5
CB
330
1E
100
AcDbEntity
  8
0
  6
CONTINUOUS
 62
     7
100
AcDbLine
 10
174.0
 20
-50.7295
 30
0.0
 11
164.1999999999999
 21
-50.7295
 31
0.0
  0
LINE
  5
CC
330
1E
100
AcDbEntity
  8
0
  6
CONTINUOUS
 62
     7
100
AcDbLine
 10
167.91635
 20
-100.73345
 30
0.0
 11
164.1999999999999
 21
-100.73345
 31
0.0
  0
LINE
  5
CD
330
1E
100
AcDbEntity
  8
0
  6
CONTINUOUS
 62
     7
100
AcDbLine
 10
165.32153
 20
-51.92899999999998
 30
0.0
 11
165.0
 21
-50.729
 31
0.0
  0
LINE
  5
CE
330
1E
100
AcDbEntity
  8
0
  6
CONTINUOUS
 62
     7
100
AcDbLine
 10
165.0
 20
-50.729
 30
0.0
 11
164.67846
 21
-51.92899999999998
 31
0.0
  0
LINE
  5
CF
330
1E
100
AcDbEntity
  8
0
  6
CONTINUOUS
 62
     7
100
AcDbLine
 10
164.67846
 20
-99.53299999999998
 30
0.0
 11
165.0
 21
-100.7329999999999
 31
0.0
  0
LINE
  5
D0
330
1E
100
AcDbEntity
  8
0
  6
CONTINUOUS
 62
     7
100
AcDbLine
 10
165.0
 20
-100.7329999999999
 30
0.0
 11
165.32153
 21
-99.53299999999998
 31
0.0
  0
TEXT
  5
D1
330
1E
100
AcDbEntity
  8
0
  6
CONTINUOUS
 62
     7
100
AcDbText
 10
164.5999999999999
 20
-80.93147
 30
0.0
 40
3.2
  1
1000
 50
90.0
 41
0.8125
  7
BIGFONT
100
AcDbText
  0
LINE
  5
D2
330
1E
100
AcDbEntity
  8
0
  6
CONTINUOUS
 62
     7
100
AcDbLine
 10
175.0
 20
-118.23345
 30
0.0
 11
227.4999999999999
 21
-118.23345
 31
0.0
  0
LINE
  5
D3
330
1E
100
AcDbEntity
  8
0
  6
CONTINUOUS
 62
     7
100
AcDbLine
 10
227.4999999999999
 20
-101.73345
 30
0.0
 11
227.4999999999999
 21
-119.03345
 31
0.0
  0
LINE
  5
D4
330
1E
100
AcDbEntity
  8
0
  6
CONTINUOUS
 62
     7
100
AcDbLine
 10
175.0
 20
-101.73345
 30
0.0
 11
175.0
 21
-119.03345
 31
0.0
  0
LINE
  5
D5
330
1E
100
AcDbEntity
  8
0
  6
CONTINUOUS
 62
     7
100
AcDbLine
 10
226.3
 20
-118.55453
 30
0.0
 11
227.4999999999999
 21
-118.2329999999997
 31
0.0
  0
LINE
  5
D6
330
1E
100
AcDbEntity
  8
0
  6
CONTINUOUS
 62
     7
100
AcDbLine
 10
227.4999999999999
 20
-118.2329999999997
 30
0.0
 11
226.3
 21
-117.91146
 31
0.0
  0
LINE
  5
D7
330
1E
100
AcDbEntity
  8
0
  6
CONTINUOUS
 62
     7
100
AcDbLine
 10
176.2
 20
-117.91146
 30
0.0
 11
175.0
 21
-118.2329999999997
 31
0.0
  0
LINE
  5
D8
330
1E
100
AcDbEntity
  8
0
  6
CONTINUOUS
 62
     7
100
AcDbLine
 10
175.0
 20
-118.2329999999997
 30
0.0
 11
176.2
 21
-118.55453
 31
0.0
  0
TEXT
  5
D9
330
1E
100
AcDbEntity
  8
0
  6
CONTINUOUS
 62
     7
100
AcDbText
 10
196.05
 20
-117.83345
 30
0.0
 40
3.2
  1
1050
 41
0.8125
  7
BIGFONT
100
AcDbText
  0
LINE
  5
DA
330
1E
100
AcDbEntity
  8
0
  6
CONTINUOUS
 62
     7
100
AcDbLine
 10
175.0
 20
-110.73345
 30
0.0
 11
181.0
 21
-110.73345
 31
0.0
  0
LINE
  5
DB
330
1E
100
AcDbEntity
  8
0
  6
CONTINUOUS
 62
     7
100
AcDbLine
 10
181.0
 20
-101.73345
 30
0.0
 11
181.0
 21
-111.53345
 31
0.0
  0
LINE
  5
DC
330
1E
100
AcDbEntity
  8
0
  6
CONTINUOUS
 62
     7
100
AcDbLine
 10
175.0
 20
-107.40505
 30
0.0
 11
175.0
 21
-111.53345
 31
0.0
  0
LINE
  5
DD
330
1E
100
AcDbEntity
  8
0
  6
CONTINUOUS
 62
     7
100
AcDbLine
 10
179.8
 20
-111.05453
 30
0.0
 11
181.0
 21
-110.7329999999999
 31
0.0
  0
LINE
  5
DE
330
1E
100
AcDbEntity
  8
0
  6
CONTINUOUS
 62
     7
100
AcDbLine
 10
181.0
 20
-110.7329999999999
 30
0.0
 11
179.8
 21
-110.41146
 31
0.0
  0
LINE
  5
DF
330
1E
100
AcDbEntity
  8
0
  6
CONTINUOUS
 62
     7
100
AcDbLine
 10
176.2
 20
-110.41146
 30
0.0
 11
175.0
 21
-110.7329999999999
 31
0.0
  0
LINE
  5
E0
330
1E
100
AcDbEntity
  8
0
  6
CONTINUOUS
 62
     7
100
AcDbLine
 10
175.0
 20
-110.7329999999999
 30
0.0
 11
176.2
 21
-111.05453
 31
0.0
  0
TEXT
  5
E1
330
1E
100
AcDbEntity
  8
0
  6
CONTINUOUS
 62
     7
100
AcDbText
 10
174.0999999999999
 20
-110.33345
 30
0.0
 40
3.2
  1
120
 41
0.8125
  7
BIGFONT
100
AcDbText
  0
LINE
  5
E2
330
1E
100
AcDbEntity
  8
0
  6
CONTINUOUS
 62
     7
100
AcDbLine
 10
181.0
 20
-110.73345
 30
0.0
 11
186.0
 21
-110.73345
 31
0.0
  0
LINE
  5
E3
330
1E
100
AcDbEntity
  8
0
  6
CONTINUOUS
 62
     7
100
AcDbLine
 10
186.0
 20
-101.73345
 30
0.0
 11
186.0
 21
-111.53345
 31
0.0
  0
LINE
  5
E4
330
1E
100
AcDbEntity
  8
0
  6
CONTINUOUS
 62
     7
100
AcDbLine
 10
188.4
 20
-110.73345
 30
0.0
 11
186.0
 21
-110.73345
 31
0.0
  0
LINE
  5
E5
330
1E
100
AcDbEntity
  8
0
  6
CONTINUOUS
 62
     7
100
AcDbLine
 10
187.1999999999999
 20
-110.41146
 30
0.0
 11
186.0
 21
-110.7329999999999
 31
0.0
  0
LINE
  5
E6
330
1E
100
AcDbEntity
  8
0
  6
CONTINUOUS
 62
     7
100
AcDbLine
 10
186.0
 20
-110.7329999999999
 30
0.0
 11
187.1999999999999
 21
-111.05453
 31
0.0
  0
LINE
  5
E7
330
1E
100
AcDbEntity
  8
0
  6
CONTINUOUS
 62
     7
100
AcDbLine
 10
181.0
 20
-110.73345
 30
0.0
 11
178.6
 21
-110.73345
 31
0.0
  0
LINE
  5
E8
330
1E
100
AcDbEntity
  8
0
  6
CONTINUOUS
 62
     7
100
AcDbLine
 10
179.8
 20
-111.05453
 30
0.0
 11
181.0
 21
-110.7329999999999
 31
0.0
  0
LINE
  5
E9
330
1E
100
AcDbEntity
  8
0
  6
CONTINUOUS
 62
     7
100
AcDbLine
 10
181.0
 20
-110.7329999999999
 30
0.0
 11
179.8
 21
-110.41146
 31
0.0
  0
LINE
  5
EA
330
1E
100
AcDbEntity
  8
0
  6
CONTINUOUS
 62
     7
100
AcDbLine
 10
188.4
 20
-110.73345
 30
0.0
 11
194.32
 21
-110.73345
 31
0.0
  0
TEXT
  5
EB
330
1E
100
AcDbEntity
  8
0
  6
CONTINUOUS
 62
     7
100
AcDbText
 10
186.52
 20
-110.33345
 30
0.0
 40
3.2
  1
100
 41
0.8125
  7
BIGFONT
100
AcDbText
  0
LINE
  5
EC
330
1E
100
AcDbEntity
  8
0
  6
CONTINUOUS
 62
     7
100
AcDbLine
 10
234.57105
 20
-107.8045
 30
0.0
 11
249.5617
 21
-92.81385
 31
0.0
  0
LINE
  5
ED
330
1E
100
AcDbEntity
  8
0
  6
CONTINUOUS
 62
     7
100
AcDbLine
 10
234.57105
 20
-107.8045
 30
0.0
 11
249.57105
 21
-92.8045
 31
0.0
  0
LINE
  5
EE
330
1E
100
AcDbEntity
  8
0
  6
CONTINUOUS
 62
     7
100
AcDbLine
 10
243.2071
 20
-86.44054999999999
 30
0.0
 11
250.1367299999999
 21
-93.37018
 31
0.0
  0
LINE
  5
EF
330
1E
100
AcDbEntity
  8
0
  6
CONTINUOUS
 62
     7
100
AcDbLine
 10
228.2071
 20
-101.44055
 30
0.0
 11
235.1367299999999
 21
-108.37018
 31
0.0
  0
LINE
  5
F0
330
1E
100
AcDbEntity
  8
0
  6
CONTINUOUS
 62
     7
100
AcDbLine
 10
248.94983
 20
-93.87989000000001
 30
0.0
 11
249.5709999999998
 21
-92.804
 31
0.0
  0
LINE
  5
F1
330
1E
100
AcDbEntity
  8
0
  6
CONTINUOUS
 62
     7
100
AcDbLine
 10
249.5709999999998
 20
-92.804
 30
0.0
 11
248.4951
 21
-93.42516000000001
 31
0.0
  0
LINE
  5
F2
330
1E
100
AcDbEntity
  8
0
  6
CONTINUOUS
 62
     7
100
AcDbLine
 10
235.19216
 20
-106.7280999999999
 30
0.0
 11
234.5709999999999
 21
-107.804
 31
0.0
  0
LINE
  5
F3
330
1E
100
AcDbEntity
  8
0
  6
CONTINUOUS
 62
     7
100
AcDbLine
 10
234.5709999999999
 20
-107.804
 30
0.0
 11
235.6468899999999
 21
-107.18283
 31
0.0
  0
TEXT
  5
F4
330
1E
100
AcDbEntity
  8
0
  6
CONTINUOUS
 62
     7
100
AcDbText
 10
239.0304899999999
 20
-102.7793699999999
 30
0.0
 40
3.2
  1
424
 50
45.0
 41
0.8125
  7
BIGFONT
100
AcDbText
  0
ARC
  5
F5
330
1E
100
AcDbEntity
  8
0
  6
CONTINUOUS
 62
     7
100
AcDbCircle
 10
175.0
 20
-33.23344999999999
 30
0.0
 40
6.51735
100
AcDbArc
 50
270.0
 51
0.0
  0
ARC
  5
F6
330
1E
100
AcDbEntity
  8
0
  6
CONTINUOUS
 62
     7
100
AcDbCircle
 10
173.3132699999999
 20
-33.45505999999998
 30
0.0
 40
6.517
100
AcDbArc
 50
285.0
 51
295.55009
  0
ARC
  5
F7
330
1E
100
AcDbEntity
  8
0
  6
CONTINUOUS
 62
     7
100
AcDbCircle
 10
176.68672
 20
-33.45505999999998
 30
0.0
 40
6.517
100
AcDbArc
 50
255.0
 51
265.55009
  0
ARC
  5
F8
330
1E
100
AcDbEntity
  8
0
  6
CONTINUOUS
 62
     7
100
AcDbCircle
 10
175.22206
 20
-34.91972
 30
0.0
 40
6.517
100
AcDbArc
 50
4.449910099999998
 51
15.0
  0
ARC
  5
F9
330
1E
100
AcDbEntity
  8
0
  6
CONTINUOUS
 62
     7
100
AcDbCircle
 10
175.22206
 20
-31.54627
 30
0.0
 40
6.517
100
AcDbArc
 50
334.44991
 51
345.0
  0
TEXT
  5
FA
330
1E
100
AcDbEntity
  8
0
  6
CONTINUOUS
 62
     7
100
AcDbText
 10
179.9044
 20
-43.5116
 30
0.0
 40
3.2
  1
90°
 50
45.0
  7
BIGFONT
100
AcDbText
  0
LINE
  5
FB
330
1E
100
AcDbEntity
  8
0
  6
CONTINUOUS
 62
     7
100
AcDbLine
 10
175.0
 20
63.8819
 30
0.0
 11
181.0
 21
63.8819
 31
0.0
  0
LINE
  5
FC
330
1E
100
AcDbEntity
  8
0
  6
CONTINUOUS
 62
     7
100
AcDbLine
 10
242.5
 20
49.8819
 30
0.0
 11
242.5
 21
60.8819
 31
0.0
  0
LINE
  5
FD
330
1E
100
AcDbEntity
  8
0
  6
CONTINUOUS
 62
     7
100
AcDbLine
 10
227.4999999999999
 20
49.8819
 30
0.0
 11
227.4999999999999
 21
55.8819
 31
0.0
  0
LINE
  5
FE
330
1E
100
AcDbEntity
  8
0
  6
CONTINUOUS
 62
     7
100
AcDbLine
 10
227.4999999999999
 20
49.8819
 30
0.0
 11
227.4999999999999
 21
55.8819
 31
0.0
  0
LINE
  5
FF
330
1E
100
AcDbEntity
  8
0
  6
CONTINUOUS
 62
     7
100
AcDbLine
 10
192.5
 20
60.8819
 30
0.0
 11
242.5
 21
60.8819
 31
0.0
  0
LINE
  5
100
330
1E
100
AcDbEntity
  8
0
  6
CONTINUOUS
 62
     7
100
AcDbLine
 10
192.5
 20
55.8819
 30
0.0
 11
192.5
 21
60.8819
 31
0.0
  0
LINE
  5
101
330
1E
100
AcDbEntity
  8
0
  6
CONTINUOUS
 62
     7
100
AcDbLine
 10
181.0
 20
60.8819
 30
0.0
 11
186.0
 21
55.8819
 31
0.0
  0
LINE
  5
102
330
1E
100
AcDbEntity
  8
0
  6
CONTINUOUS
 62
     7
100
AcDbLine
 10
186.0
 20
55.8819
 30
0.0
 11
242.5
 21
55.8819
 31
0.0
  0
LINE
  5
103
330
1E
100
AcDbEntity
  8
0
  6
CONTINUOUS
 62
     7
100
AcDbLine
 10
181.0
 20
60.8819
 30
0.0
 11
181.0
 21
124.4318999999999
 31
0.0
  0
LINE
  5
104
330
1E
100
AcDbEntity
  8
0
  6
CONTINUOUS
 62
     7
100
AcDbLine
 10
192.5
 20
60.8819
 30
0.0
 11
242.5
 21
60.8819
 31
0.0
  0
LINE
  5
105
330
1E
100
AcDbEntity
  8
0
  6
CONTINUOUS
 62
     7
100
AcDbLine
 10
175.0
 20
25.0
 30
0.0
 11
227.4999999999999
 21
25.0
 31
0.0
  0
LINE
  5
106
330
1E
100
AcDbEntity
  8
0
  6
CONTINUOUS
 62
     7
100
AcDbLine
 10
227.4999999999999
 20
48.8819
 30
0.0
 11
227.4999999999999
 21
24.19999999999999
 31
0.0
  0
LINE
  5
107
330
1E
100
AcDbEntity
  8
0
  6
CONTINUOUS
 62
     7
100
AcDbLine
 10
175.0
 20
48.8819
 30
0.0
 11
175.0
 21
24.19999999999999
 31
0.0
  0
LINE
  5
108
330
1E
100
AcDbEntity
  8
0
  6
CONTINUOUS
 62
     7
100
AcDbLine
 10
226.3
 20
24.67846
 30
0.0
 11
227.4999999999999
 21
25.0
 31
0.0
  0
LINE
  5
109
330
1E
100
AcDbEntity
  8
0
  6
CONTINUOUS
 62
     7
100
AcDbLine
 10
227.4999999999999
 20
25.0
 30
0.0
 11
226.3
 21
25.32153
 31
0.0
  0
LINE
  5
10A
330
1E
100
AcDbEntity
  8
0
  6
CONTINUOUS
 62
     7
100
AcDbLine
 10
176.2
 20
25.32153
 30
0.0
 11
175.0
 21
25.0
 31
0.0
  0
LINE
  5
10B
330
1E
100
AcDbEntity
  8
0
  6
CONTINUOUS
 62
     7
100
AcDbLine
 10
175.0
 20
25.0
 30
0.0
 11
176.2
 21
24.67846
 31
0.0
  0
TEXT
  5
10C
330
1E
100
AcDbEntity
  8
0
  6
CONTINUOUS
 62
     7
100
AcDbText
 10
196.05
 20
25.4
 30
0.0
 40
3.2
  1
1050
 41
0.8125
  7
BIGFONT
100
AcDbText
  0
LINE
  5
10D
330
1E
100
AcDbEntity
  8
0
  6
CONTINUOUS
 62
     7
100
AcDbLine
 10
175.0
 20
40.0
 30
0.0
 11
202.4999999999999
 21
40.0
 31
0.0
  0
LINE
  5
10E
330
1E
100
AcDbEntity
  8
0
  6
CONTINUOUS
 62
     7
100
AcDbLine
 10
202.4999999999999
 20
48.8819
 30
0.0
 11
202.4999999999999
 21
39.2
 31
0.0
  0
LINE
  5
10F
330
1E
100
AcDbEntity
  8
0
  6
CONTINUOUS
 62
     7
100
AcDbLine
 10
175.0
 20
42.57869999999999
 30
0.0
 11
175.0
 21
39.2
 31
0.0
  0
LINE
  5
110
330
1E
100
AcDbEntity
  8
0
  6
CONTINUOUS
 62
     7
100
AcDbLine
 10
201.3
 20
39.67846
 30
0.0
 11
202.4999999999999
 21
40.0
 31
0.0
  0
LINE
  5
111
330
1E
100
AcDbEntity
  8
0
  6
CONTINUOUS
 62
     7
100
AcDbLine
 10
202.4999999999999
 20
40.0
 30
0.0
 11
201.3
 21
40.32153
 31
0.0
  0
LINE
  5
112
330
1E
100
AcDbEntity
  8
0
  6
CONTINUOUS
 62
     7
100
AcDbLine
 10
176.2
 20
40.32153
 30
0.0
 11
175.0
 21
40.0
 31
0.0
  0
LINE
  5
113
330
1E
100
AcDbEntity
  8
0
  6
CONTINUOUS
 62
     7
100
AcDbLine
 10
175.0
 20
40.0
 30
0.0
 11
176.2
 21
39.67846
 31
0.0
  0
TEXT
  5
114
330
1E
100
AcDbEntity
  8
0
  6
CONTINUOUS
 62
     7
100
AcDbText
 10
184.8499999999999
 20
40.4
 30
0.0
 40
3.2
  1
550
 41
0.8125
  7
BIGFONT
100
AcDbText
  0
LINE
  5
115
330
1E
100
AcDbEntity
  8
0
  6
CONTINUOUS
 62
     7
100
AcDbLine
 10
202.4999999999999
 20
40.0
 30
0.0
 11
227.4999999999999
 21
40.0
 31
0.0
  0
LINE
  5
116
330
1E
100
AcDbEntity
  8
0
  6
CONTINUOUS
 62
     7
100
AcDbLine
 10
227.4999999999999
 20
41.6625
 30
0.0
 11
227.4999999999999
 21
39.2
 31
0.0
  0
LINE
  5
117
330
1E
100
AcDbEntity
  8
0
  6
CONTINUOUS
 62
     7
100
AcDbLine
 10
226.3
 20
39.67846
 30
0.0
 11
227.4999999999999
 21
40.0
 31
0.0
  0
LINE
  5
118
330
1E
100
AcDbEntity
  8
0
  6
CONTINUOUS
 62
     7
100
AcDbLine
 10
227.4999999999999
 20
40.0
 30
0.0
 11
226.3
 21
40.32153
 31
0.0
  0
LINE
  5
119
330
1E
100
AcDbEntity
  8
0
  6
CONTINUOUS
 62
     7
100
AcDbLine
 10
203.6999999999999
 20
40.32153
 30
0.0
 11
202.4999999999999
 21
40.0
 31
0.0
  0
LINE
  5
11A
330
1E
100
AcDbEntity
  8
0
  6
CONTINUOUS
 62
     7
100
AcDbLine
 10
202.4999999999999
 20
40.0
 30
0.0
 11
203.6999999999999
 21
39.67846
 31
0.0
  0
TEXT
  5
11B
330
1E
100
AcDbEntity
  8
0
  6
CONTINUOUS
 62
     7
100
AcDbText
 10
211.0999999999999
 20
40.4
 30
0.0
 40
3.2
  1
500
 41
0.8125
  7
BIGFONT
100
AcDbText
  0
LINE
  5
11C
330
1E
100
AcDbEntity
  8
0
  6
CONTINUOUS
 62
     7
100
AcDbLine
 10
175.0
 20
32.5
 30
0.0
 11
181.0
 21
32.5
 31
0.0
  0
LINE
  5
11D
330
1E
100
AcDbEntity
  8
0
  6
CONTINUOUS
 62
     7
100
AcDbLine
 10
181.0
 20
39.0
 30
0.0
 11
181.0
 21
31.69999999999999
 31
0.0
  0
LINE
  5
11E
330
1E
100
AcDbEntity
  8
0
  6
CONTINUOUS
 62
     7
100
AcDbLine
 10
175.0
 20
37.33435
 30
0.0
 11
175.0
 21
31.69999999999999
 31
0.0
  0
LINE
  5
11F
330
1E
100
AcDbEntity
  8
0
  6
CONTINUOUS
 62
     7
100
AcDbLine
 10
179.8
 20
32.17846
 30
0.0
 11
181.0
 21
32.5
 31
0.0
  0
LINE
  5
120
330
1E
100
AcDbEntity
  8
0
  6
CONTINUOUS
 62
     7
100
AcDbLine
 10
181.0
 20
32.5
 30
0.0
 11
179.8
 21
32.82152999999999
 31
0.0
  0
LINE
  5
121
330
1E
100
AcDbEntity
  8
0
  6
CONTINUOUS
 62
     7
100
AcDbLine
 10
176.2
 20
32.82152999999999
 30
0.0
 11
175.0
 21
32.5
 31
0.0
  0
LINE
  5
122
330
1E
100
AcDbEntity
  8
0
  6
CONTINUOUS
 62
     7
100
AcDbLine
 10
175.0
 20
32.5
 30
0.0
 11
176.2
 21
32.17846
 31
0.0
  0
TEXT
  5
123
330
1E
100
AcDbEntity
  8
0
  6
CONTINUOUS
 62
     7
100
AcDbText
 10
174.0999999999999
 20
32.9
 30
0.0
 40
3.2
  1
120
 41
0.8125
  7
BIGFONT
100
AcDbText
  0
LINE
  5
124
330
1E
100
AcDbEntity
  8
0
  6
CONTINUOUS
 62
     7
100
AcDbLine
 10
181.0
 20
32.5
 30
0.0
 11
227.4999999999999
 21
32.5
 31
0.0
  0
LINE
  5
125
330
1E
100
AcDbEntity
  8
0
  6
CONTINUOUS
 62
     7
100
AcDbLine
 10
227.4999999999999
 20
34.60844999999999
 30
0.0
 11
227.4999999999999
 21
31.69999999999999
 31
0.0
  0
LINE
  5
126
330
1E
100
AcDbEntity
  8
0
  6
CONTINUOUS
 62
     7
100
AcDbLine
 10
226.3
 20
32.17846
 30
0.0
 11
227.4999999999999
 21
32.5
 31
0.0
  0
LINE
  5
127
330
1E
100
AcDbEntity
  8
0
  6
CONTINUOUS
 62
     7
100
AcDbLine
 10
227.4999999999999
 20
32.5
 30
0.0
 11
226.3
 21
32.82152999999999
 31
0.0
  0
LINE
  5
128
330
1E
100
AcDbEntity
  8
0
  6
CONTINUOUS
 62
     7
100
AcDbLine
 10
182.1999999999999
 20
32.82152999999999
 30
0.0
 11
181.0
 21
32.5
 31
0.0
  0
LINE
  5
129
330
1E
100
AcDbEntity
  8
0
  6
CONTINUOUS
 62
     7
100
AcDbLine
 10
181.0
 20
32.5
 30
0.0
 11
182.1999999999999
 21
32.17846
 31
0.0
  0
TEXT
  5
12A
330
1E
100
AcDbEntity
  8
0
  6
CONTINUOUS
 62
     7
100
AcDbText
 10
200.3499999999999
 20
32.9
 30
0.0
 40
3.2
  1
930
 41
0.8125
  7
BIGFONT
100
AcDbText
  0
LINE
  5
12B
330
1E
100
AcDbEntity
  8
0
  6
CONTINUOUS
 62
     7
100
AcDbLine
 10
181.0
 20
41.5865
 30
0.0
 11
181.0
 21
48.8573
 31
0.0
  0
LINE
  5
12C
330
1E
100
AcDbEntity
  8
0
  6
CONTINUOUS
 62
     7
100
AcDbLine
 10
150.0
 20
49.8819
 30
0.0
 11
150.0
 21
55.86155
 31
0.0
  0
LINE
  5
12D
330
1E
100
AcDbEntity
  8
0
  6
CONTINUOUS
 62
     7
100
AcDbLine
 10
152.909
 20
55.86155
 30
0.0
 11
149.1999999999999
 21
55.86155
 31
0.0
  0
LINE
  5
12E
330
1E
100
AcDbEntity
  8
0
  6
CONTINUOUS
 62
     7
100
AcDbLine
 10
150.4075499999999
 20
49.8819
 30
0.0
 11
149.1999999999999
 21
49.8819
 31
0.0
  0
LINE
  5
12F
330
1E
100
AcDbEntity
  8
0
  6
CONTINUOUS
 62
     7
100
AcDbLine
 10
150.3215299999999
 20
54.661
 30
0.0
 11
150.0
 21
55.861
 31
0.0
  0
LINE
  5
130
330
1E
100
AcDbEntity
  8
0
  6
CONTINUOUS
 62
     7
100
AcDbLine
 10
150.0
 20
55.861
 30
0.0
 11
149.6784599999999
 21
54.661
 31
0.0
  0
LINE
  5
131
330
1E
100
AcDbEntity
  8
0
  6
CONTINUOUS
 62
     7
100
AcDbLine
 10
149.6784599999999
 20
51.081
 30
0.0
 11
150.0
 21
49.881
 31
0.0
  0
LINE
  5
132
330
1E
100
AcDbEntity
  8
0
  6
CONTINUOUS
 62
     7
100
AcDbLine
 10
150.0
 20
49.881
 30
0.0
 11
150.3215299999999
 21
51.081
 31
0.0
  0
TEXT
  5
133
330
1E
100
AcDbEntity
  8
0
  6
CONTINUOUS
 62
     7
100
AcDbText
 10
149.5999999999999
 20
50.60306582626063
 30
0.0
 40
3.2
  1
120
 50
90.0
 41
0.8125
  7
BIGFONT
100
AcDbText
  0
LINE
  5
134
330
1E
100
AcDbEntity
  8
0
  6
CONTINUOUS
 62
     7
100
AcDbLine
 10
150.0
 20
55.86155
 30
0.0
 11
150.0
 21
124.8819
 31
0.0
  0
LINE
  5
135
330
1E
100
AcDbEntity
  8
0
  6
CONTINUOUS
 62
     7
100
AcDbLine
 10
150.0
 20
124.8819
 30
0.0
 11
149.1999999999999
 21
124.8819
 31
0.0
  0
LINE
  5
136
330
1E
100
AcDbEntity
  8
0
  6
CONTINUOUS
 62
     7
100
AcDbLine
 10
150.3215299999999
 20
123.6809999999999
 30
0.0
 11
150.0
 21
124.8809999999999
 31
0.0
  0
LINE
  5
137
330
1E
100
AcDbEntity
  8
0
  6
CONTINUOUS
 62
     7
100
AcDbLine
 10
150.0
 20
124.8809999999999
 30
0.0
 11
149.6784599999999
 21
123.6809999999999
 31
0.0
  0
LINE
  5
138
330
1E
100
AcDbEntity
  8
0
  6
CONTINUOUS
 62
     7
100
AcDbLine
 10
149.6784599999999
 20
57.06100000000001
 30
0.0
 11
150.0
 21
55.861
 31
0.0
  0
LINE
  5
139
330
1E
100
AcDbEntity
  8
0
  6
CONTINUOUS
 62
     7
100
AcDbLine
 10
150.0
 20
55.861
 30
0.0
 11
150.3215299999999
 21
57.06100000000001
 31
0.0
  0
TEXT
  5
13A
330
1E
100
AcDbEntity
  8
0
  6
CONTINUOUS
 62
     7
100
AcDbText
 10
149.5999999999999
 20
85.17172
 30
0.0
 40
3.2
  1
1380
 50
90.0
 41
0.8125
  7
BIGFONT
100
AcDbText
  0
LINE
  5
13B
330
1E
100
AcDbEntity
  8
0
  6
CONTINUOUS
 62
     7
100
AcDbLine
 10
242.5
 20
58.96045
 30
0.0
 11
242.5
 21
63.8823
 31
0.0
  0
LINE
  5
13C
330
1E
100
AcDbEntity
  8
0
  6
CONTINUOUS
 62
     7
100
AcDbLine
 10
99.56330000000001
 20
104.8818999999999
 30
0.0
 11
99.56330000000001
 21
124.8819
 31
0.0
  0
LINE
  5
13D
330
1E
100
AcDbEntity
  8
0
  6
CONTINUOUS
 62
     7
100
AcDbLine
 10
99.4133
 20
104.7318999999999
 30
0.0
 11
99.56330000000001
 21
104.8818999999999
 31
0.0
  0
LINE
  5
13E
330
1E
100
AcDbEntity
  8
0
  6
CONTINUOUS
 62
     7
100
AcDbLine
 10
99.4133
 20
64.0323
 30
0.0
 11
99.56330000000001
 21
63.8823
 31
0.0
  0
LINE
  5
13F
330
1E
100
AcDbEntity
  8
0
  6
CONTINUOUS
 62
     7
100
AcDbLine
 10
99.4133
 20
67.15040000000001
 30
0.0
 11
99.4133
 21
104.7318999999999
 31
0.0
  0
LINE
  5
140
330
1E
100
AcDbEntity
  8
0
  6
CONTINUOUS
 62
     7
100
AcDbLine
 10
99.4133
 20
64.0323
 30
0.0
 11
99.4133
 21
67.15040000000001
 31
0.0
  0
LINE
  5
141
330
1E
100
AcDbEntity
  8
0
  6
CONTINUOUS
 62
     7
100
AcDbLine
 10
99.56330000000001
 20
49.8819
 30
0.0
 11
99.56330000000001
 21
60.8819
 31
0.0
  0
LINE
  5
142
330
1E
100
AcDbEntity
  8
0
  6
CONTINUOUS
 62
     7
100
AcDbLine
 10
84.56329999999999
 20
49.8819
 30
0.0
 11
84.56329999999999
 21
55.8819
 31
0.0
  0
LINE
  5
143
330
1E
100
AcDbEntity
  8
0
  6
CONTINUOUS
 62
     7
100
AcDbLine
 10
84.56329999999999
 20
49.8819
 30
0.0
 11
84.56329999999999
 21
55.8819
 31
0.0
  0
LINE
  5
144
330
1E
100
AcDbEntity
  8
0
  6
CONTINUOUS
 62
     7
100
AcDbLine
 10
99.56330000000001
 20
58.96045
 30
0.0
 11
99.56330000000001
 21
63.8823
 31
0.0
  0
LINE
  5
145
330
1E
100
AcDbEntity
  8
0
  6
CONTINUOUS
 62
     7
100
AcDbLine
 10
257.59275
 20
49.8819
 30
0.0
 11
257.59275
 21
55.8819
 31
0.0
  0
LINE
  5
146
330
1E
100
AcDbEntity
  8
0
  6
CONTINUOUS
 62
     7
100
AcDbLine
 10
243.5
 20
55.8819
 30
0.0
 11
258.3927499999999
 21
55.8819
 31
0.0
  0
LINE
  5
147
330
1E
100
AcDbEntity
  8
0
  6
CONTINUOUS
 62
     7
100
AcDbLine
 10
243.2103999999999
 20
49.8819
 30
0.0
 11
258.3927499999999
 21
49.8819
 31
0.0
  0
LINE
  5
148
330
1E
100
AcDbEntity
  8
0
  6
CONTINUOUS
 62
     7
100
AcDbLine
 10
257.9135299999999
 20
54.68099999999999
 30
0.0
 11
257.5919999999999
 21
55.881
 31
0.0
  0
LINE
  5
149
330
1E
100
AcDbEntity
  8
0
  6
CONTINUOUS
 62
     7
100
AcDbLine
 10
257.5919999999999
 20
55.881
 30
0.0
 11
257.27046
 21
54.68099999999999
 31
0.0
  0
LINE
  5
14A
330
1E
100
AcDbEntity
  8
0
  6
CONTINUOUS
 62
     7
100
AcDbLine
 10
257.27046
 20
51.081
 30
0.0
 11
257.5919999999999
 21
49.881
 31
0.0
  0
LINE
  5
14B
330
1E
100
AcDbEntity
  8
0
  6
CONTINUOUS
 62
     7
100
AcDbLine
 10
257.5919999999999
 20
49.881
 30
0.0
 11
257.9135299999999
 21
51.081
 31
0.0
  0
TEXT
  5
14C
330
1E
100
AcDbEntity
  8
0
  6
CONTINUOUS
 62
     7
100
AcDbText
 10
257.19275
 20
48.9819
 30
0.0
 40
3.2
  1
120
 50
90.0
 41
0.8125
  7
BIGFONT
100
AcDbText
  0
LINE
  5
14D
330
1E
100
AcDbEntity
  8
0
  6
CONTINUOUS
 62
     7
100
AcDbLine
 10
257.59275
 20
55.8819
 30
0.0
 11
257.59275
 21
60.8819
 31
0.0
  0
LINE
  5
14E
330
1E
100
AcDbEntity
  8
0
  6
CONTINUOUS
 62
     7
100
AcDbLine
 10
243.5
 20
60.8819
 30
0.0
 11
258.3927499999999
 21
60.8819
 31
0.0
  0
LINE
  5
14F
330
1E
100
AcDbEntity
  8
0
  6
CONTINUOUS
 62
     7
100
AcDbLine
 10
257.59275
 20
63.2819
 30
0.0
 11
257.59275
 21
60.8819
 31
0.0
  0
LINE
  5
150
330
1E
100
AcDbEntity
  8
0
  6
CONTINUOUS
 62
     7
100
AcDbLine
 10
257.27046
 20
62.081
 30
0.0
 11
257.5919999999999
 21
60.881
 31
0.0
  0
LINE
  5
151
330
1E
100
AcDbEntity
  8
0
  6
CONTINUOUS
 62
     7
100
AcDbLine
 10
257.5919999999999
 20
60.881
 30
0.0
 11
257.9135299999999
 21
62.081
 31
0.0
  0
LINE
  5
152
330
1E
100
AcDbEntity
  8
0
  6
CONTINUOUS
 62
     7
100
AcDbLine
 10
257.59275
 20
55.8819
 30
0.0
 11
257.59275
 21
53.4819
 31
0.0
  0
LINE
  5
153
330
1E
100
AcDbEntity
  8
0
  6
CONTINUOUS
 62
     7
100
AcDbLine
 10
257.9135299999999
 20
54.68099999999999
 30
0.0
 11
257.5919999999999
 21
55.881
 31
0.0
  0
LINE
  5
154
330
1E
100
AcDbEntity
  8
0
  6
CONTINUOUS
 62
     7
100
AcDbLine
 10
257.5919999999999
 20
55.881
 30
0.0
 11
257.27046
 21
54.68099999999999
 31
0.0
  0
LINE
  5
155
330
1E
100
AcDbEntity
  8
0
  6
CONTINUOUS
 62
     7
100
AcDbLine
 10
257.59275
 20
63.2819
 30
0.0
 11
257.59275
 21
71.2819
 31
0.0
  0
TEXT
  5
156
330
1E
100
AcDbEntity
  8
0
  6
CONTINUOUS
 62
     7
100
AcDbText
 10
257.19275
 20
63.4819
 30
0.0
 40
3.2
  1
100
 50
90.0
 41
0.8125
  7
BIGFONT
100
AcDbText
  0
LINE
  5
157
330
1E
100
AcDbEntity
  8
0
  6
CONTINUOUS
 62
     7
100
AcDbLine
 10
177.98925
 20
124.8819
 30
0.0
 11
242.5
 21
124.8819
 31
0.0
  0
LINE
  5
158
330
1E
100
AcDbEntity
  8
0
  6
CONTINUOUS
 62
     7
100
AcDbLine
 10
-236.9587
 20
-33.23344999999999
 30
0.0
 11
-169.4587
 21
-33.23344999999999
 31
0.0
  0
LINE
  5
159
330
1E
100
AcDbEntity
  8
0
  6
CONTINUOUS
 62
     7
100
AcDbLine
 10
-236.9587
 20
-100.73345
 30
0.0
 11
-236.9587
 21
-33.23344999999999
 31
0.0
  0
LINE
  5
15A
330
1E
100
AcDbEntity
  8
0
  6
CONTINUOUS
 62
     7
100
AcDbLine
 10
-236.9587
 20
-100.73345
 30
0.0
 11
-184.4586999999999
 21
-100.73345
 31
0.0
  0
LINE
  5
15B
330
1E
100
AcDbEntity
  8
0
  6
CONTINUOUS
 62
     7
100
AcDbLine
 10
-169.4587
 20
-85.73345000000001
 30
0.0
 11
-169.4587
 21
-33.23344999999999
 31
0.0
  0
LINE
  5
15C
330
1E
100
AcDbEntity
  8
0
  6
CONTINUOUS
 62
     7
100
AcDbLine
 10
175.0
 20
142.0697499999999
 30
0.0
 11
181.0
 21
142.0697499999999
 31
0.0
  0
LINE
  5
15D
330
1E
100
AcDbEntity
  8
0
  6
CONTINUOUS
 62
     7
100
AcDbLine
 10
181.0
 20
125.8819
 30
0.0
 11
181.0
 21
142.86975
 31
0.0
  0
LINE
  5
15E
330
1E
100
AcDbEntity
  8
0
  6
CONTINUOUS
 62
     7
100
AcDbLine
 10
175.0
 20
125.8819
 30
0.0
 11
175.0
 21
142.86975
 31
0.0
  0
LINE
  5
15F
330
1E
100
AcDbEntity
  8
0
  6
CONTINUOUS
 62
     7
100
AcDbLine
 10
179.8
 20
141.74746
 30
0.0
 11
181.0
 21
142.069
 31
0.0
  0
LINE
  5
160
330
1E
100
AcDbEntity
  8
0
  6
CONTINUOUS
 62
     7
100
AcDbLine
 10
181.0
 20
142.069
 30
0.0
 11
179.8
 21
142.39053
 31
0.0
  0
LINE
  5
161
330
1E
100
AcDbEntity
  8
0
  6
CONTINUOUS
 62
     7
100
AcDbLine
 10
176.2
 20
142.39053
 30
0.0
 11
175.0
 21
142.069
 31
0.0
  0
LINE
  5
162
330
1E
100
AcDbEntity
  8
0
  6
CONTINUOUS
 62
     7
100
AcDbLine
 10
175.0
 20
142.069
 30
0.0
 11
176.2
 21
141.74746
 31
0.0
  0
TEXT
  5
163
330
1E
100
AcDbEntity
  8
0
  6
CONTINUOUS
 62
     7
100
AcDbText
 10
174.0999999999999
 20
142.46975
 30
0.0
 40
3.2
  1
120
 41
0.8125
  7
BIGFONT
100
AcDbText
  0
LINE
  5
164
330
1E
100
AcDbEntity
  8
0
  6
CONTINUOUS
 62
     7
100
AcDbLine
 10
181.0
 20
142.0697499999999
 30
0.0
 11
185.9512499999999
 21
142.0697499999999
 31
0.0
  0
LINE
  5
165
330
1E
100
AcDbEntity
  8
0
  6
CONTINUOUS
 62
     7
100
AcDbLine
 10
185.9512499999999
 20
125.8819
 30
0.0
 11
185.9512499999999
 21
142.86975
 31
0.0
  0
LINE
  5
166
330
1E
100
AcDbEntity
  8
0
  6
CONTINUOUS
 62
     7
100
AcDbLine
 10
188.3512499999999
 20
142.0697499999999
 30
0.0
 11
185.9512499999999
 21
142.0697499999999
 31
0.0
  0
LINE
  5
167
330
1E
100
AcDbEntity
  8
0
  6
CONTINUOUS
 62
     7
100
AcDbLine
 10
187.1509999999999
 20
142.39053
 30
0.0
 11
185.951
 21
142.069
 31
0.0
  0
LINE
  5
168
330
1E
100
AcDbEntity
  8
0
  6
CONTINUOUS
 62
     7
100
AcDbLine
 10
185.951
 20
142.069
 30
0.0
 11
187.1509999999999
 21
141.74746
 31
0.0
  0
LINE
  5
169
330
1E
100
AcDbEntity
  8
0
  6
CONTINUOUS
 62
     7
100
AcDbLine
 10
181.0
 20
142.0697499999999
 30
0.0
 11
178.6
 21
142.0697499999999
 31
0.0
  0
LINE
  5
16A
330
1E
100
AcDbEntity
  8
0
  6
CONTINUOUS
 62
     7
100
AcDbLine
 10
179.8
 20
141.74746
 30
0.0
 11
181.0
 21
142.069
 31
0.0
  0
LINE
  5
16B
330
1E
100
AcDbEntity
  8
0
  6
CONTINUOUS
 62
     7
100
AcDbLine
 10
181.0
 20
142.069
 30
0.0
 11
179.8
 21
142.39053
 31
0.0
  0
LINE
  5
16C
330
1E
100
AcDbEntity
  8
0
  6
CONTINUOUS
 62
     7
100
AcDbLine
 10
188.3512499999999
 20
142.0697499999999
 30
0.0
 11
194.7912499999999
 21
142.0697499999999
 31
0.0
  0
TEXT
  5
16D
330
1E
100
AcDbEntity
  8
0
  6
CONTINUOUS
 62
     7
100
AcDbText
 10
186.99125
 20
142.46975
 30
0.0
 40
3.2
  1
100
 41
0.8125
  7
BIGFONT
100
AcDbText
  0
TEXT
  5
16E
330
1E
100
AcDbEntity
  8
3
  6
CONTINUOUS
 62
     7
100
AcDbText
 10
197.1339999999999
 20
-149.5639999999999
 30
0.0
 40
3.7
  1
コーナー部構造図
  7
BIGFONT
100
AcDbText
  0
TEXT
  5
16F
330
1E
100
AcDbEntity
  8
3
  6
CONTINUOUS
 62
     7
100
AcDbText
 10
197.154
 20
-144.8839999999998
 30
0.0
 40
3.7
  1
ＫＬウォール３型
  7
BIGFONT
100
AcDbText
  0
TEXT
  5
172
330
1E
100
AcDbEntity
  8
3
  6
CONTINUOUS
 62
     7
100
AcDbText
 10
234.5819580564441
 20
-149.577
 30
0.0
 40
3.7
  1
(H=1500-90°)
 41
0.8
  7
BIGFONT
100
AcDbText
  0
LINE
  5
173
330
1E
100
AcDbEntity
  8
0
  6
CONTINUOUS
 62
     7
100
AcDbLine
 10
38.28275
 20
124.8819
 30
0.0
 11
99.56330000000001
 21
124.8819
 31
0.0
  0
LINE
  5
174
330
1E
100
AcDbEntity
  8
0
  6
CONTINUOUS
 62
     7
100
AcDbLine
 10
84.52485000000001
 20
55.8819
 30
0.0
 11
99.56330000000001
 21
55.8819
 31
0.0
  0
LINE
  5
175
330
1E
100
AcDbEntity
  8
0
  6
CONTINUOUS
 62
     7
100
AcDbLine
 10
84.52485000000001
 20
49.8819
 30
0.0
 11
99.56330000000001
 21
49.8819
 31
0.0
  0
LINE
  5
176
330
1E
100
AcDbEntity
  8
0
  6
CONTINUOUS
 62
     7
100
AcDbLine
 10
34.4199
 20
61.48984999999999
 30
0.0
 11
34.4199
 21
65.43985000000001
 31
0.0
  0
LINE
  5
177
330
1E
100
AcDbEntity
  8
0
  6
CONTINUOUS
 62
     1
100
AcDbLine
 10
43.06399999999999
 20
52.26469999999999
 30
0.0
 11
47.614
 21
52.26469999999999
 31
0.0
  0
ARC
  5
178
330
1E
100
AcDbEntity
  8
0
  6
CONTINUOUS
 62
     1
100
AcDbCircle
 10
35.7722
 20
53.6069
 30
0.0
 40
1.5
100
AcDbArc
 50
180.0
 51
270.0
  0
LINE
  5
179
330
1E
100
AcDbEntity
  8
0
  6
CONTINUOUS
 62
     1
100
AcDbLine
 10
34.2722
 20
53.6069
 30
0.0
 11
34.2722
 21
95.30689999999999
 31
0.0
  0
LINE
  5
17A
330
1E
100
AcDbEntity
  8
0
  6
CONTINUOUS
 62
     1
100
AcDbLine
 10
35.7722
 20
52.1069
 30
0.0
 11
64.56319999999999
 21
52.1069
 31
0.0
  0
LINE
  5
17B
330
1E
100
AcDbEntity
  8
0
  6
CONTINUOUS
 62
     7
100
AcDbLine
 10
32.06329999999999
 20
49.8819
 30
0.0
 11
32.06329999999999
 21
124.4318999999999
 31
0.0
  0
LINE
  5
17C
330
1E
100
AcDbEntity
  8
0
  6
CONTINUOUS
 62
     7
100
AcDbLine
 10
32.5133
 20
124.8819
 30
0.0
 11
37.6133
 21
124.8819
 31
0.0
  0
LINE
  5
17D
330
1E
100
AcDbEntity
  8
0
  6
CONTINUOUS
 62
     7
100
AcDbLine
 10
32.06329999999999
 20
124.4318999999999
 30
0.0
 11
32.5133
 21
124.8819
 31
0.0
  0
LINE
  5
17E
330
1E
100
AcDbEntity
  8
0
  6
CONTINUOUS
 62
     7
100
AcDbLine
 10
37.6133
 20
124.8819
 30
0.0
 11
38.06329999999999
 21
124.4318999999999
 31
0.0
  0
LINE
  5
17F
330
1E
100
AcDbEntity
  8
0
  6
CONTINUOUS
 62
     7
100
AcDbLine
 10
84.56329999999999
 20
49.8819
 30
0.0
 11
84.56329999999999
 21
55.8819
 31
0.0
  0
LINE
  5
180
330
1E
100
AcDbEntity
  8
0
  6
CONTINUOUS
 62
     7
100
AcDbLine
 10
84.56329999999999
 20
49.8819
 30
0.0
 11
84.56329999999999
 21
55.8819
 31
0.0
  0
LINE
  5
181
330
1E
100
AcDbEntity
  8
0
  6
CONTINUOUS
 62
     7
100
AcDbLine
 10
38.06329999999999
 20
60.8819
 30
0.0
 11
43.06329999999999
 21
55.8819
 31
0.0
  0
LINE
  5
182
330
1E
100
AcDbEntity
  8
0
  6
CONTINUOUS
 62
     7
100
AcDbLine
 10
38.06329999999999
 20
60.8819
 30
0.0
 11
38.06329999999999
 21
124.4318999999999
 31
0.0
  0
LINE
  5
183
330
1E
100
AcDbEntity
  8
0
  6
CONTINUOUS
 62
     7
100
AcDbLine
 10
32.06329999999999
 20
25.0
 30
0.0
 11
84.56329999999999
 21
25.0
 31
0.0
  0
LINE
  5
184
330
1E
100
AcDbEntity
  8
0
  6
CONTINUOUS
 62
     7
100
AcDbLine
 10
84.56329999999999
 20
48.8819
 30
0.0
 11
84.56329999999999
 21
24.19999999999999
 31
0.0
  0
LINE
  5
185
330
1E
100
AcDbEntity
  8
0
  6
CONTINUOUS
 62
     7
100
AcDbLine
 10
32.06329999999999
 20
48.8819
 30
0.0
 11
32.06329999999999
 21
24.19999999999999
 31
0.0
  0
LINE
  5
186
330
1E
100
AcDbEntity
  8
0
  6
CONTINUOUS
 62
     7
100
AcDbLine
 10
83.36299999999999
 20
24.67846
 30
0.0
 11
84.56299999999997
 21
25.0
 31
0.0
  0
LINE
  5
187
330
1E
100
AcDbEntity
  8
0
  6
CONTINUOUS
 62
     7
100
AcDbLine
 10
84.56299999999997
 20
25.0
 30
0.0
 11
83.36299999999999
 21
25.32153
 31
0.0
  0
LINE
  5
188
330
1E
100
AcDbEntity
  8
0
  6
CONTINUOUS
 62
     7
100
AcDbLine
 10
33.26299999999999
 20
25.32153
 30
0.0
 11
32.063
 21
25.0
 31
0.0
  0
LINE
  5
189
330
1E
100
AcDbEntity
  8
0
  6
CONTINUOUS
 62
     7
100
AcDbLine
 10
32.063
 20
25.0
 30
0.0
 11
33.26299999999999
 21
24.67846
 31
0.0
  0
TEXT
  5
18A
330
1E
100
AcDbEntity
  8
0
  6
CONTINUOUS
 62
     7
100
AcDbText
 10
53.1133
 20
25.4
 30
0.0
 40
3.2
  1
1050
 41
0.8125
  7
BIGFONT
100
AcDbText
  0
LINE
  5
18B
330
1E
100
AcDbEntity
  8
0
  6
CONTINUOUS
 62
     7
100
AcDbLine
 10
32.06329999999999
 20
32.5
 30
0.0
 11
34.2676
 21
32.5
 31
0.0
  0
LINE
  5
18C
330
1E
100
AcDbEntity
  8
0
  6
CONTINUOUS
 62
     7
100
AcDbLine
 10
34.2676
 20
48.8819
 30
0.0
 11
34.2676
 21
31.69999999999999
 31
0.0
  0
LINE
  5
18D
330
1E
100
AcDbEntity
  8
0
  6
CONTINUOUS
 62
     7
100
AcDbLine
 10
32.06329999999999
 20
34.55395
 30
0.0
 11
32.06329999999999
 21
31.69999999999999
 31
0.0
  0
LINE
  5
18E
330
1E
100
AcDbEntity
  8
0
  6
CONTINUOUS
 62
     7
100
AcDbLine
 10
36.6676
 20
32.5
 30
0.0
 11
34.2676
 21
32.5
 31
0.0
  0
LINE
  5
18F
330
1E
100
AcDbEntity
  8
0
  6
CONTINUOUS
 62
     7
100
AcDbLine
 10
35.46699999999999
 20
32.82152999999999
 30
0.0
 11
34.26699999999998
 21
32.5
 31
0.0
  0
LINE
  5
190
330
1E
100
AcDbEntity
  8
0
  6
CONTINUOUS
 62
     7
100
AcDbLine
 10
34.26699999999998
 20
32.5
 30
0.0
 11
35.46699999999999
 21
32.17846
 31
0.0
  0
LINE
  5
191
330
1E
100
AcDbEntity
  8
0
  6
CONTINUOUS
 62
     7
100
AcDbLine
 10
32.06329999999999
 20
32.5
 30
0.0
 11
29.6633
 21
32.5
 31
0.0
  0
LINE
  5
192
330
1E
100
AcDbEntity
  8
0
  6
CONTINUOUS
 62
     7
100
AcDbLine
 10
30.863
 20
32.17846
 30
0.0
 11
32.063
 21
32.5
 31
0.0
  0
LINE
  5
193
330
1E
100
AcDbEntity
  8
0
  6
CONTINUOUS
 62
     7
100
AcDbLine
 10
32.063
 20
32.5
 30
0.0
 11
30.863
 21
32.82152999999999
 31
0.0
  0
LINE
  5
194
330
1E
100
AcDbEntity
  8
0
  6
CONTINUOUS
 62
     7
100
AcDbLine
 10
29.6633
 20
32.5
 30
0.0
 11
24.2633
 21
32.5
 31
0.0
  0
TEXT
  5
195
330
1E
100
AcDbEntity
  8
0
  6
CONTINUOUS
 62
     7
100
AcDbText
 10
24.2633
 20
32.9
 30
0.0
 40
3.2
  1
45
 41
0.8125
  7
BIGFONT
100
AcDbText
  0
LINE
  5
196
330
1E
100
AcDbEntity
  8
0
  6
CONTINUOUS
 62
     7
100
AcDbLine
 10
34.2676
 20
32.5
 30
0.0
 11
84.56329999999999
 21
32.5
 31
0.0
  0
LINE
  5
197
330
1E
100
AcDbEntity
  8
0
  6
CONTINUOUS
 62
     7
100
AcDbLine
 10
84.56329999999999
 20
35.11675
 30
0.0
 11
84.56329999999999
 21
31.69999999999999
 31
0.0
  0
LINE
  5
198
330
1E
100
AcDbEntity
  8
0
  6
CONTINUOUS
 62
     7
100
AcDbLine
 10
83.36299999999999
 20
32.17846
 30
0.0
 11
84.56299999999997
 21
32.5
 31
0.0
  0
LINE
  5
199
330
1E
100
AcDbEntity
  8
0
  6
CONTINUOUS
 62
     7
100
AcDbLine
 10
84.56299999999997
 20
32.5
 30
0.0
 11
83.36299999999999
 21
32.82152999999999
 31
0.0
  0
LINE
  5
19A
330
1E
100
AcDbEntity
  8
0
  6
CONTINUOUS
 62
     7
100
AcDbLine
 10
35.46699999999999
 20
32.82152999999999
 30
0.0
 11
34.26699999999998
 21
32.5
 31
0.0
  0
LINE
  5
19B
330
1E
100
AcDbEntity
  8
0
  6
CONTINUOUS
 62
     7
100
AcDbLine
 10
34.26699999999998
 20
32.5
 30
0.0
 11
35.46699999999999
 21
32.17846
 31
0.0
  0
TEXT
  5
19C
330
1E
100
AcDbEntity
  8
0
  6
CONTINUOUS
 62
     7
100
AcDbText
 10
54.21545
 20
32.9
 30
0.0
 40
3.2
  1
1007
 41
0.8125
  7
BIGFONT
100
AcDbText
  0
LINE
  5
19D
330
1E
100
AcDbEntity
  8
0
  6
CONTINUOUS
 62
     7
100
AcDbLine
 10
14.5633
 20
49.8819
 30
0.0
 11
14.5633
 21
52.1089
 31
0.0
  0
LINE
  5
19E
330
1E
100
AcDbEntity
  8
0
  6
CONTINUOUS
 62
     7
100
AcDbLine
 10
31.0633
 20
52.1089
 30
0.0
 11
13.7633
 21
52.1089
 31
0.0
  0
LINE
  5
19F
330
1E
100
AcDbEntity
  8
0
  6
CONTINUOUS
 62
     7
100
AcDbLine
 10
31.0633
 20
49.8819
 30
0.0
 11
13.7633
 21
49.8819
 31
0.0
  0
LINE
  5
1A0
330
1E
100
AcDbEntity
  8
0
  6
CONTINUOUS
 62
     7
100
AcDbLine
 10
14.5633
 20
54.5089
 30
0.0
 11
14.5633
 21
52.1089
 31
0.0
  0
LINE
  5
1A1
330
1E
100
AcDbEntity
  8
0
  6
CONTINUOUS
 62
     7
100
AcDbLine
 10
14.24146
 20
53.30799999999999
 30
0.0
 11
14.56299999999998
 21
52.10799999999998
 31
0.0
  0
LINE
  5
1A2
330
1E
100
AcDbEntity
  8
0
  6
CONTINUOUS
 62
     7
100
AcDbLine
 10
14.56299999999998
 20
52.10799999999998
 30
0.0
 11
14.88452999999999
 21
53.30799999999999
 31
0.0
  0
LINE
  5
1A3
330
1E
100
AcDbEntity
  8
0
  6
CONTINUOUS
 62
     7
100
AcDbLine
 10
14.5633
 20
49.8819
 30
0.0
 11
14.5633
 21
47.4819
 31
0.0
  0
LINE
  5
1A4
330
1E
100
AcDbEntity
  8
0
  6
CONTINUOUS
 62
     7
100
AcDbLine
 10
14.88452999999999
 20
48.681
 30
0.0
 11
14.56299999999998
 21
49.881
 31
0.0
  0
LINE
  5
1A5
330
1E
100
AcDbEntity
  8
0
  6
CONTINUOUS
 62
     7
100
AcDbLine
 10
14.56299999999998
 20
49.881
 30
0.0
 11
14.24146
 21
48.681
 31
0.0
  0
LINE
  5
1A6
330
1E
100
AcDbEntity
  8
0
  6
CONTINUOUS
 62
     7
100
AcDbLine
 10
14.5633
 20
47.4819
 30
0.0
 11
14.5633
 21
42.0819
 31
0.0
  0
TEXT
  5
1A7
330
1E
100
AcDbEntity
  8
0
  6
CONTINUOUS
 62
     7
100
AcDbText
 10
14.1633
 20
42.0819
 30
0.0
 40
3.2
  1
45
 50
90.0
 41
0.8125
  7
BIGFONT
100
AcDbText
  0
LINE
  5
1A8
330
1E
100
AcDbEntity
  8
0
  6
CONTINUOUS
 62
     7
100
AcDbLine
 10
14.5633
 20
52.1089
 30
0.0
 11
14.5633
 21
122.38275
 31
0.0
  0
LINE
  5
1A9
330
1E
100
AcDbEntity
  8
0
  6
CONTINUOUS
 62
     7
100
AcDbLine
 10
31.0633
 20
122.38275
 30
0.0
 11
13.7633
 21
122.38275
 31
0.0
  0
LINE
  5
1AA
330
1E
100
AcDbEntity
  8
0
  6
CONTINUOUS
 62
     7
100
AcDbLine
 10
14.88452999999999
 20
121.182
 30
0.0
 11
14.56299999999998
 21
122.382
 31
0.0
  0
LINE
  5
1AB
330
1E
100
AcDbEntity
  8
0
  6
CONTINUOUS
 62
     7
100
AcDbLine
 10
14.56299999999998
 20
122.382
 30
0.0
 11
14.24146
 21
121.182
 31
0.0
  0
LINE
  5
1AC
330
1E
100
AcDbEntity
  8
0
  6
CONTINUOUS
 62
     7
100
AcDbLine
 10
14.24146
 20
53.30799999999999
 30
0.0
 11
14.56299999999998
 21
52.10799999999998
 31
0.0
  0
LINE
  5
1AD
330
1E
100
AcDbEntity
  8
0
  6
CONTINUOUS
 62
     7
100
AcDbLine
 10
14.56299999999998
 20
52.10799999999998
 30
0.0
 11
14.88452999999999
 21
53.30799999999999
 31
0.0
  0
TEXT
  5
1AE
330
1E
100
AcDbEntity
  8
0
  6
CONTINUOUS
 62
     7
100
AcDbText
 10
14.1633
 20
82.04582
 30
0.0
 40
3.2
  1
1405
 50
90.0
 41
0.8125
  7
BIGFONT
100
AcDbText
  0
LINE
  5
1AF
330
1E
100
AcDbEntity
  8
0
  6
CONTINUOUS
 62
     7
100
AcDbLine
 10
14.5633
 20
122.38275
 30
0.0
 11
14.5633
 21
124.8776499999999
 31
0.0
  0
LINE
  5
1B0
330
1E
100
AcDbEntity
  8
0
  6
CONTINUOUS
 62
     7
100
AcDbLine
 10
31.0633
 20
124.8776499999999
 30
0.0
 11
13.7633
 21
124.8776499999999
 31
0.0
  0
LINE
  5
1B1
330
1E
100
AcDbEntity
  8
0
  6
CONTINUOUS
 62
     7
100
AcDbLine
 10
14.5633
 20
127.2776499999999
 30
0.0
 11
14.5633
 21
124.8776499999999
 31
0.0
  0
LINE
  5
1B2
330
1E
100
AcDbEntity
  8
0
  6
CONTINUOUS
 62
     7
100
AcDbLine
 10
14.24146
 20
126.0769999999999
 30
0.0
 11
14.56299999999998
 21
124.8769999999999
 31
0.0
  0
LINE
  5
1B3
330
1E
100
AcDbEntity
  8
0
  6
CONTINUOUS
 62
     7
100
AcDbLine
 10
14.56299999999998
 20
124.8769999999999
 30
0.0
 11
14.88452999999999
 21
126.0769999999999
 31
0.0
  0
LINE
  5
1B4
330
1E
100
AcDbEntity
  8
0
  6
CONTINUOUS
 62
     7
100
AcDbLine
 10
14.5633
 20
122.38275
 30
0.0
 11
14.5633
 21
119.98275
 31
0.0
  0
LINE
  5
1B5
330
1E
100
AcDbEntity
  8
0
  6
CONTINUOUS
 62
     7
100
AcDbLine
 10
14.88452999999999
 20
121.182
 30
0.0
 11
14.56299999999998
 21
122.382
 31
0.0
  0
LINE
  5
1B6
330
1E
100
AcDbEntity
  8
0
  6
CONTINUOUS
 62
     7
100
AcDbLine
 10
14.56299999999998
 20
122.382
 30
0.0
 11
14.24146
 21
121.182
 31
0.0
  0
LINE
  5
1B7
330
1E
100
AcDbEntity
  8
0
  6
CONTINUOUS
 62
     7
100
AcDbLine
 10
14.5633
 20
127.2776499999999
 30
0.0
 11
14.5633
 21
132.67765
 31
0.0
  0
TEXT
  5
1B8
330
1E
100
AcDbEntity
  8
0
  6
CONTINUOUS
 62
     7
100
AcDbText
 10
14.1633
 20
127.4776499999999
 30
0.0
 40
3.2
  1
50
 50
90.0
 41
0.8125
  7
BIGFONT
100
AcDbText
  0
LINE
  5
1B9
330
1E
100
AcDbEntity
  8
0
  6
CONTINUOUS
 62
     1
100
AcDbLine
 10
35.4172
 20
60.8819
 30
0.0
 11
35.4172
 21
122.8319
 31
0.0
  0
LINE
  5
1BA
330
1E
100
AcDbEntity
  8
0
  6
CONTINUOUS
 62
     1
100
AcDbLine
 10
34.4199
 20
61.48984999999999
 30
0.0
 11
43.46009999999998
 21
52.26469999999999
 31
0.0
  0
LINE
  5
1BB
330
1E
100
AcDbEntity
  8
0
  6
CONTINUOUS
 62
     1
100
AcDbLine
 10
35.4172
 20
53.7565
 30
0.0
 11
35.4172
 21
66.2826
 31
0.0
  0
LINE
  5
1BC
330
1E
100
AcDbEntity
  8
0
  6
CONTINUOUS
 62
     1
100
AcDbLine
 10
36.9172
 20
52.2565
 30
0.0
 11
44.58155
 21
52.2565
 31
0.0
  0
LINE
  5
1BD
330
1E
100
AcDbEntity
  8
0
  6
CONTINUOUS
 62
     1
100
AcDbLine
 10
34.4209
 20
55.1319
 30
0.0
 11
34.4209
 21
59.13899999999999
 31
0.0
  0
LINE
  5
1BE
330
1E
100
AcDbEntity
  8
0
  6
CONTINUOUS
 62
     1
100
AcDbLine
 10
35.9209
 20
53.6319
 30
0.0
 11
46.7259
 21
53.6319
 31
0.0
  0
ARC
  5
1BF
330
1E
100
AcDbEntity
  8
0
  6
CONTINUOUS
 62
     1
100
AcDbCircle
 10
35.9209
 20
55.1319
 30
0.0
 40
1.5
100
AcDbArc
 50
180.0
 51
270.0
  0
POINT
  5
1C0
330
1E
100
AcDbEntity
  8
0
  6
CONTINUOUS
 62
     1
100
AcDbPoint
 10
35.86719999999999
 20
122.38275
 30
0.0
  0
POINT
  5
1C1
330
1E
100
AcDbEntity
  8
0
  6
CONTINUOUS
 62
     7
100
AcDbPoint
 10
34.7222
 20
84.1319
 30
0.0
  0
POINT
  5
1C2
330
1E
100
AcDbEntity
  8
0
  6
CONTINUOUS
 62
     1
100
AcDbPoint
 10
35.1459
 20
54.2319
 30
0.0
  0
LINE
  5
1C3
330
1E
100
AcDbEntity
  8
0
  6
CONTINUOUS
 62
     7
100
AcDbLine
 10
-2.042699999999999
 20
53.3478
 30
0.0
 11
11.77495
 21
53.3478
 31
0.0
  0
LINE
  5
1C4
330
1E
100
AcDbEntity
  8
0
  6
CONTINUOUS
 62
     7
100
AcDbLine
 10
2.9538
 20
52.5417
 30
0.0
 11
11.72775
 21
52.5417
 31
0.0
  0
LINE
  5
1C5
330
1E
100
AcDbEntity
  8
0
  6
CONTINUOUS
 62
     7
100
AcDbLine
 10
103.1679
 20
53.3328
 30
0.0
 11
116.98555
 21
53.3328
 31
0.0
  0
LINE
  5
1C6
330
1E
100
AcDbEntity
  8
0
  6
CONTINUOUS
 62
     7
100
AcDbLine
 10
103.2113499999999
 20
52.5417
 30
0.0
 11
111.9852999999999
 21
52.5417
 31
0.0
  0
TEXT
  5
1C7
330
1E
100
AcDbEntity
  8
0
  6
CONTINUOUS
 62
     7
100
AcDbText
 10
110.41345
 20
42.9632
 30
0.0
 40
4.2
  1
Ｃ
 41
0.8333332999999999
  7
BIGFONT
100
AcDbText
  0
TEXT
  5
1C8
330
1E
100
AcDbEntity
  8
0
  6
CONTINUOUS
 62
     7
100
AcDbText
 10
115.53895
 20
42.95185
 30
0.0
 40
4.2
  1
Ｄ
 41
0.8333332999999999
  7
BIGFONT
100
AcDbText
  0
TEXT
  5
1C9
330
1E
100
AcDbEntity
  8
0
  6
CONTINUOUS
 62
     7
100
AcDbText
 10
-3.389349999999998
 20
43.10875
 30
0.0
 40
4.2
  1
Ｄ
 41
0.8333332999999999
  7
BIGFONT
100
AcDbText
  0
TEXT
  5
1CA
330
1E
100
AcDbEntity
  8
0
  6
CONTINUOUS
 62
     7
100
AcDbText
 10
1.294799999999999
 20
43.09765
 30
0.0
 40
4.2
  1
Ｃ
 41
0.8333332999999999
  7
BIGFONT
100
AcDbText
  0
TEXT
  5
1CB
330
1E
100
AcDbEntity
  8
0
  6
CONTINUOUS
 62
     7
100
AcDbText
 10
25.226
 20
11.15474999999999
 30
0.0
 40
4.2
  1
Ａ
 41
0.8333332999999999
  7
BIGFONT
100
AcDbText
  0
TEXT
  5
1CC
330
1E
100
AcDbEntity
  8
0
  6
CONTINUOUS
 62
     7
100
AcDbText
 10
25.46365
 20
139.9753
 30
0.0
 40
4.2
  1
Ｂ
 41
0.8333332999999999
  7
BIGFONT
100
AcDbText
  0
TEXT
  5
1CD
330
1E
100
AcDbEntity
  8
0
  6
CONTINUOUS
 62
     7
100
AcDbText
 10
25.25025
 20
134.70285
 30
0.0
 40
4.2
  1
Ａ
 41
0.8333332999999999
  7
BIGFONT
100
AcDbText
  0
LINE
  5
1CE
330
1E
100
AcDbEntity
  8
0
  6
CONTINUOUS
 62
     7
100
AcDbLine
 10
35.81329999999999
 20
128.0988999999999
 30
0.0
 11
35.81329999999999
 21
142.3793
 31
0.0
  0
LINE
  5
1CF
330
1E
100
AcDbEntity
  8
0
  6
CONTINUOUS
 62
     7
100
AcDbLine
 10
34.63855
 20
128.0988999999999
 30
0.0
 11
34.63855
 21
136.87175
 31
0.0
  0
LINE
  5
1D0
330
1E
100
AcDbEntity
  8
0
  6
CONTINUOUS
 62
     7
100
AcDbLine
 10
35.81329999999999
 20
7.673499999999997
 30
0.0
 11
35.81329999999999
 21
21.9539
 31
0.0
  0
LINE
  5
1D1
330
1E
100
AcDbEntity
  8
0
  6
CONTINUOUS
 62
     7
100
AcDbLine
 10
34.63855
 20
13.17244999999999
 30
0.0
 11
34.63855
 21
21.94529999999998
 31
0.0
  0
TEXT
  5
1D2
330
1E
100
AcDbEntity
  8
0
  6
CONTINUOUS
 62
     7
100
AcDbText
 10
25.4081
 20
5.336549999999999
 30
0.0
 40
4.2
  1
Ｂ
 41
0.8333332999999999
  7
BIGFONT
100
AcDbText
  0
LINE
  5
1D3
330
1E
100
AcDbEntity
  8
0
  6
CONTINUOUS
 62
     7
100
AcDbLine
 10
116.98555
 20
53.3328
 30
0.0
 11
116.9838
 21
48.30664999999999
 31
0.0
  0
LINE
  5
1D4
330
1E
100
AcDbEntity
  8
0
  6
CONTINUOUS
 62
     7
100
AcDbLine
 10
116.6618699999999
 20
49.50611
 30
0.0
 11
116.9829999999999
 21
48.306
 31
0.0
  0
LINE
  5
1D5
330
1E
100
AcDbEntity
  8
0
  6
CONTINUOUS
 62
     7
100
AcDbLine
 10
116.9829999999999
 20
48.306
 30
0.0
 11
117.30495
 21
49.50587999999999
 31
0.0
  0
LINE
  5
1D6
330
1E
100
AcDbEntity
  8
0
  6
CONTINUOUS
 62
     7
100
AcDbLine
 10
111.9852999999999
 20
52.5417
 30
0.0
 11
111.9852999999999
 21
48.30664999999999
 31
0.0
  0
LINE
  5
1D7
330
1E
100
AcDbEntity
  8
0
  6
CONTINUOUS
 62
     7
100
AcDbLine
 10
111.66346
 20
49.506
 30
0.0
 11
111.985
 21
48.306
 31
0.0
  0
LINE
  5
1D8
330
1E
100
AcDbEntity
  8
0
  6
CONTINUOUS
 62
     7
100
AcDbLine
 10
111.985
 20
48.306
 30
0.0
 11
112.30653
 21
49.506
 31
0.0
  0
LINE
  5
1D9
330
1E
100
AcDbEntity
  8
0
  6
CONTINUOUS
 62
     7
100
AcDbLine
 10
2.9538
 20
52.5417
 30
0.0
 11
2.9538
 21
48.30664999999999
 31
0.0
  0
LINE
  5
1DA
330
1E
100
AcDbEntity
  8
0
  6
CONTINUOUS
 62
     7
100
AcDbLine
 10
2.631459999999999
 20
49.506
 30
0.0
 11
2.952999999999999
 21
48.306
 31
0.0
  0
LINE
  5
1DB
330
1E
100
AcDbEntity
  8
0
  6
CONTINUOUS
 62
     7
100
AcDbLine
 10
2.952999999999999
 20
48.306
 30
0.0
 11
3.274529999999998
 21
49.506
 31
0.0
  0
LINE
  5
1DC
330
1E
100
AcDbEntity
  8
0
  6
CONTINUOUS
 62
     7
100
AcDbLine
 10
-2.042699999999999
 20
53.3478
 30
0.0
 11
-2.045549999999999
 21
48.30664999999999
 31
0.0
  0
LINE
  5
1DD
330
1E
100
AcDbEntity
  8
0
  6
CONTINUOUS
 62
     7
100
AcDbLine
 10
-2.36586
 20
49.50618
 30
0.0
 11
-2.044999999999999
 21
48.306
 31
0.0
  0
LINE
  5
1DE
330
1E
100
AcDbEntity
  8
0
  6
CONTINUOUS
 62
     7
100
AcDbLine
 10
-2.044999999999999
 20
48.306
 30
0.0
 11
-1.72278
 21
49.50580999999999
 31
0.0
  0
LINE
  5
1DF
330
1E
100
AcDbEntity
  8
0
  6
CONTINUOUS
 62
     7
100
AcDbLine
 10
35.81329999999999
 20
142.3793
 30
0.0
 11
29.73304999999999
 21
142.3891
 31
0.0
  0
LINE
  5
1E0
330
1E
100
AcDbEntity
  8
0
  6
CONTINUOUS
 62
     7
100
AcDbLine
 10
30.93351
 20
142.7085999999999
 30
0.0
 11
29.733
 21
142.389
 31
0.0
  0
LINE
  5
1E1
330
1E
100
AcDbEntity
  8
0
  6
CONTINUOUS
 62
     7
100
AcDbLine
 10
29.733
 20
142.389
 30
0.0
 11
30.93247999999999
 21
142.0655199999998
 31
0.0
  0
LINE
  5
1E2
330
1E
100
AcDbEntity
  8
0
  6
CONTINUOUS
 62
     7
100
AcDbLine
 10
34.63855
 20
136.87175
 30
0.0
 11
29.73304999999999
 21
136.88655
 31
0.0
  0
LINE
  5
1E3
330
1E
100
AcDbEntity
  8
0
  6
CONTINUOUS
 62
     7
100
AcDbLine
 10
30.93396
 20
137.20391
 30
0.0
 11
29.733
 21
136.8859999999999
 31
0.0
  0
LINE
  5
1E4
330
1E
100
AcDbEntity
  8
0
  6
CONTINUOUS
 62
     7
100
AcDbLine
 10
29.733
 20
136.8859999999999
 30
0.0
 11
30.93202
 21
136.5608399999999
 31
0.0
  0
LINE
  5
1E5
330
1E
100
AcDbEntity
  8
0
  6
CONTINUOUS
 62
     7
100
AcDbLine
 10
34.63855
 20
13.17244999999999
 30
0.0
 11
29.73304999999999
 21
13.17244999999999
 31
0.0
  0
LINE
  5
1E6
330
1E
100
AcDbEntity
  8
0
  6
CONTINUOUS
 62
     7
100
AcDbLine
 10
30.933
 20
13.49352999999999
 30
0.0
 11
29.733
 21
13.172
 31
0.0
  0
LINE
  5
1E7
330
1E
100
AcDbEntity
  8
0
  6
CONTINUOUS
 62
     7
100
AcDbLine
 10
29.733
 20
13.172
 30
0.0
 11
30.933
 21
12.85046
 31
0.0
  0
LINE
  5
1E8
330
1E
100
AcDbEntity
  8
0
  6
CONTINUOUS
 62
     7
100
AcDbLine
 10
35.81329999999999
 20
7.673499999999997
 30
0.0
 11
29.73304999999999
 21
7.673499999999997
 31
0.0
  0
LINE
  5
1E9
330
1E
100
AcDbEntity
  8
0
  6
CONTINUOUS
 62
     7
100
AcDbLine
 10
30.933
 20
7.99453
 30
0.0
 11
29.733
 21
7.672999999999999
 31
0.0
  0
LINE
  5
1EA
330
1E
100
AcDbEntity
  8
0
  6
CONTINUOUS
 62
     7
100
AcDbLine
 10
29.733
 20
7.672999999999999
 30
0.0
 11
30.933
 21
7.35146
 31
0.0
  0
LINE
  5
1EB
330
1E
100
AcDbEntity
  8
0
  6
CONTINUOUS
 62
     7
100
AcDbLine
 10
33.22249999999999
 20
124.8819
 30
0.0
 11
37.6133
 21
124.8819
 31
0.0
  0
LINE
  5
1EC
330
1E
100
AcDbEntity
  8
0
  6
CONTINUOUS
 62
     7
100
AcDbLine
 10
43.06329999999999
 20
55.8819
 30
0.0
 11
84.56329999999999
 21
55.8819
 31
0.0
  0
LINE
  5
1ED
330
1E
100
AcDbEntity
  8
0
  6
CONTINUOUS
 62
     7
100
AcDbLine
 10
32.06329999999999
 20
49.8819
 30
0.0
 11
84.56329999999999
 21
49.8819
 31
0.0
  0
LINE
  5
1EE
330
1E
100
AcDbEntity
  8
0
  6
CONTINUOUS
 62
     7
100
AcDbLine
 10
35.81604999999999
 20
124.8819
 30
0.0
 11
40.11795
 21
124.8819
 31
0.0
  0
LINE
  5
1EF
330
1E
100
AcDbEntity
  8
0
  6
CONTINUOUS
 62
     7
100
AcDbLine
 10
-105.9591999999999
 20
50.4819
 30
0.0
 11
-105.9591999999999
 21
65.3819
 31
0.0
  0
LINE
  5
1F0
330
1E
100
AcDbEntity
  8
0
  6
CONTINUOUS
 62
     7
100
AcDbLine
 10
-105.9591999999999
 20
65.3819
 30
0.0
 11
-105.8092
 21
65.53189999999999
 31
0.0
  0
LINE
  5
1F1
330
1E
100
AcDbEntity
  8
0
  6
CONTINUOUS
 62
     7
100
AcDbLine
 10
-105.8092
 20
65.53189999999999
 30
0.0
 11
-105.8092
 21
117.2318999999999
 31
0.0
  0
LINE
  5
1F2
330
1E
100
AcDbEntity
  8
0
  6
CONTINUOUS
 62
     7
100
AcDbLine
 10
-105.9591999999999
 20
117.3818999999999
 30
0.0
 11
-105.8092
 21
117.2318999999999
 31
0.0
  0
LINE
  5
1F3
330
1E
100
AcDbEntity
  8
0
  6
CONTINUOUS
 62
     7
100
AcDbLine
 10
-105.9591999999999
 20
124.8819
 30
0.0
 11
-38.4567
 21
124.8819
 31
0.0
  0
LINE
  5
1F4
330
1E
100
AcDbEntity
  8
0
  6
CONTINUOUS
 62
     7
100
AcDbLine
 10
-38.4567
 20
50.4819
 30
0.0
 11
-38.4567
 21
117.8819
 31
0.0
  0
LINE
  5
1F5
330
1E
100
AcDbEntity
  8
0
  6
CONTINUOUS
 62
     7
100
AcDbLine
 10
-105.9591999999999
 20
50.4819
 30
0.0
 11
-105.3592
 21
49.8819
 31
0.0
  0
LINE
  5
1F6
330
1E
100
AcDbEntity
  8
0
  6
CONTINUOUS
 62
     7
100
AcDbLine
 10
-39.0567
 20
49.8819
 30
0.0
 11
-38.4567
 21
50.4819
 31
0.0
  0
LINE
  5
1F7
330
1E
100
AcDbEntity
  8
0
  6
CONTINUOUS
 62
     7
100
AcDbLine
 10
-105.3592
 20
49.8819
 30
0.0
 11
-95.78615
 21
49.8819
 31
0.0
  0
LINE
  5
1F8
330
1E
100
AcDbEntity
  8
0
  6
CONTINUOUS
 62
     7
100
AcDbLine
 10
-105.33215
 20
49.8819
 30
0.0
 11
-95.78615
 21
49.8819
 31
0.0
  0
LINE
  5
1F9
330
1E
100
AcDbEntity
  8
0
  6
CONTINUOUS
 62
     7
100
AcDbLine
 10
-105.33215
 20
49.8819
 30
0.0
 11
-39.0567
 21
49.8819
 31
0.0
  0
LINE
  5
1FA
330
1E
100
AcDbEntity
  8
0
  6
CONTINUOUS
 62
     7
100
AcDbLine
 10
-38.4567
 20
117.3818999999999
 30
0.0
 11
-38.4567
 21
124.8819
 31
0.0
  0
LINE
  5
1FB
330
1E
100
AcDbEntity
  8
0
  6
CONTINUOUS
 62
     7
100
AcDbLine
 10
-105.9591999999999
 20
117.3818999999999
 30
0.0
 11
-105.9591999999999
 21
124.8819
 31
0.0
  0
LINE
  5
1FC
330
1E
100
AcDbEntity
  8
0
  6
CONTINUOUS
 62
     1
100
AcDbLine
 10
-103.46195
 20
52.1319
 30
0.0
 11
-103.46195
 21
122.3818999999999
 31
0.0
  0
LINE
  5
1FD
330
1E
100
AcDbEntity
  8
0
  6
CONTINUOUS
 62
     7
100
AcDbLine
 10
-236.9587
 20
50.4819
 30
0.0
 11
-236.9587
 21
65.3819
 31
0.0
  0
LINE
  5
1FE
330
1E
100
AcDbEntity
  8
0
  6
CONTINUOUS
 62
     7
100
AcDbLine
 10
-236.9587
 20
65.3819
 30
0.0
 11
-236.8087
 21
65.53189999999999
 31
0.0
  0
LINE
  5
1FF
330
1E
100
AcDbEntity
  8
0
  6
CONTINUOUS
 62
     7
100
AcDbLine
 10
-236.8087
 20
65.53189999999999
 30
0.0
 11
-236.8087
 21
117.2318999999999
 31
0.0
  0
LINE
  5
200
330
1E
100
AcDbEntity
  8
0
  6
CONTINUOUS
 62
     7
100
AcDbLine
 10
-236.9587
 20
117.3818999999999
 30
0.0
 11
-236.8087
 21
117.2318999999999
 31
0.0
  0
LINE
  5
201
330
1E
100
AcDbEntity
  8
0
  6
CONTINUOUS
 62
     7
100
AcDbLine
 10
-236.9587
 20
124.8819
 30
0.0
 11
-169.4696999999998
 21
124.8819
 31
0.0
  0
LINE
  5
202
330
1E
100
AcDbEntity
  8
0
  6
CONTINUOUS
 62
     7
100
AcDbLine
 10
-169.4696999999998
 20
50.4819
 30
0.0
 11
-169.4696999999998
 21
117.8819
 31
0.0
  0
LINE
  5
203
330
1E
100
AcDbEntity
  8
0
  6
CONTINUOUS
 62
     7
100
AcDbLine
 10
-236.9587
 20
50.4819
 30
0.0
 11
-236.3586999999998
 21
49.8819
 31
0.0
  0
LINE
  5
204
330
1E
100
AcDbEntity
  8
0
  6
CONTINUOUS
 62
     7
100
AcDbLine
 10
-170.0697
 20
49.8819
 30
0.0
 11
-169.4696999999998
 21
50.4819
 31
0.0
  0
LINE
  5
205
330
1E
100
AcDbEntity
  8
0
  6
CONTINUOUS
 62
     7
100
AcDbLine
 10
-236.3586999999998
 20
49.8819
 30
0.0
 11
-219.2856499999999
 21
49.8819
 31
0.0
  0
LINE
  5
206
330
1E
100
AcDbEntity
  8
0
  6
CONTINUOUS
 62
     7
100
AcDbLine
 10
-219.2856499999999
 20
49.8819
 30
0.0
 11
-204.0396499999999
 21
49.8819
 31
0.0
  0
LINE
  5
207
330
1E
100
AcDbEntity
  8
0
  6
CONTINUOUS
 62
     7
100
AcDbLine
 10
-204.0396499999999
 20
49.8819
 30
0.0
 11
-170.0697
 21
49.8819
 31
0.0
  0
LINE
  5
208
330
1E
100
AcDbEntity
  8
0
  6
CONTINUOUS
 62
     7
100
AcDbLine
 10
-169.4696999999998
 20
117.3818999999999
 30
0.0
 11
-169.4696999999998
 21
124.8819
 31
0.0
  0
LINE
  5
209
330
1E
100
AcDbEntity
  8
0
  6
CONTINUOUS
 62
     7
100
AcDbLine
 10
-236.9587
 20
117.3818999999999
 30
0.0
 11
-236.9587
 21
124.8819
 31
0.0
  0
LINE
  5
20A
330
1E
100
AcDbEntity
  8
0
  6
CONTINUOUS
 62
     1
100
AcDbLine
 10
-234.4627
 20
52.1319
 30
0.0
 11
-234.4627
 21
94.88190000000001
 31
0.0
  0
LINE
  5
20B
330
1E
100
AcDbEntity
  8
0
  6
DASHED
 62
     1
100
AcDbLine
 10
-233.9627
 20
52.1319
 30
0.0
 11
-233.9627
 21
65.48404999999999
 31
0.0
  0
LINE
  5
20C
330
1E
100
AcDbEntity
  8
0
  6
CONTINUOUS
 62
     1
100
AcDbLine
 10
-219.2856499999999
 20
54.1319
 30
0.0
 11
-204.0396499999999
 21
54.1319
 31
0.0
  0
LINE
  5
20D
330
1E
100
AcDbEntity
  8
0
  6
CONTINUOUS
 62
     1
100
AcDbLine
 10
-224.4627
 20
52.1319
 30
0.0
 11
-224.4627
 21
94.88190000000001
 31
0.0
  0
LINE
  5
20E
330
1E
100
AcDbEntity
  8
0
  6
DASHED
 62
     1
100
AcDbLine
 10
-223.9627
 20
52.1319
 30
0.0
 11
-223.9627
 21
65.48404999999999
 31
0.0
  0
LINE
  5
20F
330
1E
100
AcDbEntity
  8
0
  6
CONTINUOUS
 62
     1
100
AcDbLine
 10
-214.4627
 20
52.1319
 30
0.0
 11
-214.4627
 21
94.88190000000001
 31
0.0
  0
LINE
  5
210
330
1E
100
AcDbEntity
  8
0
  6
DASHED
 62
     1
100
AcDbLine
 10
-213.9627
 20
52.1319
 30
0.0
 11
-213.9627
 21
65.48404999999999
 31
0.0
  0
LINE
  5
211
330
1E
100
AcDbEntity
  8
0
  6
CONTINUOUS
 62
     1
100
AcDbLine
 10
-204.4627
 20
52.1319
 30
0.0
 11
-204.4627
 21
94.88190000000001
 31
0.0
  0
LINE
  5
212
330
1E
100
AcDbEntity
  8
0
  6
DASHED
 62
     1
100
AcDbLine
 10
-203.9627
 20
52.1319
 30
0.0
 11
-203.9627
 21
65.48404999999999
 31
0.0
  0
LINE
  5
213
330
1E
100
AcDbEntity
  8
0
  6
CONTINUOUS
 62
     7
100
AcDbLine
 10
-103.4801499999999
 20
52.1319
 30
0.0
 11
-103.46195
 21
52.1319
 31
0.0
  0
LINE
  5
214
330
1E
100
AcDbEntity
  8
0
  6
CONTINUOUS
 62
     7
100
AcDbLine
 10
-236.9587
 20
25.0
 30
0.0
 11
-169.4589
 21
25.0
 31
0.0
  0
LINE
  5
215
330
1E
100
AcDbEntity
  8
0
  6
CONTINUOUS
 62
     7
100
AcDbLine
 10
-169.4589
 20
48.8819
 30
0.0
 11
-169.4589
 21
24.19999999999999
 31
0.0
  0
LINE
  5
216
330
1E
100
AcDbEntity
  8
0
  6
CONTINUOUS
 62
     7
100
AcDbLine
 10
-236.9587
 20
48.8819
 30
0.0
 11
-236.9587
 21
24.19999999999999
 31
0.0
  0
LINE
  5
217
330
1E
100
AcDbEntity
  8
0
  6
CONTINUOUS
 62
     7
100
AcDbLine
 10
-170.6579999999999
 20
24.67846
 30
0.0
 11
-169.458
 21
25.0
 31
0.0
  0
LINE
  5
218
330
1E
100
AcDbEntity
  8
0
  6
CONTINUOUS
 62
     7
100
AcDbLine
 10
-169.458
 20
25.0
 30
0.0
 11
-170.6579999999999
 21
25.32153
 31
0.0
  0
LINE
  5
219
330
1E
100
AcDbEntity
  8
0
  6
CONTINUOUS
 62
     7
100
AcDbLine
 10
-235.758
 20
25.32153
 30
0.0
 11
-236.958
 21
25.0
 31
0.0
  0
LINE
  5
21A
330
1E
100
AcDbEntity
  8
0
  6
CONTINUOUS
 62
     7
100
AcDbLine
 10
-236.958
 20
25.0
 30
0.0
 11
-235.758
 21
24.67846
 31
0.0
  0
TEXT
  5
21B
330
1E
100
AcDbEntity
  8
0
  6
CONTINUOUS
 62
     7
100
AcDbText
 10
-208.4088
 20
25.4
 30
0.0
 40
3.2
  1
1350
 41
0.8125
  7
BIGFONT
100
AcDbText
  0
LINE
  5
21C
330
1E
100
AcDbEntity
  8
0
  6
CONTINUOUS
 62
     7
100
AcDbLine
 10
-105.9591999999999
 20
25.0
 30
0.0
 11
-38.4594
 21
25.0
 31
0.0
  0
LINE
  5
21D
330
1E
100
AcDbEntity
  8
0
  6
CONTINUOUS
 62
     7
100
AcDbLine
 10
-38.4594
 20
48.8819
 30
0.0
 11
-38.4594
 21
24.19999999999999
 31
0.0
  0
LINE
  5
21E
330
1E
100
AcDbEntity
  8
0
  6
CONTINUOUS
 62
     7
100
AcDbLine
 10
-105.9591999999999
 20
48.8819
 30
0.0
 11
-105.9591999999999
 21
24.19999999999999
 31
0.0
  0
LINE
  5
21F
330
1E
100
AcDbEntity
  8
0
  6
CONTINUOUS
 62
     7
100
AcDbLine
 10
-39.65899999999999
 20
24.67846
 30
0.0
 11
-38.459
 21
25.0
 31
0.0
  0
LINE
  5
220
330
1E
100
AcDbEntity
  8
0
  6
CONTINUOUS
 62
     7
100
AcDbLine
 10
-38.459
 20
25.0
 30
0.0
 11
-39.65899999999999
 21
25.32153
 31
0.0
  0
LINE
  5
221
330
1E
100
AcDbEntity
  8
0
  6
CONTINUOUS
 62
     7
100
AcDbLine
 10
-104.759
 20
25.32153
 30
0.0
 11
-105.959
 21
25.0
 31
0.0
  0
LINE
  5
222
330
1E
100
AcDbEntity
  8
0
  6
CONTINUOUS
 62
     7
100
AcDbLine
 10
-105.959
 20
25.0
 30
0.0
 11
-104.759
 21
24.67846
 31
0.0
  0
TEXT
  5
223
330
1E
100
AcDbEntity
  8
0
  6
CONTINUOUS
 62
     7
100
AcDbText
 10
-77.4093
 20
25.4
 30
0.0
 40
3.2
  1
1350
 41
0.8125
  7
BIGFONT
100
AcDbText
  0
LINE
  5
224
330
1E
100
AcDbEntity
  8
0
  6
CONTINUOUS
 62
     1
100
AcDbLine
 10
-234.4627
 20
54.1319
 30
0.0
 11
-219.2856499999999
 21
54.1319
 31
0.0
  0
LINE
  5
225
330
1E
100
AcDbEntity
  8
0
  6
CONTINUOUS
 62
     7
100
AcDbLine
 10
-123.4591999999999
 20
49.8819
 30
0.0
 11
-123.4591999999999
 21
124.8819
 31
0.0
  0
LINE
  5
226
330
1E
100
AcDbEntity
  8
0
  6
CONTINUOUS
 62
     7
100
AcDbLine
 10
-106.9591999999999
 20
124.8819
 30
0.0
 11
-124.2592
 21
124.8819
 31
0.0
  0
LINE
  5
227
330
1E
100
AcDbEntity
  8
0
  6
CONTINUOUS
 62
     7
100
AcDbLine
 10
-106.9591999999999
 20
49.8819
 30
0.0
 11
-124.2592
 21
49.8819
 31
0.0
  0
LINE
  5
228
330
1E
100
AcDbEntity
  8
0
  6
CONTINUOUS
 62
     7
100
AcDbLine
 10
-123.13746
 20
123.6809999999999
 30
0.0
 11
-123.459
 21
124.8809999999999
 31
0.0
  0
LINE
  5
229
330
1E
100
AcDbEntity
  8
0
  6
CONTINUOUS
 62
     7
100
AcDbLine
 10
-123.459
 20
124.8809999999999
 30
0.0
 11
-123.7805299999999
 21
123.6809999999999
 31
0.0
  0
LINE
  5
22A
330
1E
100
AcDbEntity
  8
0
  6
CONTINUOUS
 62
     7
100
AcDbLine
 10
-123.7805299999999
 20
51.081
 30
0.0
 11
-123.459
 21
49.881
 31
0.0
  0
LINE
  5
22B
330
1E
100
AcDbEntity
  8
0
  6
CONTINUOUS
 62
     7
100
AcDbLine
 10
-123.459
 20
49.881
 30
0.0
 11
-123.13746
 21
51.081
 31
0.0
  0
TEXT
  5
22C
330
1E
100
AcDbEntity
  8
0
  6
CONTINUOUS
 62
     7
100
AcDbText
 10
-123.8592
 20
82.18189999999998
 30
0.0
 40
3.2
  1
1500
 50
90.0
 41
0.8125
  7
BIGFONT
100
AcDbText
  0
LINE
  5
22D
330
1E
100
AcDbEntity
  8
0
  6
CONTINUOUS
 62
     7
100
AcDbLine
 10
-254.4586999999999
 20
49.8819
 30
0.0
 11
-254.4586999999999
 21
94.8841
 31
0.0
  0
LINE
  5
22E
330
1E
100
AcDbEntity
  8
0
  6
CONTINUOUS
 62
     7
100
AcDbLine
 10
-237.8086999999999
 20
94.8841
 30
0.0
 11
-255.2586999999999
 21
94.8841
 31
0.0
  0
LINE
  5
22F
330
1E
100
AcDbEntity
  8
0
  6
CONTINUOUS
 62
     7
100
AcDbLine
 10
-237.9586999999999
 20
49.8819
 30
0.0
 11
-255.2586999999999
 21
49.8819
 31
0.0
  0
LINE
  5
230
330
1E
100
AcDbEntity
  8
0
  6
CONTINUOUS
 62
     7
100
AcDbLine
 10
-254.13646
 20
93.68399999999999
 30
0.0
 11
-254.4579999999999
 21
94.884
 31
0.0
  0
LINE
  5
231
330
1E
100
AcDbEntity
  8
0
  6
CONTINUOUS
 62
     7
100
AcDbLine
 10
-254.4579999999999
 20
94.884
 30
0.0
 11
-254.77953
 21
93.68399999999999
 31
0.0
  0
LINE
  5
232
330
1E
100
AcDbEntity
  8
0
  6
CONTINUOUS
 62
     7
100
AcDbLine
 10
-254.77953
 20
51.081
 30
0.0
 11
-254.4579999999999
 21
49.881
 31
0.0
  0
LINE
  5
233
330
1E
100
AcDbEntity
  8
0
  6
CONTINUOUS
 62
     7
100
AcDbLine
 10
-254.4579999999999
 20
49.881
 30
0.0
 11
-254.13646
 21
51.081
 31
0.0
  0
TEXT
  5
234
330
1E
100
AcDbEntity
  8
0
  6
CONTINUOUS
 62
     7
100
AcDbText
 10
-254.8586999999999
 20
68.483
 30
0.0
 40
3.2
  1
900
 50
90.0
 41
0.8125
  7
BIGFONT
100
AcDbText
  0
TEXT
  5
235
330
1E
100
AcDbEntity
  8
0
  6
CONTINUOUS
 62
     7
100
AcDbText
 10
-247.57145
 20
57.20089999999999
 30
0.0
 40
3.2
  1
2×300=600
 50
90.0
  7
BIGFONT
100
AcDbText
  0
TEXT
  5
236
330
1E
100
AcDbEntity
  8
0
  6
CONTINUOUS
 62
     7
100
AcDbText
 10
-116.3599499999999
 20
69.97154999999999
 30
0.0
 40
3.2
  1
5×250=1250
 50
90.0
  7
BIGFONT
100
AcDbText
  0
LINE
  5
237
330
1E
100
AcDbEntity
  8
0
  6
CONTINUOUS
 62
     1
100
AcDbLine
 10
-93.46194999999999
 20
52.1319
 30
0.0
 11
-93.46194999999999
 21
122.3818999999999
 31
0.0
  0
LINE
  5
238
330
1E
100
AcDbEntity
  8
0
  6
CONTINUOUS
 62
     1
100
AcDbLine
 10
-83.46194999999999
 20
52.1319
 30
0.0
 11
-83.46194999999999
 21
122.3818999999999
 31
0.0
  0
LINE
  5
239
330
1E
100
AcDbEntity
  8
0
  6
CONTINUOUS
 62
     1
100
AcDbLine
 10
-73.46195
 20
52.1319
 30
0.0
 11
-73.46195
 21
122.3818999999999
 31
0.0
  0
LINE
  5
23A
330
1E
100
AcDbEntity
  8
0
  6
CONTINUOUS
 62
     1
100
AcDbLine
 10
-63.46195
 20
52.1319
 30
0.0
 11
-63.46195
 21
122.3818999999999
 31
0.0
  0
LINE
  5
23B
330
1E
100
AcDbEntity
  8
0
  6
CONTINUOUS
 62
     1
100
AcDbLine
 10
-53.46195
 20
52.1319
 30
0.0
 11
-53.46195
 21
122.3818999999999
 31
0.0
  0
LINE
  5
23C
330
1E
100
AcDbEntity
  8
0
  6
CONTINUOUS
 62
     1
100
AcDbLine
 10
-194.4627
 20
52.1319
 30
0.0
 11
-194.4627
 21
94.88190000000001
 31
0.0
  0
LINE
  5
23D
330
1E
100
AcDbEntity
  8
0
  6
DASHED
 62
     1
100
AcDbLine
 10
-193.9627
 20
52.1319
 30
0.0
 11
-193.9627
 21
65.48404999999999
 31
0.0
  0
LINE
  5
23E
330
1E
100
AcDbEntity
  8
0
  6
CONTINUOUS
 62
     1
100
AcDbLine
 10
-184.4627
 20
52.1319
 30
0.0
 11
-184.4627
 21
94.88190000000001
 31
0.0
  0
LINE
  5
23F
330
1E
100
AcDbEntity
  8
0
  6
CONTINUOUS
 62
     1
100
AcDbLine
 10
-204.0396499999999
 20
54.1319
 30
0.0
 11
-171.9317
 21
54.1319
 31
0.0
  0
TEXT
  5
240
330
1E
100
AcDbEntity
  8
0
  6
CONTINUOUS
 62
     7
100
AcDbText
 10
-222.72845
 20
33.00545
 30
0.0
 40
3.2
  1
5×200=1000
  7
BIGFONT
100
AcDbText
  0
LINE
  5
241
330
1E
100
AcDbEntity
  8
0
  6
CONTINUOUS
 62
     1
100
AcDbLine
 10
-233.5087
 20
-98.23345000000001
 30
0.0
 11
-233.5087
 21
-35.38345
 31
0.0
  0
LINE
  5
242
330
1E
100
AcDbEntity
  8
0
  6
CONTINUOUS
 62
     1
100
AcDbLine
 10
-234.8087
 20
-36.68345
 30
0.0
 11
-171.9586999999999
 21
-36.68345
 31
0.0
  0
LINE
  5
243
330
1E
100
AcDbEntity
  8
0
  6
CONTINUOUS
 62
     1
100
AcDbLine
 10
-221.9587
 20
-98.23345000000001
 30
0.0
 11
-221.9587
 21
-35.38345
 31
0.0
  0
LINE
  5
244
330
1E
100
AcDbEntity
  8
0
  6
CONTINUOUS
 62
     1
100
AcDbLine
 10
-211.9587
 20
-98.23345000000001
 30
0.0
 11
-211.9587
 21
-35.38345
 31
0.0
  0
LINE
  5
245
330
1E
100
AcDbEntity
  8
0
  6
CONTINUOUS
 62
     1
100
AcDbLine
 10
-234.8087
 20
-48.23344999999999
 30
0.0
 11
-171.9586999999999
 21
-48.23344999999999
 31
0.0
  0
LINE
  5
246
330
1E
100
AcDbEntity
  8
0
  6
CONTINUOUS
 62
     1
100
AcDbLine
 10
-234.8087
 20
-58.23344999999999
 30
0.0
 11
-171.9586999999999
 21
-58.23344999999999
 31
0.0
  0
LINE
  5
247
330
1E
100
AcDbEntity
  8
0
  6
CONTINUOUS
 62
     1
100
AcDbLine
 10
-171.9586999999999
 20
-65.73345
 30
0.0
 11
-171.9586999999999
 21
-35.38345
 31
0.0
  0
LINE
  5
248
330
1E
100
AcDbEntity
  8
0
  6
CONTINUOUS
 62
     1
100
AcDbLine
 10
-171.9586999999999
 20
-65.73345
 30
0.0
 11
-171.9586999999999
 21
-35.38345
 31
0.0
  0
LINE
  5
249
330
1E
100
AcDbEntity
  8
0
  6
CONTINUOUS
 62
     7
100
AcDbLine
 10
-236.9587
 20
-17.73345
 30
0.0
 11
-169.4587
 21
-17.73345
 31
0.0
  0
LINE
  5
24A
330
1E
100
AcDbEntity
  8
0
  6
CONTINUOUS
 62
     7
100
AcDbLine
 10
-169.4587
 20
-32.23345
 30
0.0
 11
-169.4587
 21
-16.93345
 31
0.0
  0
LINE
  5
24B
330
1E
100
AcDbEntity
  8
0
  6
CONTINUOUS
 62
     7
100
AcDbLine
 10
-236.9587
 20
-32.23345
 30
0.0
 11
-236.9587
 21
-16.93345
 31
0.0
  0
LINE
  5
24C
330
1E
100
AcDbEntity
  8
0
  6
CONTINUOUS
 62
     7
100
AcDbLine
 10
-170.6579999999999
 20
-18.05452999999999
 30
0.0
 11
-169.458
 21
-17.733
 31
0.0
  0
LINE
  5
24D
330
1E
100
AcDbEntity
  8
0
  6
CONTINUOUS
 62
     7
100
AcDbLine
 10
-169.458
 20
-17.733
 30
0.0
 11
-170.6579999999999
 21
-17.41146
 31
0.0
  0
LINE
  5
24E
330
1E
100
AcDbEntity
  8
0
  6
CONTINUOUS
 62
     7
100
AcDbLine
 10
-235.758
 20
-17.41146
 30
0.0
 11
-236.958
 21
-17.733
 31
0.0
  0
LINE
  5
24F
330
1E
100
AcDbEntity
  8
0
  6
CONTINUOUS
 62
     7
100
AcDbLine
 10
-236.958
 20
-17.733
 30
0.0
 11
-235.758
 21
-18.05452999999999
 31
0.0
  0
TEXT
  5
250
330
1E
100
AcDbEntity
  8
0
  6
CONTINUOUS
 62
     7
100
AcDbText
 10
-208.4087
 20
-17.33344999999999
 30
0.0
 40
3.2
  1
1350
 41
0.8125
  7
BIGFONT
100
AcDbText
  0
LINE
  5
251
330
1E
100
AcDbEntity
  8
0
  6
CONTINUOUS
 62
     7
100
AcDbLine
 10
-105.9591999999999
 20
-33.23344999999999
 30
0.0
 11
-38.4592
 21
-33.23344999999999
 31
0.0
  0
LINE
  5
252
330
1E
100
AcDbEntity
  8
0
  6
CONTINUOUS
 62
     7
100
AcDbLine
 10
-105.9591999999999
 20
-100.73345
 30
0.0
 11
-105.9591999999999
 21
-33.23344999999999
 31
0.0
  0
LINE
  5
253
330
1E
100
AcDbEntity
  8
0
  6
CONTINUOUS
 62
     7
100
AcDbLine
 10
-105.9591999999999
 20
-100.73345
 30
0.0
 11
-53.4592
 21
-100.73345
 31
0.0
  0
LINE
  5
254
330
1E
100
AcDbEntity
  8
0
  6
CONTINUOUS
 62
     7
100
AcDbLine
 10
-38.4592
 20
-85.73345000000001
 30
0.0
 11
-38.4592
 21
-33.23344999999999
 31
0.0
  0
LINE
  5
255
330
1E
100
AcDbEntity
  8
0
  6
CONTINUOUS
 62
     7
100
AcDbLine
 10
-105.9591999999999
 20
-17.73345
 30
0.0
 11
-38.4592
 21
-17.73345
 31
0.0
  0
LINE
  5
256
330
1E
100
AcDbEntity
  8
0
  6
CONTINUOUS
 62
     7
100
AcDbLine
 10
-38.4592
 20
-32.23345
 30
0.0
 11
-38.4592
 21
-16.93345
 31
0.0
  0
LINE
  5
257
330
1E
100
AcDbEntity
  8
0
  6
CONTINUOUS
 62
     7
100
AcDbLine
 10
-105.9591999999999
 20
-32.23345
 30
0.0
 11
-105.9591999999999
 21
-16.93345
 31
0.0
  0
LINE
  5
258
330
1E
100
AcDbEntity
  8
0
  6
CONTINUOUS
 62
     7
100
AcDbLine
 10
-39.65899999999999
 20
-18.05452999999999
 30
0.0
 11
-38.459
 21
-17.733
 31
0.0
  0
LINE
  5
259
330
1E
100
AcDbEntity
  8
0
  6
CONTINUOUS
 62
     7
100
AcDbLine
 10
-38.459
 20
-17.733
 30
0.0
 11
-39.65899999999999
 21
-17.41146
 31
0.0
  0
LINE
  5
25A
330
1E
100
AcDbEntity
  8
0
  6
CONTINUOUS
 62
     7
100
AcDbLine
 10
-104.759
 20
-17.41146
 30
0.0
 11
-105.959
 21
-17.733
 31
0.0
  0
LINE
  5
25B
330
1E
100
AcDbEntity
  8
0
  6
CONTINUOUS
 62
     7
100
AcDbLine
 10
-105.959
 20
-17.733
 30
0.0
 11
-104.759
 21
-18.05452999999999
 31
0.0
  0
TEXT
  5
25C
330
1E
100
AcDbEntity
  8
0
  6
CONTINUOUS
 62
     7
100
AcDbText
 10
-77.4092
 20
-17.33344999999999
 30
0.0
 40
3.2
  1
1350
 41
0.8125
  7
BIGFONT
100
AcDbText
  0
LINE
  5
25D
330
1E
100
AcDbEntity
  8
0
  6
CONTINUOUS
 62
     1
100
AcDbLine
 10
-54.4947
 20
-98.23345000000001
 30
0.0
 11
-40.9592
 21
-84.69795000000003
 31
0.0
  0
LINE
  5
25E
330
1E
100
AcDbEntity
  8
0
  6
CONTINUOUS
 62
     7
100
AcDbLine
 10
-93.46194999999999
 20
85.01229999999997
 30
0.0
 11
-103.46195
 21
85.01229999999997
 31
0.0
  0
LINE
  5
25F
330
1E
100
AcDbEntity
  8
0
  6
CONTINUOUS
 62
     7
100
AcDbLine
 10
-102.261
 20
85.33353000000003
 30
0.0
 11
-103.461
 21
85.012
 31
0.0
  0
LINE
  5
260
330
1E
100
AcDbEntity
  8
0
  6
CONTINUOUS
 62
     7
100
AcDbLine
 10
-103.461
 20
85.012
 30
0.0
 11
-102.261
 21
84.69046
 31
0.0
  0
LINE
  5
261
330
1E
100
AcDbEntity
  8
0
  6
CONTINUOUS
 62
     7
100
AcDbLine
 10
-83.46194999999999
 20
85.01229999999997
 30
0.0
 11
-93.46194999999999
 21
85.01229999999997
 31
0.0
  0
LINE
  5
262
330
1E
100
AcDbEntity
  8
0
  6
CONTINUOUS
 62
     7
100
AcDbLine
 10
-92.261
 20
85.33353000000003
 30
0.0
 11
-93.46099999999999
 21
85.012
 31
0.0
  0
LINE
  5
263
330
1E
100
AcDbEntity
  8
0
  6
CONTINUOUS
 62
     7
100
AcDbLine
 10
-93.46099999999999
 20
85.012
 30
0.0
 11
-92.261
 21
84.69046
 31
0.0
  0
LINE
  5
264
330
1E
100
AcDbEntity
  8
0
  6
CONTINUOUS
 62
     7
100
AcDbLine
 10
-73.46195
 20
85.01229999999997
 30
0.0
 11
-83.46194999999999
 21
85.01229999999997
 31
0.0
  0
LINE
  5
265
330
1E
100
AcDbEntity
  8
0
  6
CONTINUOUS
 62
     7
100
AcDbLine
 10
-82.261
 20
85.33353000000003
 30
0.0
 11
-83.46099999999998
 21
85.012
 31
0.0
  0
LINE
  5
266
330
1E
100
AcDbEntity
  8
0
  6
CONTINUOUS
 62
     7
100
AcDbLine
 10
-83.46099999999998
 20
85.012
 30
0.0
 11
-82.261
 21
84.69046
 31
0.0
  0
LINE
  5
267
330
1E
100
AcDbEntity
  8
0
  6
CONTINUOUS
 62
     7
100
AcDbLine
 10
-63.46195
 20
85.01229999999997
 30
0.0
 11
-73.46195
 21
85.01229999999997
 31
0.0
  0
LINE
  5
268
330
1E
100
AcDbEntity
  8
0
  6
CONTINUOUS
 62
     7
100
AcDbLine
 10
-73.46195
 20
85.01229999999997
 30
0.0
 11
-75.86195
 21
85.01229999999997
 31
0.0
  0
LINE
  5
269
330
1E
100
AcDbEntity
  8
0
  6
CONTINUOUS
 62
     7
100
AcDbLine
 10
-72.26099999999998
 20
85.33353000000003
 30
0.0
 11
-73.46099999999998
 21
85.012
 31
0.0
  0
LINE
  5
26A
330
1E
100
AcDbEntity
  8
0
  6
CONTINUOUS
 62
     7
100
AcDbLine
 10
-73.46099999999998
 20
85.012
 30
0.0
 11
-72.26099999999998
 21
84.69046
 31
0.0
  0
LINE
  5
26B
330
1E
100
AcDbEntity
  8
0
  6
CONTINUOUS
 62
     7
100
AcDbLine
 10
-53.46195
 20
85.01229999999997
 30
0.0
 11
-63.46195
 21
85.01229999999997
 31
0.0
  0
LINE
  5
26C
330
1E
100
AcDbEntity
  8
0
  6
CONTINUOUS
 62
     7
100
AcDbLine
 10
-62.261
 20
85.33353000000003
 30
0.0
 11
-63.46099999999999
 21
85.012
 31
0.0
  0
LINE
  5
26D
330
1E
100
AcDbEntity
  8
0
  6
CONTINUOUS
 62
     7
100
AcDbLine
 10
-63.46099999999999
 20
85.012
 30
0.0
 11
-62.261
 21
84.69046
 31
0.0
  0
LINE
  5
26E
330
1E
100
AcDbEntity
  8
0
  6
CONTINUOUS
 62
     7
100
AcDbLine
 10
46.46419999999999
 20
110.0049
 30
0.0
 11
35.86719999999999
 21
102.9327499999999
 31
0.0
  0
LINE
  5
26F
330
1E
100
AcDbEntity
  8
0
  6
CONTINUOUS
 62
     7
100
AcDbLine
 10
36.68664
 20
103.8655699999999
 30
0.0
 11
35.86699999999999
 21
102.932
 31
0.0
  0
LINE
  5
270
330
1E
100
AcDbEntity
  8
0
  6
CONTINUOUS
 62
     7
100
AcDbLine
 10
35.86699999999999
 20
102.932
 30
0.0
 11
37.04362
 21
103.33067
 31
0.0
  0
LINE
  5
271
330
1E
100
AcDbEntity
  8
0
  6
CONTINUOUS
 62
     7
100
AcDbLine
 10
61.79515
 20
85.7281
 30
0.0
 11
35.4172
 21
85.7281
 31
0.0
  0
LINE
  5
272
330
1E
100
AcDbEntity
  8
0
  6
CONTINUOUS
 62
     7
100
AcDbLine
 10
36.61699999999999
 20
86.04953
 30
0.0
 11
35.417
 21
85.72799999999999
 31
0.0
  0
LINE
  5
273
330
1E
100
AcDbEntity
  8
0
  6
CONTINUOUS
 62
     7
100
AcDbLine
 10
35.417
 20
85.72799999999999
 30
0.0
 11
36.61699999999999
 21
85.40646
 31
0.0
  0
LINE
  5
274
330
1E
100
AcDbEntity
  8
0
  6
CONTINUOUS
 62
     7
100
AcDbLine
 10
48.21159999999999
 20
71.35875
 30
0.0
 11
39.22355
 21
56.58789999999999
 31
0.0
  0
LINE
  5
275
330
1E
100
AcDbEntity
  8
0
  6
CONTINUOUS
 62
     7
100
AcDbLine
 10
39.57209999999999
 20
57.77927
 30
0.0
 11
39.22299999999999
 21
56.58699999999999
 31
0.0
  0
LINE
  5
276
330
1E
100
AcDbEntity
  8
0
  6
CONTINUOUS
 62
     7
100
AcDbLine
 10
39.22299999999999
 20
56.58699999999999
 30
0.0
 11
40.12147
 21
57.44498
 31
0.0
  0
LINE
  5
277
330
1E
100
AcDbEntity
  8
0
  6
CONTINUOUS
 62
     7
100
AcDbLine
 10
23.62645
 20
88.94645
 30
0.0
 11
34.7036
 21
84.13999999999999
 31
0.0
  0
LINE
  5
278
330
1E
100
AcDbEntity
  8
0
  6
CONTINUOUS
 62
     7
100
AcDbLine
 10
33.47417
 20
84.32269000000003
 30
0.0
 11
34.703
 21
84.13999999999999
 31
0.0
  0
LINE
  5
279
330
1E
100
AcDbEntity
  8
0
  6
CONTINUOUS
 62
     7
100
AcDbLine
 10
34.703
 20
84.13999999999999
 30
0.0
 11
33.73015
 21
84.91261999999997
 31
0.0
  0
TEXT
  5
27A
330
1E
100
AcDbEntity
  8
0
  6
CONTINUOUS
 62
     7
100
AcDbText
 10
-210.2371
 20
-24.728
 30
0.0
 40
3.2
  1
5×200=1000
  7
BIGFONT
100
AcDbText
  0
LINE
  5
27B
330
1E
100
AcDbEntity
  8
0
  6
CONTINUOUS
 62
     7
100
AcDbLine
 10
23.65915
 20
64.8572
 30
0.0
 11
34.30915
 21
64.8572
 31
0.0
  0
LINE
  5
27C
330
1E
100
AcDbEntity
  8
0
  6
CONTINUOUS
 62
     7
100
AcDbLine
 10
33.109
 20
64.53546
 30
0.0
 11
34.30899999999999
 21
64.857
 31
0.0
  0
LINE
  5
27D
330
1E
100
AcDbEntity
  8
0
  6
CONTINUOUS
 62
     7
100
AcDbLine
 10
34.30899999999999
 20
64.857
 30
0.0
 11
33.109
 21
65.17853000000001
 31
0.0
  0
LINE
  5
27E
330
1E
100
AcDbEntity
  8
0
  6
CONTINUOUS
 62
     1
100
AcDbLine
 10
-201.9587
 20
-65.74214999999999
 30
0.0
 11
-201.9587
 21
-35.38345
 31
0.0
  0
LINE
  5
27F
330
1E
100
AcDbEntity
  8
0
  6
CONTINUOUS
 62
     1
100
AcDbLine
 10
-234.8087
 20
-68.23345
 30
0.0
 11
-204.4664
 21
-68.23345
 31
0.0
  0
LINE
  5
280
330
1E
100
AcDbEntity
  8
0
  6
CONTINUOUS
 62
     1
100
AcDbLine
 10
-234.8087
 20
-78.23345
 30
0.0
 11
-204.4664
 21
-78.23345
 31
0.0
  0
LINE
  5
281
330
1E
100
AcDbEntity
  8
0
  6
CONTINUOUS
 62
     1
100
AcDbLine
 10
-234.8087
 20
-98.23345000000001
 30
0.0
 11
-204.4664
 21
-98.23345000000001
 31
0.0
  0
LINE
  5
282
330
1E
100
AcDbEntity
  8
0
  6
CONTINUOUS
 62
     1
100
AcDbLine
 10
-234.8087
 20
-98.23345000000001
 30
0.0
 11
-204.4664
 21
-98.23345000000001
 31
0.0
  0
LINE
  5
283
330
1E
100
AcDbEntity
  8
0
  6
CONTINUOUS
 62
     1
100
AcDbLine
 10
-191.9586999999999
 20
-65.74214999999999
 30
0.0
 11
-191.9586999999999
 21
-35.38345
 31
0.0
  0
LINE
  5
284
330
1E
100
AcDbEntity
  8
0
  6
CONTINUOUS
 62
     1
100
AcDbLine
 10
-234.8087
 20
-88.23345000000001
 30
0.0
 11
-204.4664
 21
-88.23345000000001
 31
0.0
  0
LINE
  5
285
330
1E
100
AcDbEntity
  8
0
  6
CONTINUOUS
 62
     1
100
AcDbLine
 10
-181.9587
 20
-65.73345
 30
0.0
 11
-181.9587
 21
-35.38345
 31
0.0
  0
LINE
  5
286
330
1E
100
AcDbEntity
  8
0
  6
DASHED
 62
     1
100
AcDbLine
 10
-172.4586999999999
 20
-48.7356
 30
0.0
 11
-172.4586999999999
 21
-35.38345
 31
0.0
  0
LINE
  5
287
330
1E
100
AcDbEntity
  8
0
  6
DASHED
 62
     1
100
AcDbLine
 10
-234.8087
 20
-97.73345
 30
0.0
 11
-221.4565499999999
 21
-97.73345
 31
0.0
  0
LINE
  5
288
330
1E
100
AcDbEntity
  8
0
  6
DASHED
 62
     1
100
AcDbLine
 10
-182.4587
 20
-48.7356
 30
0.0
 11
-182.4587
 21
-35.38345
 31
0.0
  0
LINE
  5
289
330
1E
100
AcDbEntity
  8
0
  6
DASHED
 62
     1
100
AcDbLine
 10
-192.4587
 20
-48.7356
 30
0.0
 11
-192.4587
 21
-35.38345
 31
0.0
  0
LINE
  5
28A
330
1E
100
AcDbEntity
  8
0
  6
DASHED
 62
     1
100
AcDbLine
 10
-202.4586999999999
 20
-48.7356
 30
0.0
 11
-202.4586999999999
 21
-35.38345
 31
0.0
  0
LINE
  5
28B
330
1E
100
AcDbEntity
  8
0
  6
DASHED
 62
     1
100
AcDbLine
 10
-212.4587
 20
-48.7356
 30
0.0
 11
-212.4587
 21
-35.38345
 31
0.0
  0
LINE
  5
28C
330
1E
100
AcDbEntity
  8
0
  6
DASHED
 62
     1
100
AcDbLine
 10
-234.8087
 20
-87.73345
 30
0.0
 11
-221.4565499999999
 21
-87.73345
 31
0.0
  0
LINE
  5
28D
330
1E
100
AcDbEntity
  8
0
  6
DASHED
 62
     1
100
AcDbLine
 10
-234.8087
 20
-77.73345
 30
0.0
 11
-221.4565499999999
 21
-77.73345
 31
0.0
  0
LINE
  5
28E
330
1E
100
AcDbEntity
  8
0
  6
DASHED
 62
     1
100
AcDbLine
 10
-234.8087
 20
-67.73345
 30
0.0
 11
-221.4565499999999
 21
-67.73345
 31
0.0
  0
LINE
  5
28F
330
1E
100
AcDbEntity
  8
0
  6
DASHED
 62
     1
100
AcDbLine
 10
-234.8087
 20
-57.73344999999999
 30
0.0
 11
-221.4565499999999
 21
-57.73344999999999
 31
0.0
  0
LINE
  5
290
330
1E
100
AcDbEntity
  8
0
  6
CONTINUOUS
 62
     7
100
AcDbLine
 10
-191.9586999999999
 20
-63.28655
 30
0.0
 11
-201.9587
 21
-63.28655
 31
0.0
  0
LINE
  5
291
330
1E
100
AcDbEntity
  8
0
  6
CONTINUOUS
 62
     7
100
AcDbLine
 10
-200.7579999999999
 20
-62.96445999999999
 30
0.0
 11
-201.9579999999999
 21
-63.286
 31
0.0
  0
LINE
  5
292
330
1E
100
AcDbEntity
  8
0
  6
CONTINUOUS
 62
     7
100
AcDbLine
 10
-201.9579999999999
 20
-63.286
 30
0.0
 11
-200.7579999999999
 21
-63.60753
 31
0.0
  0
LINE
  5
293
330
1E
100
AcDbEntity
  8
0
  6
CONTINUOUS
 62
     7
100
AcDbLine
 10
-181.9587
 20
-63.28655
 30
0.0
 11
-191.9586999999999
 21
-63.28655
 31
0.0
  0
LINE
  5
294
330
1E
100
AcDbEntity
  8
0
  6
CONTINUOUS
 62
     7
100
AcDbLine
 10
-190.7579999999999
 20
-62.96445999999999
 30
0.0
 11
-191.958
 21
-63.286
 31
0.0
  0
LINE
  5
295
330
1E
100
AcDbEntity
  8
0
  6
CONTINUOUS
 62
     7
100
AcDbLine
 10
-191.958
 20
-63.286
 30
0.0
 11
-190.7579999999999
 21
-63.60753
 31
0.0
  0
LINE
  5
296
330
1E
100
AcDbEntity
  8
0
  6
CONTINUOUS
 62
     7
100
AcDbLine
 10
-171.9586999999999
 20
-63.28655
 30
0.0
 11
-181.9587
 21
-63.28655
 31
0.0
  0
LINE
  5
297
330
1E
100
AcDbEntity
  8
0
  6
CONTINUOUS
 62
     7
100
AcDbLine
 10
-180.7579999999999
 20
-62.96445999999999
 30
0.0
 11
-181.958
 21
-63.286
 31
0.0
  0
LINE
  5
298
330
1E
100
AcDbEntity
  8
0
  6
CONTINUOUS
 62
     7
100
AcDbLine
 10
-181.958
 20
-63.286
 30
0.0
 11
-180.7579999999999
 21
-63.60753
 31
0.0
  0
LINE
  5
299
330
1E
100
AcDbEntity
  8
0
  6
CONTINUOUS
 62
     7
100
AcDbLine
 10
-202.4586999999999
 20
-45.10844999999998
 30
0.0
 11
-212.4587
 21
-45.10844999999998
 31
0.0
  0
LINE
  5
29A
330
1E
100
AcDbEntity
  8
0
  6
CONTINUOUS
 62
     7
100
AcDbLine
 10
-211.2579999999999
 20
-44.78646
 30
0.0
 11
-212.4579999999999
 21
-45.10799999999998
 31
0.0
  0
LINE
  5
29B
330
1E
100
AcDbEntity
  8
0
  6
CONTINUOUS
 62
     7
100
AcDbLine
 10
-212.4579999999999
 20
-45.10799999999998
 30
0.0
 11
-211.2579999999999
 21
-45.42952999999999
 31
0.0
  0
LINE
  5
29C
330
1E
100
AcDbEntity
  8
0
  6
CONTINUOUS
 62
     7
100
AcDbLine
 10
-192.4587
 20
-45.10844999999998
 30
0.0
 11
-202.4598499999999
 21
-45.10844999999998
 31
0.0
  0
LINE
  5
29D
330
1E
100
AcDbEntity
  8
0
  6
CONTINUOUS
 62
     7
100
AcDbLine
 10
-201.2589999999999
 20
-44.78646
 30
0.0
 11
-202.4589999999999
 21
-45.10799999999998
 31
0.0
  0
LINE
  5
29E
330
1E
100
AcDbEntity
  8
0
  6
CONTINUOUS
 62
     7
100
AcDbLine
 10
-202.4589999999999
 20
-45.10799999999998
 30
0.0
 11
-201.2589999999999
 21
-45.42952999999999
 31
0.0
  0
LINE
  5
29F
330
1E
100
AcDbEntity
  8
0
  6
CONTINUOUS
 62
     7
100
AcDbLine
 10
-182.4587
 20
-45.10844999999998
 30
0.0
 11
-192.4598499999999
 21
-45.10844999999998
 31
0.0
  0
LINE
  5
2A0
330
1E
100
AcDbEntity
  8
0
  6
CONTINUOUS
 62
     7
100
AcDbLine
 10
-191.2589999999999
 20
-44.78646
 30
0.0
 11
-192.459
 21
-45.10799999999998
 31
0.0
  0
LINE
  5
2A1
330
1E
100
AcDbEntity
  8
0
  6
CONTINUOUS
 62
     7
100
AcDbLine
 10
-192.459
 20
-45.10799999999998
 30
0.0
 11
-191.2589999999999
 21
-45.42952999999999
 31
0.0
  0
LINE
  5
2A2
330
1E
100
AcDbEntity
  8
0
  6
CONTINUOUS
 62
     7
100
AcDbLine
 10
-172.4586999999999
 20
-45.10844999999998
 30
0.0
 11
-182.45985
 21
-45.10844999999998
 31
0.0
  0
LINE
  5
2A3
330
1E
100
AcDbEntity
  8
0
  6
CONTINUOUS
 62
     7
100
AcDbLine
 10
-181.2589999999999
 20
-44.78646
 30
0.0
 11
-182.459
 21
-45.10799999999998
 31
0.0
  0
LINE
  5
2A4
330
1E
100
AcDbEntity
  8
0
  6
CONTINUOUS
 62
     7
100
AcDbLine
 10
-182.459
 20
-45.10799999999998
 30
0.0
 11
-181.2589999999999
 21
-45.42952999999999
 31
0.0
  0
LINE
  5
2A5
330
1E
100
AcDbEntity
  8
0
  6
CONTINUOUS
 62
     7
100
AcDbLine
 10
-207.6485499999999
 20
-78.23345
 30
0.0
 11
-207.6485499999999
 21
-68.23345
 31
0.0
  0
LINE
  5
2A6
330
1E
100
AcDbEntity
  8
0
  6
CONTINUOUS
 62
     7
100
AcDbLine
 10
-207.3264599999999
 20
-69.433
 30
0.0
 11
-207.648
 21
-68.233
 31
0.0
  0
LINE
  5
2A7
330
1E
100
AcDbEntity
  8
0
  6
CONTINUOUS
 62
     7
100
AcDbLine
 10
-207.648
 20
-68.233
 30
0.0
 11
-207.96953
 21
-69.433
 31
0.0
  0
LINE
  5
2A8
330
1E
100
AcDbEntity
  8
0
  6
CONTINUOUS
 62
     7
100
AcDbLine
 10
-207.6485499999999
 20
-88.23345000000001
 30
0.0
 11
-207.6485499999999
 21
-78.23345
 31
0.0
  0
LINE
  5
2A9
330
1E
100
AcDbEntity
  8
0
  6
CONTINUOUS
 62
     7
100
AcDbLine
 10
-207.3264599999999
 20
-79.433
 30
0.0
 11
-207.648
 21
-78.233
 31
0.0
  0
LINE
  5
2AA
330
1E
100
AcDbEntity
  8
0
  6
CONTINUOUS
 62
     7
100
AcDbLine
 10
-207.648
 20
-78.233
 30
0.0
 11
-207.96953
 21
-79.433
 31
0.0
  0
LINE
  5
2AB
330
1E
100
AcDbEntity
  8
0
  6
CONTINUOUS
 62
     7
100
AcDbLine
 10
-207.6485499999999
 20
-98.23345000000001
 30
0.0
 11
-207.6485499999999
 21
-88.19605000000001
 31
0.0
  0
LINE
  5
2AC
330
1E
100
AcDbEntity
  8
0
  6
CONTINUOUS
 62
     7
100
AcDbLine
 10
-207.3264599999999
 20
-89.396
 30
0.0
 11
-207.648
 21
-88.19599999999999
 31
0.0
  0
LINE
  5
2AD
330
1E
100
AcDbEntity
  8
0
  6
CONTINUOUS
 62
     7
100
AcDbLine
 10
-207.648
 20
-88.19599999999999
 30
0.0
 11
-207.96953
 21
-89.396
 31
0.0
  0
LINE
  5
2AE
330
1E
100
AcDbEntity
  8
0
  6
CONTINUOUS
 62
     7
100
AcDbLine
 10
-225.0837
 20
-77.73345
 30
0.0
 11
-225.0837
 21
-67.73345
 31
0.0
  0
LINE
  5
2AF
330
1E
100
AcDbEntity
  8
0
  6
CONTINUOUS
 62
     7
100
AcDbLine
 10
-224.7614599999999
 20
-68.933
 30
0.0
 11
-225.083
 21
-67.733
 31
0.0
  0
LINE
  5
2B0
330
1E
100
AcDbEntity
  8
0
  6
CONTINUOUS
 62
     7
100
AcDbLine
 10
-225.083
 20
-67.733
 30
0.0
 11
-225.40453
 21
-68.933
 31
0.0
  0
LINE
  5
2B1
330
1E
100
AcDbEntity
  8
0
  6
CONTINUOUS
 62
     7
100
AcDbLine
 10
-225.0837
 20
-87.73345
 30
0.0
 11
-225.0837
 21
-77.73345
 31
0.0
  0
LINE
  5
2B2
330
1E
100
AcDbEntity
  8
0
  6
CONTINUOUS
 62
     7
100
AcDbLine
 10
-224.7614599999999
 20
-78.933
 30
0.0
 11
-225.083
 21
-77.733
 31
0.0
  0
LINE
  5
2B3
330
1E
100
AcDbEntity
  8
0
  6
CONTINUOUS
 62
     7
100
AcDbLine
 10
-225.083
 20
-77.733
 30
0.0
 11
-225.40453
 21
-78.933
 31
0.0
  0
LINE
  5
2B4
330
1E
100
AcDbEntity
  8
0
  6
CONTINUOUS
 62
     7
100
AcDbLine
 10
-225.0837
 20
-97.73345
 30
0.0
 11
-225.0837
 21
-87.73345
 31
0.0
  0
LINE
  5
2B5
330
1E
100
AcDbEntity
  8
0
  6
CONTINUOUS
 62
     7
100
AcDbLine
 10
-224.7614599999999
 20
-88.93300000000001
 30
0.0
 11
-225.083
 21
-87.73299999999997
 31
0.0
  0
LINE
  5
2B6
330
1E
100
AcDbEntity
  8
0
  6
CONTINUOUS
 62
     7
100
AcDbLine
 10
-225.083
 20
-87.73299999999997
 30
0.0
 11
-225.40453
 21
-88.93300000000001
 31
0.0
  0
TEXT
  5
2B7
330
1E
100
AcDbEntity
  8
0
  6
CONTINUOUS
 62
     7
100
AcDbText
 10
-79.5228
 20
-24.728
 30
0.0
 40
3.2
  1
5×200=1000
  7
BIGFONT
100
AcDbText
  0
POINT
  5
2B8
330
1E
100
AcDbEntity
  8
0
  6
CONTINUOUS
 62
     1
100
AcDbPoint
 10
47.1633
 20
53.1819
 30
0.0
  0
POINT
  5
2B9
330
1E
100
AcDbEntity
  8
0
  6
CONTINUOUS
 62
     7
100
AcDbPoint
 10
57.0633
 20
52.55510000000001
 30
0.0
  0
POINT
  5
2BA
330
1E
100
AcDbEntity
  8
0
  6
CONTINUOUS
 62
     1
100
AcDbPoint
 10
36.32475
 20
52.5501
 30
0.0
  0
LINE
  5
2BB
330
1E
100
AcDbEntity
  8
0
  6
CONTINUOUS
 62
     1
100
AcDbLine
 10
36.9172
 20
52.2557
 30
0.0
 11
37.5192
 21
52.2557
 31
0.0
  0
LINE
  5
2BC
330
1E
100
AcDbEntity
  8
0
  6
CONTINUOUS
 62
     1
100
AcDbLine
 10
35.4172
 20
53.75569999999999
 30
0.0
 11
35.4172
 21
54.0162
 31
0.0
  0
ARC
  5
2BD
330
1E
100
AcDbEntity
  8
0
  6
CONTINUOUS
 62
     1
100
AcDbCircle
 10
36.9172
 20
53.75569999999999
 30
0.0
 40
1.5
100
AcDbArc
 50
180.0
 51
270.0
  0
CIRCLE
  5
2BE
330
1E
100
AcDbEntity
  8
0
  6
CONTINUOUS
 62
     7
100
AcDbCircle
 10
179.2499999999999
 20
108.3994499999999
 30
0.0
 40
0.75
  0
LINE
  5
2BF
330
1E
100
AcDbEntity
  8
0
  6
CONTINUOUS
 62
     7
100
AcDbLine
 10
179.2499999999999
 20
106.3994499999999
 30
0.0
 11
179.2499999999999
 21
110.3994499999999
 31
0.0
  0
LINE
  5
2C0
330
1E
100
AcDbEntity
  8
0
  6
CONTINUOUS
 62
     7
100
AcDbLine
 10
177.2499999999999
 20
108.3994499999999
 30
0.0
 11
181.25
 21
108.3994499999999
 31
0.0
  0
LINE
  5
2C1
330
1E
100
AcDbEntity
  8
0
  6
CONTINUOUS
 62
     7
100
AcDbLine
 10
175.0
 20
117.7763
 30
0.0
 11
179.2499999999999
 21
117.7763
 31
0.0
  0
LINE
  5
2C2
330
1E
100
AcDbEntity
  8
0
  6
CONTINUOUS
 62
     7
100
AcDbLine
 10
179.2499999999999
 20
111.1372999999999
 30
0.0
 11
179.2499999999999
 21
118.5763
 31
0.0
  0
LINE
  5
2C3
330
1E
100
AcDbEntity
  8
0
  6
CONTINUOUS
 62
     7
100
AcDbLine
 10
175.0
 20
114.76945
 30
0.0
 11
175.0
 21
118.5763
 31
0.0
  0
LINE
  5
2C4
330
1E
100
AcDbEntity
  8
0
  6
CONTINUOUS
 62
     7
100
AcDbLine
 10
181.6499999999999
 20
117.7763
 30
0.0
 11
179.2499999999999
 21
117.7763
 31
0.0
  0
LINE
  5
2C5
330
1E
100
AcDbEntity
  8
0
  6
CONTINUOUS
 62
     7
100
AcDbLine
 10
180.4499999999999
 20
118.09753
 30
0.0
 11
179.2499999999999
 21
117.7759999999999
 31
0.0
  0
LINE
  5
2C6
330
1E
100
AcDbEntity
  8
0
  6
CONTINUOUS
 62
     7
100
AcDbLine
 10
179.2499999999999
 20
117.7759999999999
 30
0.0
 11
180.4499999999999
 21
117.45446
 31
0.0
  0
LINE
  5
2C7
330
1E
100
AcDbEntity
  8
0
  6
CONTINUOUS
 62
     7
100
AcDbLine
 10
175.0
 20
117.7763
 30
0.0
 11
172.5999999999999
 21
117.7763
 31
0.0
  0
LINE
  5
2C8
330
1E
100
AcDbEntity
  8
0
  6
CONTINUOUS
 62
     7
100
AcDbLine
 10
173.8
 20
117.45446
 30
0.0
 11
175.0
 21
117.7759999999999
 31
0.0
  0
LINE
  5
2C9
330
1E
100
AcDbEntity
  8
0
  6
CONTINUOUS
 62
     7
100
AcDbLine
 10
175.0
 20
117.7759999999999
 30
0.0
 11
173.8
 21
118.09753
 31
0.0
  0
LINE
  5
2CA
330
1E
100
AcDbEntity
  8
0
  6
CONTINUOUS
 62
     7
100
AcDbLine
 10
172.5999999999999
 20
117.7763
 30
0.0
 11
169.02
 21
117.7763
 31
0.0
  0
TEXT
  5
2CB
330
1E
100
AcDbEntity
  8
0
  6
CONTINUOUS
 62
     7
100
AcDbText
 10
169.02
 20
118.1762999999999
 30
0.0
 40
3.2
  1
85
 41
0.8125
  7
BIGFONT
100
AcDbText
  0
TEXT
  5
2CC
330
1E
100
AcDbEntity
  8
0
  6
CONTINUOUS
 62
     7
100
AcDbText
 10
47.71455
 20
86.59914999999998
 30
0.0
 40
3.2
  1
１
  7
BIGFONT
100
AcDbText
  0
LINE
  5
2CD
330
1E
100
AcDbEntity
  8
0
  6
CONTINUOUS
 62
     7
100
AcDbLine
 10
-78.46195
 20
134.87645
 30
0.0
 11
-78.46195
 21
122.3818999999999
 31
0.0
  0
LINE
  5
2CE
330
1E
100
AcDbEntity
  8
0
  6
CONTINUOUS
 62
     7
100
AcDbLine
 10
-78.78253
 20
123.581
 30
0.0
 11
-78.46099999999998
 21
122.381
 31
0.0
  0
LINE
  5
2CF
330
1E
100
AcDbEntity
  8
0
  6
CONTINUOUS
 62
     7
100
AcDbLine
 10
-78.46099999999998
 20
122.381
 30
0.0
 11
-78.13946
 21
123.581
 31
0.0
  0
LINE
  5
2D0
330
1E
100
AcDbEntity
  8
0
  6
CONTINUOUS
 62
     7
100
AcDbLine
 10
-208.89855
 20
69.15945
 30
0.0
 11
-208.89855
 21
54.1319
 31
0.0
  0
LINE
  5
2D1
330
1E
100
AcDbEntity
  8
0
  6
CONTINUOUS
 62
     7
100
AcDbLine
 10
-209.2195299999999
 20
55.33100000000001
 30
0.0
 11
-208.8979999999998
 21
54.131
 31
0.0
  0
LINE
  5
2D2
330
1E
100
AcDbEntity
  8
0
  6
CONTINUOUS
 62
     7
100
AcDbLine
 10
-208.8979999999998
 20
54.131
 30
0.0
 11
-208.57646
 21
55.33100000000001
 31
0.0
  0
CIRCLE
  5
2D3
330
1E
100
AcDbEntity
  8
0
  6
CONTINUOUS
 62
     7
100
AcDbCircle
 10
202.48025
 20
54.1319
 30
0.0
 40
0.75
  0
LINE
  5
2D4
330
1E
100
AcDbEntity
  8
0
  6
CONTINUOUS
 62
     7
100
AcDbLine
 10
202.48025
 20
52.1319
 30
0.0
 11
202.48025
 21
56.1319
 31
0.0
  0
LINE
  5
2D5
330
1E
100
AcDbEntity
  8
0
  6
CONTINUOUS
 62
     7
100
AcDbLine
 10
200.48025
 20
54.1319
 30
0.0
 11
204.48025
 21
54.1319
 31
0.0
  0
LINE
  5
2D6
330
1E
100
AcDbEntity
  8
0
  6
CONTINUOUS
 62
     7
100
AcDbLine
 10
215.5311499999999
 20
49.8819
 30
0.0
 11
215.5311499999999
 21
54.1319
 31
0.0
  0
LINE
  5
2D7
330
1E
100
AcDbEntity
  8
0
  6
CONTINUOUS
 62
     7
100
AcDbLine
 10
205.2115
 20
54.1319
 30
0.0
 11
216.33115
 21
54.1319
 31
0.0
  0
LINE
  5
2D8
330
1E
100
AcDbEntity
  8
0
  6
CONTINUOUS
 62
     7
100
AcDbLine
 10
214.2624
 20
49.8819
 30
0.0
 11
216.33115
 21
49.8819
 31
0.0
  0
LINE
  5
2D9
330
1E
100
AcDbEntity
  8
0
  6
CONTINUOUS
 62
     7
100
AcDbLine
 10
215.5311499999999
 20
56.5319
 30
0.0
 11
215.5311499999999
 21
54.1319
 31
0.0
  0
LINE
  5
2DA
330
1E
100
AcDbEntity
  8
0
  6
CONTINUOUS
 62
     7
100
AcDbLine
 10
215.20946
 20
55.33100000000001
 30
0.0
 11
215.5309999999999
 21
54.131
 31
0.0
  0
LINE
  5
2DB
330
1E
100
AcDbEntity
  8
0
  6
CONTINUOUS
 62
     7
100
AcDbLine
 10
215.5309999999999
 20
54.131
 30
0.0
 11
215.8525299999999
 21
55.33100000000001
 31
0.0
  0
LINE
  5
2DC
330
1E
100
AcDbEntity
  8
0
  6
CONTINUOUS
 62
     7
100
AcDbLine
 10
215.5311499999999
 20
49.8819
 30
0.0
 11
215.5311499999999
 21
47.4819
 31
0.0
  0
LINE
  5
2DD
330
1E
100
AcDbEntity
  8
0
  6
CONTINUOUS
 62
     7
100
AcDbLine
 10
215.8525299999999
 20
48.681
 30
0.0
 11
215.5309999999999
 21
49.881
 31
0.0
  0
LINE
  5
2DE
330
1E
100
AcDbEntity
  8
0
  6
CONTINUOUS
 62
     7
100
AcDbLine
 10
215.5309999999999
 20
49.881
 30
0.0
 11
215.20946
 21
48.681
 31
0.0
  0
LINE
  5
2DF
330
1E
100
AcDbEntity
  8
0
  6
CONTINUOUS
 62
     7
100
AcDbLine
 10
215.5311499999999
 20
56.5319
 30
0.0
 11
215.5311499999999
 21
62.9719
 31
0.0
  0
TEXT
  5
2E0
330
1E
100
AcDbEntity
  8
0
  6
CONTINUOUS
 62
     7
100
AcDbText
 10
215.1311499999999
 20
57.7719
 30
0.0
 40
3.2
  1
85
 50
90.0
 41
0.8125
  7
BIGFONT
100
AcDbText
  0
LINE
  5
2E1
330
1E
100
AcDbEntity
  8
0
  6
CONTINUOUS
 62
     7
100
AcDbLine
 10
-225.0837
 20
-67.76234999999998
 30
0.0
 11
-225.0837
 21
-57.73344999999999
 31
0.0
  0
LINE
  5
2E2
330
1E
100
AcDbEntity
  8
0
  6
CONTINUOUS
 62
     7
100
AcDbLine
 10
-224.7614599999999
 20
-58.93299999999999
 30
0.0
 11
-225.083
 21
-57.73299999999998
 31
0.0
  0
LINE
  5
2E3
330
1E
100
AcDbEntity
  8
0
  6
CONTINUOUS
 62
     7
100
AcDbLine
 10
-225.083
 20
-57.73299999999998
 30
0.0
 11
-225.40453
 21
-58.93299999999999
 31
0.0
  0
LINE
  5
2E4
330
1E
100
AcDbEntity
  8
0
  6
CONTINUOUS
 62
     7
100
AcDbLine
 10
-223.9627
 20
60.28439999999999
 30
0.0
 11
-233.9627
 21
60.28439999999999
 31
0.0
  0
LINE
  5
2E5
330
1E
100
AcDbEntity
  8
0
  6
CONTINUOUS
 62
     7
100
AcDbLine
 10
-232.762
 20
60.60553
 30
0.0
 11
-233.962
 21
60.284
 31
0.0
  0
LINE
  5
2E6
330
1E
100
AcDbEntity
  8
0
  6
CONTINUOUS
 62
     7
100
AcDbLine
 10
-233.962
 20
60.284
 30
0.0
 11
-232.762
 21
59.96246
 31
0.0
  0
LINE
  5
2E7
330
1E
100
AcDbEntity
  8
0
  6
CONTINUOUS
 62
     7
100
AcDbLine
 10
-213.9627
 20
60.28439999999999
 30
0.0
 11
-223.9627
 21
60.28439999999999
 31
0.0
  0
LINE
  5
2E8
330
1E
100
AcDbEntity
  8
0
  6
CONTINUOUS
 62
     7
100
AcDbLine
 10
-222.7619999999999
 20
60.60553
 30
0.0
 11
-223.9619999999999
 21
60.284
 31
0.0
  0
LINE
  5
2E9
330
1E
100
AcDbEntity
  8
0
  6
CONTINUOUS
 62
     7
100
AcDbLine
 10
-223.9619999999999
 20
60.284
 30
0.0
 11
-222.7619999999999
 21
59.96246
 31
0.0
  0
LINE
  5
2EA
330
1E
100
AcDbEntity
  8
0
  6
CONTINUOUS
 62
     7
100
AcDbLine
 10
-203.9627
 20
60.28439999999999
 30
0.0
 11
-213.9627
 21
60.28439999999999
 31
0.0
  0
LINE
  5
2EB
330
1E
100
AcDbEntity
  8
0
  6
CONTINUOUS
 62
     7
100
AcDbLine
 10
-212.7619999999999
 20
60.60553
 30
0.0
 11
-213.9619999999999
 21
60.284
 31
0.0
  0
LINE
  5
2EC
330
1E
100
AcDbEntity
  8
0
  6
CONTINUOUS
 62
     7
100
AcDbLine
 10
-213.9619999999999
 20
60.284
 30
0.0
 11
-212.7619999999999
 21
59.96246
 31
0.0
  0
LINE
  5
2ED
330
1E
100
AcDbEntity
  8
0
  6
CONTINUOUS
 62
     7
100
AcDbLine
 10
-193.9627
 20
60.28439999999999
 30
0.0
 11
-203.9627
 21
60.28439999999999
 31
0.0
  0
LINE
  5
2EE
330
1E
100
AcDbEntity
  8
0
  6
CONTINUOUS
 62
     7
100
AcDbLine
 10
-202.762
 20
60.60553
 30
0.0
 11
-203.9619999999999
 21
60.284
 31
0.0
  0
LINE
  5
2EF
330
1E
100
AcDbEntity
  8
0
  6
CONTINUOUS
 62
     7
100
AcDbLine
 10
-203.9619999999999
 20
60.284
 30
0.0
 11
-202.762
 21
59.96246
 31
0.0
  0
LINE
  5
2F0
330
1E
100
AcDbEntity
  8
0
  6
CONTINUOUS
 62
     7
100
AcDbLine
 10
227.5389
 20
112.1496999999999
 30
0.0
 11
190.1761999999999
 21
112.1975
 31
0.0
  0
LINE
  5
2F1
330
1E
100
AcDbEntity
  8
0
  6
CONTINUOUS
 62
     7
100
AcDbLine
 10
190.1761999999999
 20
112.1975
 30
0.0
 11
179.8473999999999
 21
108.8529
 31
0.0
  0
LINE
  5
2F2
330
1E
100
AcDbEntity
  8
0
  6
CONTINUOUS
 62
     7
100
AcDbLine
 10
180.8895799999999
 20
109.5275699999999
 30
0.0
 11
179.847
 21
108.852
 31
0.0
  0
LINE
  5
2F3
330
1E
100
AcDbEntity
  8
0
  6
CONTINUOUS
 62
     7
100
AcDbLine
 10
179.847
 20
108.852
 30
0.0
 11
181.0876899999999
 21
108.9157699999999
 31
0.0
  0
TEXT
  5
2F4
330
1E
100
AcDbEntity
  8
0
  6
CONTINUOUS
 62
     7
100
AcDbText
 10
191.3596
 20
112.6500999999999
 30
0.0
 40
3.2
  1
4-埋め込みインサート
  7
BIGFONT
100
AcDbText
  0
TEXT
  5
2F5
330
1E
100
AcDbEntity
  8
0
  6
CONTINUOUS
 62
     7
100
AcDbText
 10
191.70445
 20
108.3264999999999
 30
0.0
 40
3.2
  1
W1/2
  7
BIGFONT
100
AcDbText
  0
CIRCLE
  5
2F6
330
1E
100
AcDbEntity
  8
0
  6
CONTINUOUS
 62
     7
100
AcDbCircle
 10
49.64005
 20
112.5047
 30
0.0
 40
2.5
  0
TEXT
  5
2F7
330
1E
100
AcDbEntity
  8
0
  6
CONTINUOUS
 62
     7
100
AcDbText
 10
48.15165
 20
110.7722499999999
 30
0.0
 40
3.2
  1
５
  7
BIGFONT
100
AcDbText
  0
TEXT
  5
2F8
330
1E
100
AcDbEntity
  8
0
  6
CONTINUOUS
 62
     7
100
AcDbText
 10
54.50610000000001
 20
72.15094999999998
 30
0.0
 40
3.2
  1
D10
  7
BIGFONT
100
AcDbText
  0
LINE
  5
2F9
330
1E
100
AcDbEntity
  8
0
  6
CONTINUOUS
 62
     7
100
AcDbLine
 10
48.21159999999999
 20
71.35875
 30
0.0
 11
63.21159999999999
 21
71.35875
 31
0.0
  0
CIRCLE
  5
2FA
330
1E
100
AcDbEntity
  8
0
  6
CONTINUOUS
 62
     7
100
AcDbCircle
 10
-205.55025
 20
104.57715
 30
0.0
 40
2.5
  0
TEXT
  5
2FB
330
1E
100
AcDbEntity
  8
0
  6
CONTINUOUS
 62
     7
100
AcDbText
 10
-207.0666999999999
 20
102.84165
 30
0.0
 40
3.2
  1
６
  7
BIGFONT
100
AcDbText
  0
TEXT
  5
2FC
330
1E
100
AcDbEntity
  8
0
  6
CONTINUOUS
 62
     7
100
AcDbText
 10
-202.3475499999999
 20
102.9522
 30
0.0
 40
3.2
  1
D10
  7
BIGFONT
100
AcDbText
  0
LINE
  5
2FD
330
1E
100
AcDbEntity
  8
0
  6
CONTINUOUS
 62
     7
100
AcDbLine
 10
-208.89855
 20
102.08055
 30
0.0
 11
-193.89855
 21
102.08055
 31
0.0
  0
CIRCLE
  5
2FE
330
1E
100
AcDbEntity
  8
0
  6
CONTINUOUS
 62
     7
100
AcDbCircle
 10
-161.6692999999999
 20
63.8233
 30
0.0
 40
2.5
  0
TEXT
  5
2FF
330
1E
100
AcDbEntity
  8
0
  6
CONTINUOUS
 62
     7
100
AcDbText
 10
-160.0591999999998
 20
62.17484999999999
 30
0.0
 40
3.2
  1
４
 50
90.0
  7
BIGFONT
100
AcDbText
  0
TEXT
  5
300
330
1E
100
AcDbEntity
  8
0
  6
CONTINUOUS
 62
     7
100
AcDbText
 10
-160.0746
 20
67.0354
 30
0.0
 40
3.2
  1
D10
 50
90.0
  7
BIGFONT
100
AcDbText
  0
LINE
  5
301
330
1E
100
AcDbEntity
  8
0
  6
CONTINUOUS
 62
     7
100
AcDbLine
 10
-159.1279499999999
 20
60.28439999999999
 30
0.0
 11
-159.1279499999999
 21
75.2844
 31
0.0
  0
CIRCLE
  5
302
330
1E
100
AcDbEntity
  8
0
  6
CONTINUOUS
 62
     7
100
AcDbCircle
 10
21.13625
 20
92.13545000000001
 30
0.0
 40
2.5
  0
TEXT
  5
303
330
1E
100
AcDbEntity
  8
0
  6
CONTINUOUS
 62
     7
100
AcDbText
 10
22.87174999999999
 20
90.61899999999999
 30
0.0
 40
3.2
  1
６
 50
90.0
  7
BIGFONT
100
AcDbText
  0
TEXT
  5
304
330
1E
100
AcDbEntity
  8
0
  6
CONTINUOUS
 62
     7
100
AcDbText
 10
22.7612
 20
95.33815
 30
0.0
 40
3.2
  1
D10
 50
90.0
  7
BIGFONT
100
AcDbText
  0
LINE
  5
305
330
1E
100
AcDbEntity
  8
0
  6
CONTINUOUS
 62
     7
100
AcDbLine
 10
23.63285
 20
88.93715
 30
0.0
 11
23.63285
 21
103.93715
 31
0.0
  0
CIRCLE
  5
306
330
1E
100
AcDbEntity
  8
0
  6
CONTINUOUS
 62
     7
100
AcDbCircle
 10
-161.5559
 20
-41.64755
 30
0.0
 40
2.5
  0
TEXT
  5
307
330
1E
100
AcDbEntity
  8
0
  6
CONTINUOUS
 62
     7
100
AcDbText
 10
-159.8958
 20
-43.29600000000001
 30
0.0
 40
3.2
  1
４
 50
90.0
  7
BIGFONT
100
AcDbText
  0
TEXT
  5
308
330
1E
100
AcDbEntity
  8
0
  6
CONTINUOUS
 62
     7
100
AcDbText
 10
-159.9612
 20
-38.43545
 30
0.0
 40
3.2
  1
D10
 50
90.0
  7
BIGFONT
100
AcDbText
  0
LINE
  5
309
330
1E
100
AcDbEntity
  8
0
  6
CONTINUOUS
 62
     7
100
AcDbLine
 10
-159.08955
 20
-45.13645
 30
0.0
 11
-159.08955
 21
-30.13645
 31
0.0
  0
CIRCLE
  5
30A
330
1E
100
AcDbEntity
  8
0
  6
CONTINUOUS
 62
     7
100
AcDbCircle
 10
-237.6948
 20
-108.2670999999999
 30
0.0
 40
2.5
  0
TEXT
  5
30B
330
1E
100
AcDbEntity
  8
0
  6
CONTINUOUS
 62
     7
100
AcDbText
 10
-239.34325
 20
-109.9771999999999
 30
0.0
 40
3.2
  1
４
  7
BIGFONT
100
AcDbText
  0
TEXT
  5
30C
330
1E
100
AcDbEntity
  8
0
  6
CONTINUOUS
 62
     7
100
AcDbText
 10
-234.4826999999999
 20
-109.8618
 30
0.0
 40
3.2
  1
D10
  7
BIGFONT
100
AcDbText
  0
LINE
  5
30D
330
1E
100
AcDbEntity
  8
0
  6
CONTINUOUS
 62
     7
100
AcDbLine
 10
-240.0837
 20
-110.73345
 30
0.0
 11
-225.0837
 21
-110.73345
 31
0.0
  0
POINT
  5
30E
330
1E
100
AcDbEntity
  8
0
  6
CONTINUOUS
 62
     1
100
AcDbPoint
 10
47.0633
 20
52.5476
 30
0.0
  0
LINE
  5
30F
330
1E
100
AcDbEntity
  8
0
  6
CONTINUOUS
 62
     7
100
AcDbLine
 10
-90.95919999999999
 20
-110.73345
 30
0.0
 11
-75.95919999999998
 21
-110.73345
 31
0.0
  0
TEXT
  5
310
330
1E
100
AcDbEntity
  8
0
  6
CONTINUOUS
 62
     7
100
AcDbText
 10
-85.27224999999999
 20
-109.8789
 30
0.0
 40
3.2
  1
D13
  7
BIGFONT
100
AcDbText
  0
CIRCLE
  5
311
330
1E
100
AcDbEntity
  8
0
  6
CONTINUOUS
 62
     7
100
AcDbCircle
 10
-88.45874999999997
 20
-108.2038999999999
 30
0.0
 40
2.5
  0
TEXT
  5
312
330
1E
100
AcDbEntity
  8
0
  6
CONTINUOUS
 62
     7
100
AcDbText
 10
-90.0167
 20
-109.7977999999999
 30
0.0
 40
3.2
  1
２
  7
BIGFONT
100
AcDbText
  0
LINE
  5
313
330
1E
100
AcDbEntity
  8
0
  6
CONTINUOUS
 62
     7
100
AcDbLine
 10
-28.45919999999999
 20
-63.31459999999999
 30
0.0
 11
-28.45919999999999
 21
-48.31459999999999
 31
0.0
  0
TEXT
  5
314
330
1E
100
AcDbEntity
  8
0
  6
CONTINUOUS
 62
     7
100
AcDbText
 10
-29.31375
 20
-56.67765
 30
0.0
 40
3.2
  1
D13
 50
90.0
  7
BIGFONT
100
AcDbText
  0
CIRCLE
  5
315
330
1E
100
AcDbEntity
  8
0
  6
CONTINUOUS
 62
     7
100
AcDbCircle
 10
-30.98875
 20
-59.86415
 30
0.0
 40
2.5
  0
TEXT
  5
316
330
1E
100
AcDbEntity
  8
0
  6
CONTINUOUS
 62
     7
100
AcDbText
 10
-29.39485
 20
-61.4221
 30
0.0
 40
3.2
  1
２
 50
90.0
  7
BIGFONT
100
AcDbText
  0
LINE
  5
317
330
1E
100
AcDbEntity
  8
0
  6
CONTINUOUS
 62
     7
100
AcDbLine
 10
46.46419999999999
 20
110.0049
 30
0.0
 11
61.46419999999999
 21
110.0049
 31
0.0
  0
TEXT
  5
318
330
1E
100
AcDbEntity
  8
0
  6
CONTINUOUS
 62
     7
100
AcDbText
 10
52.9563
 20
110.8656
 30
0.0
 40
3.2
  1
D13
  7
BIGFONT
100
AcDbText
  0
TEXT
  5
319
330
1E
100
AcDbEntity
  8
3
  6
CONTINUOUS
 62
     7
100
AcDbText
 10
244.015
 20
-156.4
 30
0.0
 40
3.799999999999998
  1
ＫＬ－３１０４
 41
0.7
  7
BIGFONT
100
AcDbText
  0
TEXT
  5
31A
330
1E
100
AcDbEntity
  8
1
  6
CONTINUOUS
 62
     7
100
AcDbText
 10
-101.1577399999999
 20
-177.8843399999999
 30
0.0
 40
3.2
  1
Ｌ
  7
BIGFONT
100
AcDbText
  0
TEXT
  5
31B
330
1E
100
AcDbEntity
  8
1
  6
CONTINUOUS
 62
     7
100
AcDbText
 10
-98.14798000000001
 20
-177.7082599999999
 30
0.0
 40
2.2
  1
１
 41
1.1363636
  7
BIGFONT
100
AcDbText
  0
LINE
  5
31C
330
1E
100
AcDbEntity
  8
1
  6
CONTINUOUS
 62
     1
100
AcDbLine
 10
-107.03224
 20
-170.50148
 30
0.0
 11
-90.43224
 21
-170.50148
 31
0.0
  0
LINE
  5
31D
330
1E
100
AcDbEntity
  8
1
  6
CONTINUOUS
 62
     7
100
AcDbLine
 10
-107.03224
 20
-178.50118
 30
0.0
 11
-90.43224
 21
-178.50118
 31
0.0
  0
LINE
  5
31E
330
1E
100
AcDbEntity
  8
1
  6
CONTINUOUS
 62
     7
100
AcDbLine
 10
-90.43224
 20
-171.50148
 30
0.0
 11
-90.43224
 21
-179.30118
 31
0.0
  0
LINE
  5
31F
330
1E
100
AcDbEntity
  8
1
  6
CONTINUOUS
 62
     7
100
AcDbLine
 10
-107.03224
 20
-171.50148
 30
0.0
 11
-107.03224
 21
-179.30118
 31
0.0
  0
LINE
  5
320
330
1E
100
AcDbEntity
  8
1
  6
CONTINUOUS
 62
     7
100
AcDbLine
 10
-91.63200000000001
 20
-178.82253
 30
0.0
 11
-90.432
 21
-178.5009999999999
 31
0.0
  0
LINE
  5
321
330
1E
100
AcDbEntity
  8
1
  6
CONTINUOUS
 62
     7
100
AcDbLine
 10
-90.432
 20
-178.5009999999999
 30
0.0
 11
-91.63200000000001
 21
-178.17946
 31
0.0
  0
LINE
  5
322
330
1E
100
AcDbEntity
  8
1
  6
CONTINUOUS
 62
     7
100
AcDbLine
 10
-105.8319999999999
 20
-178.17946
 30
0.0
 11
-107.0319999999999
 21
-178.5009999999999
 31
0.0
  0
LINE
  5
323
330
1E
100
AcDbEntity
  8
1
  6
CONTINUOUS
 62
     7
100
AcDbLine
 10
-107.0319999999999
 20
-178.5009999999999
 30
0.0
 11
-105.8319999999999
 21
-178.82253
 31
0.0
  0
CIRCLE
  5
324
330
1E
100
AcDbEntity
  8
1
  6
CONTINUOUS
 62
     7
100
AcDbCircle
 10
-98.61020000000001
 20
-161.8589199999999
 30
0.0
 40
2.497799999999998
  0
TEXT
  5
325
330
1E
100
AcDbEntity
  8
1
  6
CONTINUOUS
 62
     7
100
AcDbText
 10
-100.31324
 20
-163.7043
 30
0.0
 40
3.2
  1
７
  7
BIGFONT
100
AcDbText
  0
LINE
  5
326
330
1E
100
AcDbEntity
  8
1
  6
CONTINUOUS
 62
     7
100
AcDbLine
 10
-103.8076999999999
 20
-164.32648
 30
0.0
 11
-93.28388000000002
 21
-164.32648
 31
0.0
  0
TEXT
  5
327
330
1E
100
AcDbEntity
  8
1
  6
CONTINUOUS
 62
     7
100
AcDbText
 10
-202.0073
 20
-136.1969399999999
 30
0.0
 40
4.5
  1
鉄筋加工図
  7
BIGFONT
100
AcDbText
  0
LINE
  5
328
330
1E
100
AcDbEntity
  8
1
  6
CONTINUOUS
 62
     7
100
AcDbLine
 10
-203.32546
 20
-137.00404
 30
0.0
 11
-167.04164
 21
-137.00404
 31
0.0
  0
LINE
  5
329
330
1E
100
AcDbEntity
  8
1
  6
CONTINUOUS
 62
     7
100
AcDbLine
 10
-175.0416399999999
 20
-137.00404
 30
0.0
 11
-174.3330399999999
 21
-137.00404
 31
0.0
  0
LINE
  5
32A
330
1E
100
AcDbEntity
  8
1
  6
CONTINUOUS
 62
     1
100
AcDbLine
 10
-236.1364
 20
-170.50148
 30
0.0
 11
-226.81238
 21
-170.50148
 31
0.0
  0
LINE
  5
32B
330
1E
100
AcDbEntity
  8
1
  6
CONTINUOUS
 62
     7
100
AcDbLine
 10
-236.1364
 20
-178.46884
 30
0.0
 11
-226.81238
 21
-178.46884
 31
0.0
  0
LINE
  5
32C
330
1E
100
AcDbEntity
  8
1
  6
CONTINUOUS
 62
     7
100
AcDbLine
 10
-226.81238
 20
-171.50148
 30
0.0
 11
-226.81238
 21
-179.2688399999999
 31
0.0
  0
LINE
  5
32D
330
1E
100
AcDbEntity
  8
1
  6
CONTINUOUS
 62
     7
100
AcDbLine
 10
-236.1364
 20
-170.8258999999999
 30
0.0
 11
-236.1364
 21
-179.2688399999999
 31
0.0
  0
LINE
  5
32E
330
1E
100
AcDbEntity
  8
1
  6
CONTINUOUS
 62
     7
100
AcDbLine
 10
-228.012
 20
-178.78953
 30
0.0
 11
-226.812
 21
-178.4679999999999
 31
0.0
  0
LINE
  5
32F
330
1E
100
AcDbEntity
  8
1
  6
CONTINUOUS
 62
     7
100
AcDbLine
 10
-226.812
 20
-178.4679999999999
 30
0.0
 11
-228.012
 21
-178.14646
 31
0.0
  0
LINE
  5
330
330
1E
100
AcDbEntity
  8
1
  6
CONTINUOUS
 62
     7
100
AcDbLine
 10
-234.9359999999999
 20
-178.14646
 30
0.0
 11
-236.1359999999999
 21
-178.4679999999999
 31
0.0
  0
LINE
  5
331
330
1E
100
AcDbEntity
  8
1
  6
CONTINUOUS
 62
     7
100
AcDbLine
 10
-236.1359999999999
 20
-178.4679999999999
 30
0.0
 11
-234.9359999999999
 21
-178.78953
 31
0.0
  0
LINE
  5
332
330
1E
100
AcDbEntity
  8
1
  6
CONTINUOUS
 62
     1
100
AcDbLine
 10
-205.6364
 20
-170.50148
 30
0.0
 11
-171.6364
 21
-170.50148
 31
0.0
  0
LINE
  5
333
330
1E
100
AcDbEntity
  8
1
  6
CONTINUOUS
 62
     7
100
AcDbLine
 10
-205.6364
 20
-178.47106
 30
0.0
 11
-171.6364
 21
-178.47106
 31
0.0
  0
LINE
  5
334
330
1E
100
AcDbEntity
  8
1
  6
CONTINUOUS
 62
     7
100
AcDbLine
 10
-171.6364
 20
-171.50148
 30
0.0
 11
-171.6364
 21
-179.27106
 31
0.0
  0
LINE
  5
335
330
1E
100
AcDbEntity
  8
1
  6
CONTINUOUS
 62
     7
100
AcDbLine
 10
-205.6364
 20
-170.8258999999999
 30
0.0
 11
-205.6364
 21
-179.27106
 31
0.0
  0
LINE
  5
336
330
1E
100
AcDbEntity
  8
1
  6
CONTINUOUS
 62
     7
100
AcDbLine
 10
-172.8359999999999
 20
-178.7925299999999
 30
0.0
 11
-171.6359999999999
 21
-178.4709999999999
 31
0.0
  0
LINE
  5
337
330
1E
100
AcDbEntity
  8
1
  6
CONTINUOUS
 62
     7
100
AcDbLine
 10
-171.6359999999999
 20
-178.4709999999999
 30
0.0
 11
-172.8359999999999
 21
-178.14946
 31
0.0
  0
LINE
  5
338
330
1E
100
AcDbEntity
  8
1
  6
CONTINUOUS
 62
     7
100
AcDbLine
 10
-204.4359999999999
 20
-178.14946
 30
0.0
 11
-205.636
 21
-178.4709999999999
 31
0.0
  0
LINE
  5
339
330
1E
100
AcDbEntity
  8
1
  6
CONTINUOUS
 62
     7
100
AcDbLine
 10
-205.636
 20
-178.4709999999999
 30
0.0
 11
-204.4359999999999
 21
-178.7925299999999
 31
0.0
  0
LINE
  5
33A
330
1E
100
AcDbEntity
  8
1
  6
CONTINUOUS
 62
     1
100
AcDbLine
 10
-150.53136
 20
-170.50148
 30
0.0
 11
-123.13136
 21
-170.50148
 31
0.0
  0
LINE
  5
33B
330
1E
100
AcDbEntity
  8
1
  6
CONTINUOUS
 62
     1
100
AcDbLine
 10
-151.13136
 20
-169.90148
 30
0.0
 11
-151.13136
 21
-145.50148
 31
0.0
  0
ARC
  5
33C
330
1E
100
AcDbEntity
  8
1
  6
CONTINUOUS
 62
     1
100
AcDbCircle
 10
-150.53136
 20
-169.90148
 30
0.0
 40
0.6
100
AcDbArc
 50
180.0
 51
270.0
  0
LINE
  5
33D
330
1E
100
AcDbEntity
  8
1
  6
CONTINUOUS
 62
     7
100
AcDbLine
 10
-150.6330199999998
 20
-178.47106
 30
0.0
 11
-123.13136
 21
-178.47106
 31
0.0
  0
LINE
  5
33E
330
1E
100
AcDbEntity
  8
1
  6
CONTINUOUS
 62
     7
100
AcDbLine
 10
-123.13136
 20
-171.50148
 30
0.0
 11
-123.13136
 21
-179.27106
 31
0.0
  0
LINE
  5
33F
330
1E
100
AcDbEntity
  8
1
  6
CONTINUOUS
 62
     7
100
AcDbLine
 10
-150.6330199999998
 20
-170.8837799999999
 30
0.0
 11
-150.6330199999998
 21
-179.27106
 31
0.0
  0
LINE
  5
340
330
1E
100
AcDbEntity
  8
1
  6
CONTINUOUS
 62
     7
100
AcDbLine
 10
-124.331
 20
-178.7925299999999
 30
0.0
 11
-123.131
 21
-178.4709999999999
 31
0.0
  0
LINE
  5
341
330
1E
100
AcDbEntity
  8
1
  6
CONTINUOUS
 62
     7
100
AcDbLine
 10
-123.131
 20
-178.4709999999999
 30
0.0
 11
-124.331
 21
-178.14946
 31
0.0
  0
LINE
  5
342
330
1E
100
AcDbEntity
  8
1
  6
CONTINUOUS
 62
     7
100
AcDbLine
 10
-149.4329999999999
 20
-178.14946
 30
0.0
 11
-150.6329999999999
 21
-178.4709999999999
 31
0.0
  0
LINE
  5
343
330
1E
100
AcDbEntity
  8
1
  6
CONTINUOUS
 62
     7
100
AcDbLine
 10
-150.6329999999999
 20
-178.4709999999999
 30
0.0
 11
-149.4329999999999
 21
-178.7925299999999
 31
0.0
  0
LINE
  5
344
330
1E
100
AcDbEntity
  8
1
  6
CONTINUOUS
 62
     7
100
AcDbLine
 10
-159.20828
 20
-169.90148
 30
0.0
 11
-159.20828
 21
-145.50148
 31
0.0
  0
LINE
  5
345
330
1E
100
AcDbEntity
  8
1
  6
CONTINUOUS
 62
     7
100
AcDbLine
 10
-152.2082799999999
 20
-145.50148
 30
0.0
 11
-160.00828
 21
-145.50148
 31
0.0
  0
LINE
  5
346
330
1E
100
AcDbEntity
  8
1
  6
CONTINUOUS
 62
     7
100
AcDbLine
 10
-152.2082799999999
 20
-169.90148
 30
0.0
 11
-160.00828
 21
-169.90148
 31
0.0
  0
LINE
  5
347
330
1E
100
AcDbEntity
  8
1
  6
CONTINUOUS
 62
     7
100
AcDbLine
 10
-158.8864599999999
 20
-146.7009999999999
 30
0.0
 11
-159.2079999999999
 21
-145.501
 31
0.0
  0
LINE
  5
348
330
1E
100
AcDbEntity
  8
1
  6
CONTINUOUS
 62
     7
100
AcDbLine
 10
-159.2079999999999
 20
-145.501
 30
0.0
 11
-159.52953
 21
-146.7009999999999
 31
0.0
  0
LINE
  5
349
330
1E
100
AcDbEntity
  8
1
  6
CONTINUOUS
 62
     7
100
AcDbLine
 10
-159.52953
 20
-168.7009999999999
 30
0.0
 11
-159.2079999999999
 21
-169.9009999999999
 31
0.0
  0
LINE
  5
34A
330
1E
100
AcDbEntity
  8
1
  6
CONTINUOUS
 62
     7
100
AcDbLine
 10
-159.2079999999999
 20
-169.9009999999999
 30
0.0
 11
-158.8864599999999
 21
-168.7009999999999
 31
0.0
  0
ARC
  5
34B
330
1E
100
AcDbEntity
  8
1
  6
CONTINUOUS
 62
     7
100
AcDbCircle
 10
-150.6330199999998
 20
-169.90148
 30
0.0
 40
8.57526
100
AcDbArc
 50
191.5780499999999
 51
238.71324
  0
ARC
  5
34C
330
1E
100
AcDbEntity
  8
1
  6
CONTINUOUS
 62
     7
100
AcDbCircle
 10
-150.6330199999998
 20
-169.90148
 30
0.0
 40
8.57526
100
AcDbArc
 50
238.71324
 51
246.3633899999999
  0
LINE
  5
34D
330
1E
100
AcDbEntity
  8
1
  6
CONTINUOUS
 62
     7
100
AcDbLine
 10
-150.6330199999998
 20
-177.6542
 30
0.0
 11
-150.6330199999998
 21
-175.87098
 31
0.0
  0
ARC
  5
34E
330
1E
100
AcDbEntity
  8
1
  6
CONTINUOUS
 62
     7
100
AcDbCircle
 10
-150.6330199999998
 20
-169.90148
 30
0.0
 40
8.57526
100
AcDbArc
 50
246.3633899999999
 51
247.8281799999999
  0
ARC
  5
34F
330
1E
100
AcDbEntity
  8
1
  6
CONTINUOUS
 62
     7
100
AcDbCircle
 10
-150.6330199999998
 20
-169.90148
 30
0.0
 40
8.57526
100
AcDbArc
 50
247.8281799999999
 51
258.01527
  0
LINE
  5
350
330
1E
100
AcDbEntity
  8
1
  6
CONTINUOUS
 62
     7
100
AcDbLine
 10
-159.0496799999999
 20
-171.54308
 30
0.0
 11
-159.20828
 21
-169.90148
 31
0.0
  0
LINE
  5
351
330
1E
100
AcDbEntity
  8
1
  6
CONTINUOUS
 62
     7
100
AcDbLine
 10
-158.7725499999999
 20
-171.06451
 30
0.0
 11
-159.2079999999999
 21
-169.9009999999999
 31
0.0
  0
LINE
  5
352
330
1E
100
AcDbEntity
  8
1
  6
CONTINUOUS
 62
     7
100
AcDbLine
 10
-159.2079999999999
 20
-169.9009999999999
 30
0.0
 11
-159.41265
 21
-171.12635
 31
0.0
  0
LINE
  5
353
330
1E
100
AcDbEntity
  8
1
  6
CONTINUOUS
 62
     7
100
AcDbLine
 10
-152.3454199999999
 20
-178.30402
 30
0.0
 11
-150.6330199999998
 21
-178.4767399999999
 31
0.0
  0
LINE
  5
354
330
1E
100
AcDbEntity
  8
1
  6
CONTINUOUS
 62
     7
100
AcDbLine
 10
-151.85921
 20
-178.6754799999999
 30
0.0
 11
-150.6329999999999
 21
-178.476
 31
0.0
  0
LINE
  5
355
330
1E
100
AcDbEntity
  8
1
  6
CONTINUOUS
 62
     7
100
AcDbLine
 10
-150.6329999999999
 20
-178.476
 30
0.0
 11
-151.7946699999999
 21
-178.03565
 31
0.0
  0
ARC
  5
356
330
1E
100
AcDbEntity
  8
1
  6
CONTINUOUS
 62
     7
100
AcDbCircle
 10
-150.6330199999998
 20
-169.90148
 30
0.0
 40
8.57526
100
AcDbArc
 50
258.01527
 51
258.41701
  0
LINE
  5
357
330
1E
100
AcDbEntity
  8
1
  6
CONTINUOUS
 62
     7
100
AcDbLine
 10
-150.6330199999998
 20
-178.29928
 30
0.0
 11
-150.6330199999998
 21
-177.6542
 31
0.0
  0
LINE
  5
358
330
1E
100
AcDbEntity
  8
1
  6
CONTINUOUS
 62
     7
100
AcDbLine
 10
-159.20828
 20
-169.90148
 30
0.0
 11
-159.20828
 21
-165.5461199999999
 31
0.0
  0
ARC
  5
359
330
1E
100
AcDbEntity
  8
1
  6
CONTINUOUS
 62
     7
100
AcDbCircle
 10
-150.6330199999998
 20
-169.90148
 30
0.0
 40
8.57526
100
AcDbArc
 50
191.0231699999999
 51
191.5780499999999
  0
LINE
  5
35A
330
1E
100
AcDbEntity
  8
1
  6
CONTINUOUS
 62
     7
100
AcDbLine
 10
-150.6330199999998
 20
-172.2176399999999
 30
0.0
 11
-150.6330199999998
 21
-169.90148
 31
0.0
  0
LINE
  5
35B
330
1E
100
AcDbEntity
  8
1
  6
CONTINUOUS
 62
     7
100
AcDbLine
 10
-153.1906
 20
-169.90148
 30
0.0
 11
-150.6330199999998
 21
-169.90148
 31
0.0
  0
LINE
  5
35C
330
1E
100
AcDbEntity
  8
1
  6
CONTINUOUS
 62
     1
100
AcDbLine
 10
-93.2858
 20
-144.0944199999998
 30
0.0
 11
-90.45738
 21
-141.2659999999999
 31
0.0
  0
LINE
  5
35D
330
1E
100
AcDbEntity
  8
1
  6
CONTINUOUS
 62
     1
100
AcDbLine
 10
-103.2857799999999
 20
-144.0944199999998
 30
0.0
 11
-93.2858
 21
-144.0944199999998
 31
0.0
  0
LINE
  5
35E
330
1E
100
AcDbEntity
  8
1
  6
CONTINUOUS
 62
     1
100
AcDbLine
 10
-106.1142199999999
 20
-141.2659999999999
 30
0.0
 11
-103.2857799999999
 21
-144.0944199999998
 31
0.0
  0
LINE
  5
35F
330
1E
100
AcDbEntity
  8
1
  6
CONTINUOUS
 62
     7
100
AcDbLine
 10
-111.77108
 20
-146.92286
 30
0.0
 11
-108.94265
 21
-149.7512899999998
 31
0.0
  0
LINE
  5
360
330
1E
100
AcDbEntity
  8
1
  6
CONTINUOUS
 62
     7
100
AcDbLine
 10
-103.9928799999999
 20
-144.8015199999999
 30
0.0
 11
-109.5083299999999
 21
-150.3169699999999
 31
0.0
  0
LINE
  5
361
330
1E
100
AcDbEntity
  8
1
  6
CONTINUOUS
 62
     7
100
AcDbLine
 10
-106.8213199999999
 20
-141.9730999999998
 30
0.0
 11
-112.33676
 21
-147.4885399999999
 31
0.0
  0
LINE
  5
362
330
1E
100
AcDbEntity
  8
1
  6
CONTINUOUS
 62
     7
100
AcDbLine
 10
-110.0178899999999
 20
-149.1298299999999
 30
0.0
 11
-108.942
 21
-149.751
 31
0.0
  0
LINE
  5
363
330
1E
100
AcDbEntity
  8
1
  6
CONTINUOUS
 62
     7
100
AcDbLine
 10
-108.942
 20
-149.751
 30
0.0
 11
-109.56316
 21
-148.6750999999999
 31
0.0
  0
LINE
  5
364
330
1E
100
AcDbEntity
  8
1
  6
CONTINUOUS
 62
     7
100
AcDbLine
 10
-110.6951
 20
-147.54316
 30
0.0
 11
-111.7709999999999
 21
-146.9219999999999
 31
0.0
  0
LINE
  5
365
330
1E
100
AcDbEntity
  8
1
  6
CONTINUOUS
 62
     7
100
AcDbLine
 10
-111.7709999999999
 20
-146.9219999999999
 30
0.0
 11
-111.14983
 21
-147.9978899999998
 31
0.0
  0
LINE
  5
366
330
1E
100
AcDbEntity
  8
1
  6
CONTINUOUS
 62
     7
100
AcDbLine
 10
-87.65045999999998
 20
-149.72976
 30
0.0
 11
-84.82204000000001
 21
-146.90134
 31
0.0
  0
LINE
  5
367
330
1E
100
AcDbEntity
  8
1
  6
CONTINUOUS
 62
     7
100
AcDbLine
 10
-89.75027
 20
-141.9730999999998
 30
0.0
 11
-84.25634999999997
 21
-147.46702
 31
0.0
  0
LINE
  5
368
330
1E
100
AcDbEntity
  8
1
  6
CONTINUOUS
 62
     7
100
AcDbLine
 10
-92.57868999999999
 20
-144.8015199999999
 30
0.0
 11
-87.08477
 21
-150.2954399999999
 31
0.0
  0
LINE
  5
369
330
1E
100
AcDbEntity
  8
1
  6
CONTINUOUS
 62
     7
100
AcDbLine
 10
-85.44316
 20
-147.97689
 30
0.0
 11
-84.822
 21
-146.901
 31
0.0
  0
LINE
  5
36A
330
1E
100
AcDbEntity
  8
1
  6
CONTINUOUS
 62
     7
100
AcDbLine
 10
-84.822
 20
-146.901
 30
0.0
 11
-85.89789000000001
 21
-147.52216
 31
0.0
  0
LINE
  5
36B
330
1E
100
AcDbEntity
  8
1
  6
CONTINUOUS
 62
     7
100
AcDbLine
 10
-87.02882999999998
 20
-148.6531
 30
0.0
 11
-87.65
 21
-149.7289999999999
 31
0.0
  0
LINE
  5
36C
330
1E
100
AcDbEntity
  8
1
  6
CONTINUOUS
 62
     7
100
AcDbLine
 10
-87.65
 20
-149.7289999999999
 30
0.0
 11
-86.5741
 21
-149.10783
 31
0.0
  0
LINE
  5
36D
330
1E
100
AcDbEntity
  8
1
  6
CONTINUOUS
 62
     7
100
AcDbLine
 10
-103.2857799999999
 20
-152.0944399999999
 30
0.0
 11
-93.2858
 21
-152.0944399999999
 31
0.0
  0
LINE
  5
36E
330
1E
100
AcDbEntity
  8
1
  6
CONTINUOUS
 62
     7
100
AcDbLine
 10
-93.2858
 20
-145.0944199999999
 30
0.0
 11
-93.2858
 21
-152.89444
 31
0.0
  0
LINE
  5
36F
330
1E
100
AcDbEntity
  8
1
  6
CONTINUOUS
 62
     7
100
AcDbLine
 10
-103.2857799999999
 20
-145.0944199999999
 30
0.0
 11
-103.2857799999999
 21
-152.89444
 31
0.0
  0
LINE
  5
370
330
1E
100
AcDbEntity
  8
1
  6
CONTINUOUS
 62
     7
100
AcDbLine
 10
-94.48500000000001
 20
-152.41553
 30
0.0
 11
-93.285
 21
-152.0939999999999
 31
0.0
  0
LINE
  5
371
330
1E
100
AcDbEntity
  8
1
  6
CONTINUOUS
 62
     7
100
AcDbLine
 10
-93.285
 20
-152.0939999999999
 30
0.0
 11
-94.48500000000001
 21
-151.77246
 31
0.0
  0
LINE
  5
372
330
1E
100
AcDbEntity
  8
1
  6
CONTINUOUS
 62
     7
100
AcDbLine
 10
-102.085
 20
-151.77246
 30
0.0
 11
-103.285
 21
-152.0939999999999
 31
0.0
  0
LINE
  5
373
330
1E
100
AcDbEntity
  8
1
  6
CONTINUOUS
 62
     7
100
AcDbLine
 10
-103.285
 20
-152.0939999999999
 30
0.0
 11
-102.085
 21
-152.41553
 31
0.0
  0
TEXT
  5
374
330
1E
100
AcDbEntity
  8
1
  6
CONTINUOUS
 62
     7
100
AcDbText
 10
-235.81094
 20
-170.20404
 30
0.0
 40
3.2
  1
Ｒ
 50
2.0
  7
BIGFONT
100
AcDbText
  0
TEXT
  5
375
330
1E
100
AcDbEntity
  8
1
  6
CONTINUOUS
 62
     7
100
AcDbText
 10
-150.30756
 20
-170.2796199999999
 30
0.0
 40
3.2
  1
Ｒ
 50
2.0
  7
BIGFONT
100
AcDbText
  0
TEXT
  5
376
330
1E
100
AcDbEntity
  8
1
  6
CONTINUOUS
 62
     7
100
AcDbText
 10
-191.11296
 20
-177.83222
 30
0.0
 40
3.2
  1
Ｌ
  7
BIGFONT
100
AcDbText
  0
TEXT
  5
377
330
1E
100
AcDbEntity
  8
1
  6
CONTINUOUS
 62
     7
100
AcDbText
 10
-188.1031999999999
 20
-177.65614
 30
0.0
 40
2.2
  1
１
 41
1.1363636
  7
BIGFONT
100
AcDbText
  0
TEXT
  5
378
330
1E
100
AcDbEntity
  8
1
  6
CONTINUOUS
 62
     7
100
AcDbText
 10
-233.9531399999999
 20
-177.8685
 30
0.0
 40
3.2
  1
Ｌ
  7
BIGFONT
100
AcDbText
  0
TEXT
  5
379
330
1E
100
AcDbEntity
  8
1
  6
CONTINUOUS
 62
     7
100
AcDbText
 10
-231.0223
 20
-177.69978
 30
0.0
 40
2.2
  1
３
 41
1.1363636
  7
BIGFONT
100
AcDbText
  0
TEXT
  5
37A
330
1E
100
AcDbEntity
  8
1
  6
CONTINUOUS
 62
     7
100
AcDbText
 10
-158.1108199999999
 20
-173.50726
 30
0.0
 40
3.2
  1
Ｌ
 50
315.0
  7
BIGFONT
100
AcDbText
  0
TEXT
  5
37B
330
1E
100
AcDbEntity
  8
1
  6
CONTINUOUS
 62
     7
100
AcDbText
 10
-155.9093
 20
-175.4719399999999
 30
0.0
 40
2.2
  1
２
 50
315.0
 41
1.1363636
  7
BIGFONT
100
AcDbText
  0
TEXT
  5
37C
330
1E
100
AcDbEntity
  8
1
  6
CONTINUOUS
 62
     7
100
AcDbText
 10
-139.06942
 20
-177.8542199999999
 30
0.0
 40
3.2
  1
Ｌ
  7
BIGFONT
100
AcDbText
  0
TEXT
  5
37D
330
1E
100
AcDbEntity
  8
1
  6
CONTINUOUS
 62
     7
100
AcDbText
 10
-136.05966
 20
-177.6781399999999
 30
0.0
 40
2.2
  1
１
 41
1.1363636
  7
BIGFONT
100
AcDbText
  0
TEXT
  5
37E
330
1E
100
AcDbEntity
  8
1
  6
CONTINUOUS
 62
     7
100
AcDbText
 10
-159.65466
 20
-160.8041
 30
0.0
 40
3.2
  1
Ｌ
 50
90.0
  7
BIGFONT
100
AcDbText
  0
TEXT
  5
37F
330
1E
100
AcDbEntity
  8
1
  6
CONTINUOUS
 62
     7
100
AcDbText
 10
-159.82338
 20
-157.87326
 30
0.0
 40
2.2
  1
３
 50
90.0
 41
1.1363636
  7
BIGFONT
100
AcDbText
  0
TEXT
  5
380
330
1E
100
AcDbEntity
  8
1
  6
CONTINUOUS
 62
     7
100
AcDbText
 10
-101.19898
 20
-151.63186
 30
0.0
 40
3.2
  1
Ｌ
  7
BIGFONT
100
AcDbText
  0
TEXT
  5
381
330
1E
100
AcDbEntity
  8
1
  6
CONTINUOUS
 62
     7
100
AcDbText
 10
-98.25304
 20
-151.4643799999998
 30
0.0
 40
2.2
  1
２
 41
1.1363636
  7
BIGFONT
100
AcDbText
  0
TEXT
  5
382
330
1E
100
AcDbEntity
  8
1
  6
CONTINUOUS
 62
     7
100
AcDbText
 10
-85.02434
 20
-152.83058
 30
0.0
 40
3.2
  1
Ｌ
 50
45.0
  7
BIGFONT
100
AcDbText
  0
TEXT
  5
383
330
1E
100
AcDbEntity
  8
1
  6
CONTINUOUS
 62
     7
100
AcDbText
 10
-83.02061999999997
 20
-150.57786
 30
0.0
 40
2.2
  1
１
 50
45.0
 41
1.1363636
  7
BIGFONT
100
AcDbText
  0
LINE
  5
384
330
1E
100
AcDbEntity
  8
1
  6
CONTINUOUS
 62
     1
100
AcDbLine
 10
-236.6347399999999
 20
-169.90148
 30
0.0
 11
-236.6347399999999
 21
-136.60148
 31
0.0
  0
ARC
  5
385
330
1E
100
AcDbEntity
  8
1
  6
CONTINUOUS
 62
     1
100
AcDbCircle
 10
-236.03474
 20
-169.90148
 30
0.0
 40
0.6
100
AcDbArc
 50
180.0
 51
270.0
  0
LINE
  5
386
330
1E
100
AcDbEntity
  8
1
  6
CONTINUOUS
 62
     7
100
AcDbLine
 10
-244.71166
 20
-169.90148
 30
0.0
 11
-244.71166
 21
-136.60148
 31
0.0
  0
LINE
  5
387
330
1E
100
AcDbEntity
  8
1
  6
CONTINUOUS
 62
     7
100
AcDbLine
 10
-237.71166
 20
-136.60148
 30
0.0
 11
-245.51166
 21
-136.60148
 31
0.0
  0
LINE
  5
388
330
1E
100
AcDbEntity
  8
1
  6
CONTINUOUS
 62
     7
100
AcDbLine
 10
-237.71166
 20
-169.90148
 30
0.0
 11
-245.51166
 21
-169.90148
 31
0.0
  0
LINE
  5
389
330
1E
100
AcDbEntity
  8
1
  6
CONTINUOUS
 62
     7
100
AcDbLine
 10
-244.38946
 20
-137.8009999999999
 30
0.0
 11
-244.7109999999999
 21
-136.6009999999999
 31
0.0
  0
LINE
  5
38A
330
1E
100
AcDbEntity
  8
1
  6
CONTINUOUS
 62
     7
100
AcDbLine
 10
-244.7109999999999
 20
-136.6009999999999
 30
0.0
 11
-245.0325299999999
 21
-137.8009999999999
 31
0.0
  0
LINE
  5
38B
330
1E
100
AcDbEntity
  8
1
  6
CONTINUOUS
 62
     7
100
AcDbLine
 10
-245.0325299999999
 20
-168.7009999999999
 30
0.0
 11
-244.7109999999999
 21
-169.9009999999999
 31
0.0
  0
LINE
  5
38C
330
1E
100
AcDbEntity
  8
1
  6
CONTINUOUS
 62
     7
100
AcDbLine
 10
-244.7109999999999
 20
-169.9009999999999
 30
0.0
 11
-244.38946
 21
-168.7009999999999
 31
0.0
  0
ARC
  5
38D
330
1E
100
AcDbEntity
  8
1
  6
CONTINUOUS
 62
     7
100
AcDbCircle
 10
-236.1364
 20
-169.90148
 30
0.0
 40
8.57526
100
AcDbArc
 50
191.5780499999999
 51
238.71324
  0
ARC
  5
38E
330
1E
100
AcDbEntity
  8
1
  6
CONTINUOUS
 62
     7
100
AcDbCircle
 10
-236.1364
 20
-169.90148
 30
0.0
 40
8.57526
100
AcDbArc
 50
238.71324
 51
246.3633899999999
  0
ARC
  5
38F
330
1E
100
AcDbEntity
  8
1
  6
CONTINUOUS
 62
     7
100
AcDbCircle
 10
-236.1364
 20
-169.90148
 30
0.0
 40
8.57526
100
AcDbArc
 50
246.3633899999999
 51
247.8281799999999
  0
ARC
  5
390
330
1E
100
AcDbEntity
  8
1
  6
CONTINUOUS
 62
     7
100
AcDbCircle
 10
-236.1364
 20
-169.90148
 30
0.0
 40
8.57526
100
AcDbArc
 50
247.8281799999999
 51
258.01527
  0
LINE
  5
391
330
1E
100
AcDbEntity
  8
1
  6
CONTINUOUS
 62
     7
100
AcDbLine
 10
-244.55306
 20
-171.54308
 30
0.0
 11
-244.71166
 21
-169.90148
 31
0.0
  0
LINE
  5
392
330
1E
100
AcDbEntity
  8
1
  6
CONTINUOUS
 62
     7
100
AcDbLine
 10
-244.27555
 20
-171.06451
 30
0.0
 11
-244.7109999999999
 21
-169.9009999999999
 31
0.0
  0
LINE
  5
393
330
1E
100
AcDbEntity
  8
1
  6
CONTINUOUS
 62
     7
100
AcDbLine
 10
-244.7109999999999
 20
-169.9009999999999
 30
0.0
 11
-244.9156499999999
 21
-171.12635
 31
0.0
  0
LINE
  5
394
330
1E
100
AcDbEntity
  8
1
  6
CONTINUOUS
 62
     7
100
AcDbLine
 10
-237.8488
 20
-178.30402
 30
0.0
 11
-236.1364
 21
-178.4767399999999
 31
0.0
  0
LINE
  5
395
330
1E
100
AcDbEntity
  8
1
  6
CONTINUOUS
 62
     7
100
AcDbLine
 10
-237.3622099999999
 20
-178.6754799999999
 30
0.0
 11
-236.1359999999999
 21
-178.476
 31
0.0
  0
LINE
  5
396
330
1E
100
AcDbEntity
  8
1
  6
CONTINUOUS
 62
     7
100
AcDbLine
 10
-236.1359999999999
 20
-178.476
 30
0.0
 11
-237.29767
 21
-178.03565
 31
0.0
  0
ARC
  5
397
330
1E
100
AcDbEntity
  8
1
  6
CONTINUOUS
 62
     7
100
AcDbCircle
 10
-236.1364
 20
-169.90148
 30
0.0
 40
8.57526
100
AcDbArc
 50
258.01527
 51
258.41701
  0
LINE
  5
398
330
1E
100
AcDbEntity
  8
1
  6
CONTINUOUS
 62
     7
100
AcDbLine
 10
-244.71166
 20
-169.90148
 30
0.0
 11
-244.71166
 21
-165.5461199999999
 31
0.0
  0
ARC
  5
399
330
1E
100
AcDbEntity
  8
1
  6
CONTINUOUS
 62
     7
100
AcDbCircle
 10
-236.1364
 20
-169.90148
 30
0.0
 40
8.57526
100
AcDbArc
 50
191.0231699999999
 51
191.5780499999999
  0
LINE
  5
39A
330
1E
100
AcDbEntity
  8
1
  6
CONTINUOUS
 62
     7
100
AcDbLine
 10
-238.6939799999999
 20
-169.90148
 30
0.0
 11
-236.1364
 21
-169.90148
 31
0.0
  0
TEXT
  5
39B
330
1E
100
AcDbEntity
  8
1
  6
CONTINUOUS
 62
     7
100
AcDbText
 10
-243.6142
 20
-173.50726
 30
0.0
 40
3.2
  1
Ｌ
 50
315.0
  7
BIGFONT
100
AcDbText
  0
TEXT
  5
39C
330
1E
100
AcDbEntity
  8
1
  6
CONTINUOUS
 62
     7
100
AcDbText
 10
-241.41268
 20
-175.4719399999999
 30
0.0
 40
2.2
  1
２
 50
315.0
 41
1.1363636
  7
BIGFONT
100
AcDbText
  0
LINE
  5
39D
330
1E
100
AcDbEntity
  8
1
  6
CONTINUOUS
 62
     7
100
AcDbLine
 10
-236.1364
 20
-172.2281399999999
 30
0.0
 11
-236.1364
 21
-169.90148
 31
0.0
  0
TEXT
  5
39E
330
1E
100
AcDbEntity
  8
1
  6
CONTINUOUS
 62
     7
100
AcDbText
 10
-205.3109399999999
 20
-170.20404
 30
0.0
 40
3.2
  1
Ｒ
 50
2.0
  7
BIGFONT
100
AcDbText
  0
LINE
  5
39F
330
1E
100
AcDbEntity
  8
1
  6
CONTINUOUS
 62
     1
100
AcDbLine
 10
-206.1347399999999
 20
-169.90148
 30
0.0
 11
-206.1347399999999
 21
-162.88048
 31
0.0
  0
ARC
  5
3A0
330
1E
100
AcDbEntity
  8
1
  6
CONTINUOUS
 62
     1
100
AcDbCircle
 10
-205.53474
 20
-169.90148
 30
0.0
 40
0.6
100
AcDbArc
 50
180.0
 51
270.0
  0
LINE
  5
3A1
330
1E
100
AcDbEntity
  8
1
  6
CONTINUOUS
 62
     7
100
AcDbLine
 10
-214.21166
 20
-169.90148
 30
0.0
 11
-214.21166
 21
-162.88048
 31
0.0
  0
LINE
  5
3A2
330
1E
100
AcDbEntity
  8
1
  6
CONTINUOUS
 62
     7
100
AcDbLine
 10
-207.21166
 20
-162.88048
 30
0.0
 11
-215.01166
 21
-162.88048
 31
0.0
  0
LINE
  5
3A3
330
1E
100
AcDbEntity
  8
1
  6
CONTINUOUS
 62
     7
100
AcDbLine
 10
-207.21166
 20
-169.90148
 30
0.0
 11
-215.01166
 21
-169.90148
 31
0.0
  0
LINE
  5
3A4
330
1E
100
AcDbEntity
  8
1
  6
CONTINUOUS
 62
     7
100
AcDbLine
 10
-213.8894599999999
 20
-164.08
 30
0.0
 11
-214.2109999999999
 21
-162.88
 31
0.0
  0
LINE
  5
3A5
330
1E
100
AcDbEntity
  8
1
  6
CONTINUOUS
 62
     7
100
AcDbLine
 10
-214.2109999999999
 20
-162.88
 30
0.0
 11
-214.5325299999999
 21
-164.08
 31
0.0
  0
LINE
  5
3A6
330
1E
100
AcDbEntity
  8
1
  6
CONTINUOUS
 62
     7
100
AcDbLine
 10
-214.5325299999999
 20
-168.7009999999999
 30
0.0
 11
-214.2109999999999
 21
-169.9009999999999
 31
0.0
  0
LINE
  5
3A7
330
1E
100
AcDbEntity
  8
1
  6
CONTINUOUS
 62
     7
100
AcDbLine
 10
-214.2109999999999
 20
-169.9009999999999
 30
0.0
 11
-213.8894599999999
 21
-168.7009999999999
 31
0.0
  0
ARC
  5
3A8
330
1E
100
AcDbEntity
  8
1
  6
CONTINUOUS
 62
     7
100
AcDbCircle
 10
-205.6364
 20
-169.90148
 30
0.0
 40
8.57526
100
AcDbArc
 50
191.5780499999999
 51
238.71324
  0
ARC
  5
3A9
330
1E
100
AcDbEntity
  8
1
  6
CONTINUOUS
 62
     7
100
AcDbCircle
 10
-205.6364
 20
-169.90148
 30
0.0
 40
8.57526
100
AcDbArc
 50
238.71324
 51
246.3633899999999
  0
ARC
  5
3AA
330
1E
100
AcDbEntity
  8
1
  6
CONTINUOUS
 62
     7
100
AcDbCircle
 10
-205.6364
 20
-169.90148
 30
0.0
 40
8.57526
100
AcDbArc
 50
246.3633899999999
 51
247.8281799999999
  0
ARC
  5
3AB
330
1E
100
AcDbEntity
  8
1
  6
CONTINUOUS
 62
     7
100
AcDbCircle
 10
-205.6364
 20
-169.90148
 30
0.0
 40
8.57526
100
AcDbArc
 50
247.8281799999999
 51
258.01527
  0
LINE
  5
3AC
330
1E
100
AcDbEntity
  8
1
  6
CONTINUOUS
 62
     7
100
AcDbLine
 10
-214.05306
 20
-171.54308
 30
0.0
 11
-214.21166
 21
-169.90148
 31
0.0
  0
LINE
  5
3AD
330
1E
100
AcDbEntity
  8
1
  6
CONTINUOUS
 62
     7
100
AcDbLine
 10
-213.77555
 20
-171.06451
 30
0.0
 11
-214.2109999999999
 21
-169.9009999999999
 31
0.0
  0
LINE
  5
3AE
330
1E
100
AcDbEntity
  8
1
  6
CONTINUOUS
 62
     7
100
AcDbLine
 10
-214.2109999999999
 20
-169.9009999999999
 30
0.0
 11
-214.41565
 21
-171.12635
 31
0.0
  0
LINE
  5
3AF
330
1E
100
AcDbEntity
  8
1
  6
CONTINUOUS
 62
     7
100
AcDbLine
 10
-207.3488
 20
-178.30402
 30
0.0
 11
-205.6364
 21
-178.4767399999999
 31
0.0
  0
LINE
  5
3B0
330
1E
100
AcDbEntity
  8
1
  6
CONTINUOUS
 62
     7
100
AcDbLine
 10
-206.86221
 20
-178.6754799999999
 30
0.0
 11
-205.636
 21
-178.476
 31
0.0
  0
LINE
  5
3B1
330
1E
100
AcDbEntity
  8
1
  6
CONTINUOUS
 62
     7
100
AcDbLine
 10
-205.636
 20
-178.476
 30
0.0
 11
-206.79767
 21
-178.03565
 31
0.0
  0
ARC
  5
3B2
330
1E
100
AcDbEntity
  8
1
  6
CONTINUOUS
 62
     7
100
AcDbCircle
 10
-205.6364
 20
-169.90148
 30
0.0
 40
8.57526
100
AcDbArc
 50
258.01527
 51
258.41701
  0
LINE
  5
3B3
330
1E
100
AcDbEntity
  8
1
  6
CONTINUOUS
 62
     7
100
AcDbLine
 10
-214.21166
 20
-169.90148
 30
0.0
 11
-214.21166
 21
-165.5461199999999
 31
0.0
  0
ARC
  5
3B4
330
1E
100
AcDbEntity
  8
1
  6
CONTINUOUS
 62
     7
100
AcDbCircle
 10
-205.6364
 20
-169.90148
 30
0.0
 40
8.57526
100
AcDbArc
 50
191.0231699999999
 51
191.5780499999999
  0
LINE
  5
3B5
330
1E
100
AcDbEntity
  8
1
  6
CONTINUOUS
 62
     7
100
AcDbLine
 10
-208.19398
 20
-169.90148
 30
0.0
 11
-205.6364
 21
-169.90148
 31
0.0
  0
TEXT
  5
3B6
330
1E
100
AcDbEntity
  8
1
  6
CONTINUOUS
 62
     7
100
AcDbText
 10
-213.1142
 20
-173.50726
 30
0.0
 40
3.2
  1
Ｌ
 50
315.0
  7
BIGFONT
100
AcDbText
  0
TEXT
  5
3B7
330
1E
100
AcDbEntity
  8
1
  6
CONTINUOUS
 62
     7
100
AcDbText
 10
-210.9126799999999
 20
-175.4719399999999
 30
0.0
 40
2.2
  1
２
 50
315.0
 41
1.1363636
  7
BIGFONT
100
AcDbText
  0
TEXT
  5
3B8
330
1E
100
AcDbEntity
  8
1
  6
CONTINUOUS
 62
     7
100
AcDbText
 10
-214.6580399999999
 20
-169.0936
 30
0.0
 40
3.2
  1
Ｌ
 50
90.0
  7
BIGFONT
100
AcDbText
  0
TEXT
  5
3B9
330
1E
100
AcDbEntity
  8
1
  6
CONTINUOUS
 62
     7
100
AcDbText
 10
-214.82676
 20
-166.16276
 30
0.0
 40
2.2
  1
３
 50
90.0
 41
1.1363636
  7
BIGFONT
100
AcDbText
  0
LINE
  5
3BA
330
1E
100
AcDbEntity
  8
1
  6
CONTINUOUS
 62
     7
100
AcDbLine
 10
-205.6364
 20
-172.2281399999999
 30
0.0
 11
-205.6364
 21
-169.90148
 31
0.0
  0
TEXT
  5
3BB
330
1E
100
AcDbEntity
  8
1
  6
CONTINUOUS
 62
     7
100
AcDbText
 10
-115.15982
 20
-149.2621399999999
 30
0.0
 40
3.2
  1
Ｌ
 50
315.0
  7
BIGFONT
100
AcDbText
  0
TEXT
  5
3BC
330
1E
100
AcDbEntity
  8
1
  6
CONTINUOUS
 62
     7
100
AcDbText
 10
-112.9681
 20
-151.21526
 30
0.0
 40
2.2
  1
３
 50
315.0
 41
1.1363636
  7
BIGFONT
100
AcDbText
  0
LINE
  5
3BD
330
1E
100
AcDbEntity
  8
1
  6
CONTINUOUS
 62
     1
100
AcDbLine
 10
-61.89081999999999
 20
-170.50148
 30
0.0
 11
-34.49082
 21
-170.50148
 31
0.0
  0
LINE
  5
3BE
330
1E
100
AcDbEntity
  8
1
  6
CONTINUOUS
 62
     1
100
AcDbLine
 10
-62.49081999999999
 20
-169.90148
 30
0.0
 11
-62.49081999999999
 21
-145.50148
 31
0.0
  0
ARC
  5
3BF
330
1E
100
AcDbEntity
  8
1
  6
CONTINUOUS
 62
     1
100
AcDbCircle
 10
-61.89081999999999
 20
-169.90148
 30
0.0
 40
0.6
100
AcDbArc
 50
180.0
 51
270.0
  0
LINE
  5
3C0
330
1E
100
AcDbEntity
  8
1
  6
CONTINUOUS
 62
     7
100
AcDbLine
 10
-61.99248
 20
-178.47106
 30
0.0
 11
-34.49082
 21
-178.47106
 31
0.0
  0
LINE
  5
3C1
330
1E
100
AcDbEntity
  8
1
  6
CONTINUOUS
 62
     7
100
AcDbLine
 10
-34.49082
 20
-171.50148
 30
0.0
 11
-34.49082
 21
-179.27106
 31
0.0
  0
LINE
  5
3C2
330
1E
100
AcDbEntity
  8
1
  6
CONTINUOUS
 62
     7
100
AcDbLine
 10
-61.99248
 20
-170.8837799999999
 30
0.0
 11
-61.99248
 21
-179.27106
 31
0.0
  0
LINE
  5
3C3
330
1E
100
AcDbEntity
  8
1
  6
CONTINUOUS
 62
     7
100
AcDbLine
 10
-35.68999999999999
 20
-178.7925299999999
 30
0.0
 11
-34.49
 21
-178.4709999999999
 31
0.0
  0
LINE
  5
3C4
330
1E
100
AcDbEntity
  8
1
  6
CONTINUOUS
 62
     7
100
AcDbLine
 10
-34.49
 20
-178.4709999999999
 30
0.0
 11
-35.68999999999999
 21
-178.14946
 31
0.0
  0
LINE
  5
3C5
330
1E
100
AcDbEntity
  8
1
  6
CONTINUOUS
 62
     7
100
AcDbLine
 10
-60.792
 20
-178.14946
 30
0.0
 11
-61.992
 21
-178.4709999999999
 31
0.0
  0
LINE
  5
3C6
330
1E
100
AcDbEntity
  8
1
  6
CONTINUOUS
 62
     7
100
AcDbLine
 10
-61.992
 20
-178.4709999999999
 30
0.0
 11
-60.792
 21
-178.7925299999999
 31
0.0
  0
LINE
  5
3C7
330
1E
100
AcDbEntity
  8
1
  6
CONTINUOUS
 62
     7
100
AcDbLine
 10
-70.56774
 20
-169.90148
 30
0.0
 11
-70.56774
 21
-145.50148
 31
0.0
  0
LINE
  5
3C8
330
1E
100
AcDbEntity
  8
1
  6
CONTINUOUS
 62
     7
100
AcDbLine
 10
-63.56774
 20
-145.50148
 30
0.0
 11
-71.36773999999999
 21
-145.50148
 31
0.0
  0
LINE
  5
3C9
330
1E
100
AcDbEntity
  8
1
  6
CONTINUOUS
 62
     7
100
AcDbLine
 10
-63.56774
 20
-169.90148
 30
0.0
 11
-71.36773999999999
 21
-169.90148
 31
0.0
  0
LINE
  5
3CA
330
1E
100
AcDbEntity
  8
1
  6
CONTINUOUS
 62
     7
100
AcDbLine
 10
-70.24545999999999
 20
-146.7009999999999
 30
0.0
 11
-70.56699999999998
 21
-145.501
 31
0.0
  0
LINE
  5
3CB
330
1E
100
AcDbEntity
  8
1
  6
CONTINUOUS
 62
     7
100
AcDbLine
 10
-70.56699999999998
 20
-145.501
 30
0.0
 11
-70.88853
 21
-146.7009999999999
 31
0.0
  0
LINE
  5
3CC
330
1E
100
AcDbEntity
  8
1
  6
CONTINUOUS
 62
     7
100
AcDbLine
 10
-70.88853
 20
-168.7009999999999
 30
0.0
 11
-70.56699999999998
 21
-169.9009999999999
 31
0.0
  0
LINE
  5
3CD
330
1E
100
AcDbEntity
  8
1
  6
CONTINUOUS
 62
     7
100
AcDbLine
 10
-70.56699999999998
 20
-169.9009999999999
 30
0.0
 11
-70.24545999999999
 21
-168.7009999999999
 31
0.0
  0
ARC
  5
3CE
330
1E
100
AcDbEntity
  8
1
  6
CONTINUOUS
 62
     7
100
AcDbCircle
 10
-61.99248
 20
-169.90148
 30
0.0
 40
8.57526
100
AcDbArc
 50
191.5780499999999
 51
238.71324
  0
ARC
  5
3CF
330
1E
100
AcDbEntity
  8
1
  6
CONTINUOUS
 62
     7
100
AcDbCircle
 10
-61.99248
 20
-169.90148
 30
0.0
 40
8.57526
100
AcDbArc
 50
238.71324
 51
246.3633899999999
  0
LINE
  5
3D0
330
1E
100
AcDbEntity
  8
1
  6
CONTINUOUS
 62
     7
100
AcDbLine
 10
-61.99248
 20
-177.6542
 30
0.0
 11
-61.99248
 21
-175.87098
 31
0.0
  0
ARC
  5
3D1
330
1E
100
AcDbEntity
  8
1
  6
CONTINUOUS
 62
     7
100
AcDbCircle
 10
-61.99248
 20
-169.90148
 30
0.0
 40
8.57526
100
AcDbArc
 50
246.3633899999999
 51
247.8281799999999
  0
ARC
  5
3D2
330
1E
100
AcDbEntity
  8
1
  6
CONTINUOUS
 62
     7
100
AcDbCircle
 10
-61.99248
 20
-169.90148
 30
0.0
 40
8.57526
100
AcDbArc
 50
247.8281799999999
 51
258.01527
  0
LINE
  5
3D3
330
1E
100
AcDbEntity
  8
1
  6
CONTINUOUS
 62
     7
100
AcDbLine
 10
-70.40914
 20
-171.54308
 30
0.0
 11
-70.56774
 21
-169.90148
 31
0.0
  0
LINE
  5
3D4
330
1E
100
AcDbEntity
  8
1
  6
CONTINUOUS
 62
     7
100
AcDbLine
 10
-70.13155000000001
 20
-171.06451
 30
0.0
 11
-70.56699999999998
 21
-169.9009999999999
 31
0.0
  0
LINE
  5
3D5
330
1E
100
AcDbEntity
  8
1
  6
CONTINUOUS
 62
     7
100
AcDbLine
 10
-70.56699999999998
 20
-169.9009999999999
 30
0.0
 11
-70.77164999999998
 21
-171.12635
 31
0.0
  0
LINE
  5
3D6
330
1E
100
AcDbEntity
  8
1
  6
CONTINUOUS
 62
     7
100
AcDbLine
 10
-63.70488
 20
-178.30402
 30
0.0
 11
-61.99248
 21
-178.4767399999999
 31
0.0
  0
LINE
  5
3D7
330
1E
100
AcDbEntity
  8
1
  6
CONTINUOUS
 62
     7
100
AcDbLine
 10
-63.21820999999999
 20
-178.6754799999999
 30
0.0
 11
-61.992
 21
-178.476
 31
0.0
  0
LINE
  5
3D8
330
1E
100
AcDbEntity
  8
1
  6
CONTINUOUS
 62
     7
100
AcDbLine
 10
-61.992
 20
-178.476
 30
0.0
 11
-63.15367
 21
-178.03565
 31
0.0
  0
ARC
  5
3D9
330
1E
100
AcDbEntity
  8
1
  6
CONTINUOUS
 62
     7
100
AcDbCircle
 10
-61.99248
 20
-169.90148
 30
0.0
 40
8.57526
100
AcDbArc
 50
258.01527
 51
258.41701
  0
LINE
  5
3DA
330
1E
100
AcDbEntity
  8
1
  6
CONTINUOUS
 62
     7
100
AcDbLine
 10
-61.99248
 20
-178.29928
 30
0.0
 11
-61.99248
 21
-177.6542
 31
0.0
  0
LINE
  5
3DB
330
1E
100
AcDbEntity
  8
1
  6
CONTINUOUS
 62
     7
100
AcDbLine
 10
-70.56774
 20
-169.90148
 30
0.0
 11
-70.56774
 21
-165.5461199999999
 31
0.0
  0
ARC
  5
3DC
330
1E
100
AcDbEntity
  8
1
  6
CONTINUOUS
 62
     7
100
AcDbCircle
 10
-61.99248
 20
-169.90148
 30
0.0
 40
8.57526
100
AcDbArc
 50
191.0231699999999
 51
191.5780499999999
  0
LINE
  5
3DD
330
1E
100
AcDbEntity
  8
1
  6
CONTINUOUS
 62
     7
100
AcDbLine
 10
-61.99248
 20
-172.2176399999999
 30
0.0
 11
-61.99248
 21
-169.90148
 31
0.0
  0
LINE
  5
3DE
330
1E
100
AcDbEntity
  8
1
  6
CONTINUOUS
 62
     7
100
AcDbLine
 10
-64.55006
 20
-169.90148
 30
0.0
 11
-61.99248
 21
-169.90148
 31
0.0
  0
TEXT
  5
3DF
330
1E
100
AcDbEntity
  8
1
  6
CONTINUOUS
 62
     7
100
AcDbText
 10
-61.66701999999999
 20
-170.2796199999999
 30
0.0
 40
3.2
  1
Ｒ
 50
2.0
  7
BIGFONT
100
AcDbText
  0
TEXT
  5
3E0
330
1E
100
AcDbEntity
  8
1
  6
CONTINUOUS
 62
     7
100
AcDbText
 10
-69.47028
 20
-173.50726
 30
0.0
 40
3.2
  1
Ｌ
 50
315.0
  7
BIGFONT
100
AcDbText
  0
TEXT
  5
3E1
330
1E
100
AcDbEntity
  8
1
  6
CONTINUOUS
 62
     7
100
AcDbText
 10
-67.26876
 20
-175.4719399999999
 30
0.0
 40
2.2
  1
２
 50
315.0
 41
1.1363636
  7
BIGFONT
100
AcDbText
  0
TEXT
  5
3E2
330
1E
100
AcDbEntity
  8
1
  6
CONTINUOUS
 62
     7
100
AcDbText
 10
-50.42888
 20
-177.8542199999999
 30
0.0
 40
3.2
  1
Ｌ
  7
BIGFONT
100
AcDbText
  0
TEXT
  5
3E3
330
1E
100
AcDbEntity
  8
1
  6
CONTINUOUS
 62
     7
100
AcDbText
 10
-47.41912
 20
-177.6781399999999
 30
0.0
 40
2.2
  1
１
 41
1.1363636
  7
BIGFONT
100
AcDbText
  0
TEXT
  5
3E4
330
1E
100
AcDbEntity
  8
1
  6
CONTINUOUS
 62
     7
100
AcDbText
 10
-71.01411999999998
 20
-160.8041
 30
0.0
 40
3.2
  1
Ｌ
 50
90.0
  7
BIGFONT
100
AcDbText
  0
TEXT
  5
3E5
330
1E
100
AcDbEntity
  8
1
  6
CONTINUOUS
 62
     7
100
AcDbText
 10
-71.18284
 20
-157.87326
 30
0.0
 40
2.2
  1
３
 50
90.0
 41
1.1363636
  7
BIGFONT
100
AcDbText
  0
CIRCLE
  5
3E6
330
1E
100
AcDbEntity
  8
1
  6
CONTINUOUS
 62
     7
100
AcDbCircle
 10
-226.87766
 20
-155.4093799999999
 30
0.0
 40
2.497799999999998
  0
TEXT
  5
3E7
330
1E
100
AcDbEntity
  8
1
  6
CONTINUOUS
 62
     7
100
AcDbText
 10
-228.4108999999999
 20
-157.20876
 30
0.0
 40
3.2
  1
１
  7
BIGFONT
100
AcDbText
  0
LINE
  5
3E8
330
1E
100
AcDbEntity
  8
1
  6
CONTINUOUS
 62
     7
100
AcDbLine
 10
-231.72922
 20
-157.92754
 30
0.0
 11
-221.19214
 21
-157.92754
 31
0.0
  0
LINE
  5
3E9
330
1E
100
AcDbEntity
  8
1
  6
CONTINUOUS
 62
     7
100
AcDbLine
 10
-54.14246
 20
-159.18046
 30
0.0
 11
-41.56851999999999
 21
-159.18046
 31
0.0
  0
CIRCLE
  5
3EA
330
1E
100
AcDbEntity
  8
1
  6
CONTINUOUS
 62
     7
100
AcDbCircle
 10
-191.19326
 20
-160.7605
 30
0.0
 40
2.497799999999998
  0
CIRCLE
  5
3EB
330
1E
100
AcDbEntity
  8
1
  6
CONTINUOUS
 62
     7
100
AcDbCircle
 10
-139.5004999999999
 20
-158.2385999999999
 30
0.0
 40
2.497799999999998
  0
CIRCLE
  5
3EC
330
1E
100
AcDbEntity
  8
1
  6
CONTINUOUS
 62
     7
100
AcDbCircle
 10
-98.53570000000001
 20
-135.46246
 30
0.0
 40
2.497799999999998
  0
CIRCLE
  5
3ED
330
1E
100
AcDbEntity
  8
1
  6
CONTINUOUS
 62
     7
100
AcDbCircle
 10
-50.35896
 20
-156.6729399999998
 30
0.0
 40
2.497799999999998
  0
CIRCLE
  5
3EE
330
1E
100
AcDbEntity
  8
1
  6
CONTINUOUS
 62
     7
100
AcDbCircle
 10
-45.36425999999997
 20
-156.62306
 30
0.0
 40
2.497799999999998
  0
TEXT
  5
3EF
330
1E
100
AcDbEntity
  8
1
  6
CONTINUOUS
 62
     7
100
AcDbText
 10
-192.72516
 20
-162.5458199999999
 30
0.0
 40
3.2
  1
２
  7
BIGFONT
100
AcDbText
  0
TEXT
  5
3F0
330
1E
100
AcDbEntity
  8
1
  6
CONTINUOUS
 62
     7
100
AcDbText
 10
-141.03326
 20
-160.0542199999999
 30
0.0
 40
3.2
  1
３
  7
BIGFONT
100
AcDbText
  0
TEXT
  5
3F1
330
1E
100
AcDbEntity
  8
1
  6
CONTINUOUS
 62
     7
100
AcDbText
 10
-100.14756
 20
-137.26616
 30
0.0
 40
3.2
  1
４
  7
BIGFONT
100
AcDbText
  0
TEXT
  5
3F2
330
1E
100
AcDbEntity
  8
1
  6
CONTINUOUS
 62
     7
100
AcDbText
 10
-51.86099999999999
 20
-158.50428
 30
0.0
 40
3.2
  1
５
  7
BIGFONT
100
AcDbText
  0
TEXT
  5
3F3
330
1E
100
AcDbEntity
  8
1
  6
CONTINUOUS
 62
     7
100
AcDbText
 10
-46.96425999999997
 20
-158.4498199999998
 30
0.0
 40
3.2
  1
６
  7
BIGFONT
100
AcDbText
  0
LINE
  5
3F4
330
1E
100
AcDbEntity
  8
1
  6
CONTINUOUS
 62
     7
100
AcDbLine
 10
-103.71854
 20
-137.96026
 30
0.0
 11
-93.57868000000001
 21
-137.96026
 31
0.0
  0
LINE
  5
3F5
330
1E
100
AcDbEntity
  8
1
  6
CONTINUOUS
 62
     7
100
AcDbLine
 10
-196.1325999999999
 20
-163.25776
 30
0.0
 11
-185.59552
 21
-163.25776
 31
0.0
  0
LINE
  5
3F6
330
1E
100
AcDbEntity
  8
1
  6
CONTINUOUS
 62
     7
100
AcDbLine
 10
-144.38792
 20
-160.7364
 30
0.0
 11
-133.8508399999996
 21
-160.7364
 31
0.0
  0
TEXT
  5
3F7
330
1E
100
AcDbEntity
  8
1
  6
CONTINUOUS
 62
     7
100
AcDbText
 10
-245.11046
 20
-156.2773799999999
 30
0.0
 40
3.2
  1
Ｌ
 50
90.0
  7
BIGFONT
100
AcDbText
  0
TEXT
  5
3F8
330
1E
100
AcDbEntity
  8
1
  6
CONTINUOUS
 62
     7
100
AcDbText
 10
-245.2865399999999
 20
-153.26762
 30
0.0
 40
2.2
  1
１
 50
90.0
 41
1.1363636
  7
BIGFONT
100
AcDbText
  0
CIRCLE
  5
3F9
330
1E
100
AcDbEntity
  8
0
  6
CONTINUOUS
 62
     7
100
AcDbCircle
 10
49.26825
 20
88.2247
 30
0.0
 40
2.5
  0
TEXT
  5
3FA
330
1E
100
AcDbEntity
  8
0
  6
CONTINUOUS
 62
     7
100
AcDbText
 10
52.57095
 20
86.59975000000001
 30
0.0
 40
3.2
  1
D13
  7
BIGFONT
100
AcDbText
  0
CIRCLE
  5
3FB
330
1E
100
AcDbEntity
  8
0
  6
CONTINUOUS
 62
     7
100
AcDbCircle
 10
51.2136
 20
73.85259999999998
 30
0.0
 40
2.5
  0
TEXT
  5
3FC
330
1E
100
AcDbEntity
  8
0
  6
CONTINUOUS
 62
     7
100
AcDbText
 10
49.56515
 20
72.14249999999998
 30
0.0
 40
3.2
  1
４
  7
BIGFONT
100
AcDbText
  0
CIRCLE
  5
3FD
330
1E
100
AcDbEntity
  8
0
  6
CONTINUOUS
 62
     7
100
AcDbCircle
 10
21.1746
 20
67.665
 30
0.0
 40
2.5
  0
TEXT
  5
3FE
330
1E
100
AcDbEntity
  8
0
  6
CONTINUOUS
 62
     7
100
AcDbText
 10
22.91279999999999
 20
66.11074999999999
 30
0.0
 40
3.2
  1
３
 50
90.0
  7
BIGFONT
100
AcDbText
  0
TEXT
  5
3FF
330
1E
100
AcDbEntity
  8
0
  6
CONTINUOUS
 62
     7
100
AcDbText
 10
22.80035
 20
71.2582
 30
0.0
 40
3.2
  1
D10
 50
90.0
  7
BIGFONT
100
AcDbText
  0
LINE
  5
400
330
1E
100
AcDbEntity
  8
0
  6
CONTINUOUS
 62
     7
100
AcDbLine
 10
23.67199999999999
 20
64.8572
 30
0.0
 11
23.67199999999999
 21
79.8572
 31
0.0
  0
CIRCLE
  5
401
330
1E
100
AcDbEntity
  8
0
  6
CONTINUOUS
 62
     7
100
AcDbCircle
 10
74.21299999999998
 20
65.2677
 30
0.0
 40
2.5
  0
TEXT
  5
402
330
1E
100
AcDbEntity
  8
0
  6
CONTINUOUS
 62
     7
100
AcDbText
 10
72.65505
 20
63.6738
 30
0.0
 40
3.2
  1
２
  7
BIGFONT
100
AcDbText
  0
CIRCLE
  5
403
330
1E
100
AcDbEntity
  8
0
  6
CONTINUOUS
 62
     7
100
AcDbCircle
 10
63.3219
 20
42.51574999999998
 30
0.0
 40
2.5
  0
TEXT
  5
404
330
1E
100
AcDbEntity
  8
0
  6
CONTINUOUS
 62
     7
100
AcDbText
 10
61.76765
 20
40.77754999999998
 30
0.0
 40
3.2
  1
３
  7
BIGFONT
100
AcDbText
  0
TEXT
  5
405
330
1E
100
AcDbEntity
  8
0
  6
CONTINUOUS
 62
     7
100
AcDbText
 10
66.9151
 20
40.89
 30
0.0
 40
3.2
  1
D10
  7
BIGFONT
100
AcDbText
  0
LINE
  5
406
330
1E
100
AcDbEntity
  8
0
  6
CONTINUOUS
 62
     7
100
AcDbLine
 10
60.3641
 20
40.01834999999998
 30
0.0
 11
75.3641
 21
40.01834999999998
 31
0.0
  0
LINE
  5
407
330
1E
100
AcDbEntity
  8
0
  6
CONTINUOUS
 62
     7
100
AcDbLine
 10
71.1714
 20
62.73814999999999
 30
0.0
 11
67.16330000000001
 21
53.1819
 31
0.0
  0
LINE
  5
408
330
1E
100
AcDbEntity
  8
0
  6
CONTINUOUS
 62
     7
100
AcDbLine
 10
67.16330000000001
 20
53.1819
 30
0.0
 11
66.23501999999999
 21
50.96868
 31
0.0
  0
LINE
  5
409
330
1E
100
AcDbEntity
  8
0
  6
CONTINUOUS
 62
     7
100
AcDbLine
 10
67.33062
 20
54.41196999999998
 30
0.0
 11
67.163
 21
53.18100000000001
 31
0.0
  0
LINE
  5
40A
330
1E
100
AcDbEntity
  8
0
  6
CONTINUOUS
 62
     7
100
AcDbLine
 10
67.163
 20
53.18100000000001
 30
0.0
 11
67.92364
 21
54.16324
 31
0.0
  0
LINE
  5
40B
330
1E
100
AcDbEntity
  8
0
  6
CONTINUOUS
 62
     7
100
AcDbLine
 10
71.1714
 20
62.73814999999999
 30
0.0
 11
62.4899
 21
53.6319
 31
0.0
  0
LINE
  5
40C
330
1E
100
AcDbEntity
  8
0
  6
CONTINUOUS
 62
     7
100
AcDbLine
 10
63.0843
 20
54.72141
 30
0.0
 11
62.48899999999999
 21
53.631
 31
0.0
  0
LINE
  5
40D
330
1E
100
AcDbEntity
  8
0
  6
CONTINUOUS
 62
     7
100
AcDbLine
 10
62.48899999999999
 20
53.631
 30
0.0
 11
63.54975
 21
54.27766999999999
 31
0.0
  0
LINE
  5
40E
330
1E
100
AcDbEntity
  8
0
  6
CONTINUOUS
 62
     7
100
AcDbLine
 10
71.1714
 20
62.73814999999999
 30
0.0
 11
86.1714
 21
62.73814999999999
 31
0.0
  0
TEXT
  5
40F
330
1E
100
AcDbEntity
  8
0
  6
CONTINUOUS
 62
     7
100
AcDbText
 10
77.76349999999998
 20
63.59885
 30
0.0
 40
3.2
  1
D13
  7
BIGFONT
100
AcDbText
  0
CIRCLE
  5
410
330
1E
100
AcDbEntity
  8
0
  6
CONTINUOUS
 62
     7
100
AcDbCircle
 10
-161.57955
 20
93.17400000000001
 30
0.0
 40
2.5
  0
TEXT
  5
411
330
1E
100
AcDbEntity
  8
0
  6
CONTINUOUS
 62
     7
100
AcDbText
 10
-159.9413499999999
 20
91.61974999999999
 30
0.0
 40
3.2
  1
３
 50
90.0
  7
BIGFONT
100
AcDbText
  0
TEXT
  5
412
330
1E
100
AcDbEntity
  8
0
  6
CONTINUOUS
 62
     7
100
AcDbText
 10
-160.0038
 20
96.76720000000001
 30
0.0
 40
3.2
  1
D10
 50
90.0
  7
BIGFONT
100
AcDbText
  0
LINE
  5
413
330
1E
100
AcDbEntity
  8
0
  6
CONTINUOUS
 62
     7
100
AcDbLine
 10
-159.06715
 20
89.81619999999997
 30
0.0
 11
-159.06715
 21
104.8162
 31
0.0
  0
CIRCLE
  5
414
330
1E
100
AcDbEntity
  8
0
  6
CONTINUOUS
 62
     7
100
AcDbCircle
 10
-75.68609999999998
 20
137.3643999999996
 30
0.0
 40
2.5
  0
TEXT
  5
415
330
1E
100
AcDbEntity
  8
0
  6
CONTINUOUS
 62
     7
100
AcDbText
 10
-77.17449999999998
 20
135.6319499999999
 30
0.0
 40
3.2
  1
５
  7
BIGFONT
100
AcDbText
  0
LINE
  5
416
330
1E
100
AcDbEntity
  8
0
  6
CONTINUOUS
 62
     7
100
AcDbLine
 10
-78.46195
 20
134.8646
 30
0.0
 11
-63.46195
 21
134.8646
 31
0.0
  0
TEXT
  5
417
330
1E
100
AcDbEntity
  8
0
  6
CONTINUOUS
 62
     7
100
AcDbText
 10
-72.36985
 20
135.7253
 30
0.0
 40
3.2
  1
Ｄ１３
  7
BIGFONT
100
AcDbText
  0
CIRCLE
  5
418
330
1E
100
AcDbEntity
  8
0
  6
CONTINUOUS
 62
     7
100
AcDbCircle
 10
-115.9197
 20
-69.874
 30
0.0
 40
2.5
  0
TEXT
  5
419
330
1E
100
AcDbEntity
  8
0
  6
CONTINUOUS
 62
     7
100
AcDbText
 10
-114.1842
 20
-71.39045
 30
0.0
 40
3.2
  1
６
 50
90.0
  7
BIGFONT
100
AcDbText
  0
TEXT
  5
41A
330
1E
100
AcDbEntity
  8
0
  6
CONTINUOUS
 62
     7
100
AcDbText
 10
-114.29475
 20
-66.6713
 30
0.0
 40
3.2
  1
D10
 50
90.0
  7
BIGFONT
100
AcDbText
  0
LINE
  5
41B
330
1E
100
AcDbEntity
  8
0
  6
CONTINUOUS
 62
     7
100
AcDbLine
 10
-113.4230999999999
 20
-73.22230000000002
 30
0.0
 11
-113.4230999999999
 21
-58.2223
 31
0.0
  0
CIRCLE
  5
41C
330
1E
100
AcDbEntity
  8
0
  6
CONTINUOUS
 62
     7
100
AcDbCircle
 10
-161.6171
 20
-76.17874999999997
 30
0.0
 40
2.5
  0
TEXT
  5
41D
330
1E
100
AcDbEntity
  8
0
  6
CONTINUOUS
 62
     7
100
AcDbText
 10
-159.8789
 20
-77.733
 30
0.0
 40
3.2
  1
３
 50
90.0
  7
BIGFONT
100
AcDbText
  0
TEXT
  5
41E
330
1E
100
AcDbEntity
  8
0
  6
CONTINUOUS
 62
     7
100
AcDbText
 10
-159.99135
 20
-72.58555
 30
0.0
 40
3.2
  1
D10
 50
90.0
  7
BIGFONT
100
AcDbText
  0
LINE
  5
41F
330
1E
100
AcDbEntity
  8
0
  6
CONTINUOUS
 62
     7
100
AcDbLine
 10
-159.1197
 20
-78.28655000000002
 30
0.0
 11
-159.1197
 21
-63.28655
 31
0.0
  0
LINE
  5
420
330
1E
100
AcDbEntity
  8
0
  6
CONTINUOUS
 62
     7
100
AcDbLine
 10
-159.0894999999999
 20
-45.13645
 30
0.0
 11
-172.4586999999999
 21
-45.10844999999998
 31
0.0
  0
LINE
  5
421
330
1E
100
AcDbEntity
  8
0
  6
CONTINUOUS
 62
     7
100
AcDbLine
 10
-171.25732
 20
-44.78896999999999
 30
0.0
 11
-172.458
 21
-45.10799999999998
 31
0.0
  0
LINE
  5
422
330
1E
100
AcDbEntity
  8
0
  6
CONTINUOUS
 62
     7
100
AcDbLine
 10
-172.458
 20
-45.10799999999998
 30
0.0
 11
-171.2586699999999
 21
-45.43204999999999
 31
0.0
  0
CIRCLE
  5
423
330
1E
100
AcDbEntity
  8
0
  6
CONTINUOUS
 62
     7
100
AcDbCircle
 10
-204.34075
 20
-108.23195
 30
0.0
 40
2.5
  0
TEXT
  5
424
330
1E
100
AcDbEntity
  8
0
  6
CONTINUOUS
 62
     7
100
AcDbText
 10
-205.895
 20
-109.97015
 30
0.0
 40
3.2
  1
３
  7
BIGFONT
100
AcDbText
  0
TEXT
  5
425
330
1E
100
AcDbEntity
  8
0
  6
CONTINUOUS
 62
     7
100
AcDbText
 10
-200.7475499999999
 20
-109.8576999999999
 30
0.0
 40
3.2
  1
D10
  7
BIGFONT
100
AcDbText
  0
LINE
  5
426
330
1E
100
AcDbEntity
  8
0
  6
CONTINUOUS
 62
     7
100
AcDbLine
 10
-207.6485499999999
 20
-110.7293499999999
 30
0.0
 11
-192.64855
 21
-110.7293499999999
 31
0.0
  0
TEXT
  5
427
330
1E
100
AcDbEntity
  8
0
  6
CONTINUOUS
 62
     7
100
AcDbText
 10
-37.74345
 20
-98.47599999999999
 30
0.0
 40
3.2
  1
７
 50
45.0
  7
BIGFONT
100
AcDbText
  0
CIRCLE
  5
428
330
1E
100
AcDbEntity
  8
0
  6
CONTINUOUS
 62
     7
100
AcDbCircle
 10
-37.88629999999999
 20
-96.19150000000001
 30
0.0
 40
2.5
  0
TEXT
  5
429
330
1E
100
AcDbEntity
  8
0
  6
CONTINUOUS
 62
     7
100
AcDbText
 10
-34.4675
 20
-95.10859999999999
 30
0.0
 40
3.2
  1
D10
 50
45.0
  7
BIGFONT
100
AcDbText
  0
LINE
  5
42A
330
1E
100
AcDbEntity
  8
0
  6
CONTINUOUS
 62
     7
100
AcDbLine
 10
-38.73465
 20
-100.60095
 30
0.0
 11
-28.12805
 21
-89.99435
 31
0.0
  0
LINE
  5
42B
330
1E
100
AcDbEntity
  8
0
  6
CONTINUOUS
 62
     7
100
AcDbLine
 10
-113.4230999999999
 20
-73.22230000000002
 30
0.0
 11
-103.4882
 21
-73.22230000000002
 31
0.0
  0
LINE
  5
42C
330
1E
100
AcDbEntity
  8
0
  6
CONTINUOUS
 62
     7
100
AcDbLine
 10
-104.6879999999999
 20
-73.54353
 30
0.0
 11
-103.488
 21
-73.22199999999998
 31
0.0
  0
LINE
  5
42D
330
1E
100
AcDbEntity
  8
0
  6
CONTINUOUS
 62
     7
100
AcDbLine
 10
-103.488
 20
-73.22199999999998
 30
0.0
 11
-104.6879999999999
 21
-72.90046
 31
0.0
  0
LINE
  5
42E
330
1E
100
AcDbEntity
  8
0
  6
CONTINUOUS
 62
     7
100
AcDbLine
 10
-38.73465
 20
-100.60095
 30
0.0
 11
-47.79845
 21
-91.53719999999999
 31
0.0
  0
LINE
  5
42F
330
1E
100
AcDbEntity
  8
0
  6
CONTINUOUS
 62
     7
100
AcDbLine
 10
-46.72209999999998
 20
-92.15816
 30
0.0
 11
-47.798
 21
-91.537
 31
0.0
  0
LINE
  5
430
330
1E
100
AcDbEntity
  8
0
  6
CONTINUOUS
 62
     7
100
AcDbLine
 10
-47.798
 20
-91.537
 30
0.0
 11
-47.17683
 21
-92.61288
 31
0.0
  0
CIRCLE
  5
431
330
1E
100
AcDbEntity
  8
0
  6
CONTINUOUS
 62
     7
100
AcDbCircle
 10
-30.87055
 20
88.58995
 30
0.0
 40
2.5
  0
TEXT
  5
432
330
1E
100
AcDbEntity
  8
0
  6
CONTINUOUS
 62
     7
100
AcDbText
 10
-29.10575
 20
87.00169999999998
 30
0.0
 40
3.2
  1
１
 50
90.0
  7
BIGFONT
100
AcDbText
  0
TEXT
  5
433
330
1E
100
AcDbEntity
  8
0
  6
CONTINUOUS
 62
     7
100
AcDbText
 10
-29.10635
 20
91.8133
 30
0.0
 40
3.2
  1
D13
 50
90.0
  7
BIGFONT
100
AcDbText
  0
LINE
  5
434
330
1E
100
AcDbEntity
  8
0
  6
CONTINUOUS
 62
     7
100
AcDbLine
 10
-28.37474999999999
 20
85.01229999999997
 30
0.0
 11
-28.37474999999999
 21
100.0122999999999
 31
0.0
  0
LINE
  5
435
330
1E
100
AcDbEntity
  8
0
  6
CONTINUOUS
 62
     7
100
AcDbLine
 10
-224.4101499999999
 20
89.81619999999997
 30
0.0
 11
-234.4101499999999
 21
89.81619999999997
 31
0.0
  0
LINE
  5
436
330
1E
100
AcDbEntity
  8
0
  6
CONTINUOUS
 62
     7
100
AcDbLine
 10
-233.21
 20
90.13752999999999
 30
0.0
 11
-234.41
 21
89.816
 31
0.0
  0
LINE
  5
437
330
1E
100
AcDbEntity
  8
0
  6
CONTINUOUS
 62
     7
100
AcDbLine
 10
-234.41
 20
89.816
 30
0.0
 11
-233.21
 21
89.49446
 31
0.0
  0
LINE
  5
438
330
1E
100
AcDbEntity
  8
0
  6
CONTINUOUS
 62
     7
100
AcDbLine
 10
-214.41015
 20
89.81619999999997
 30
0.0
 11
-224.4101499999999
 21
89.81619999999997
 31
0.0
  0
LINE
  5
439
330
1E
100
AcDbEntity
  8
0
  6
CONTINUOUS
 62
     7
100
AcDbLine
 10
-223.2099999999999
 20
90.13752999999999
 30
0.0
 11
-224.4099999999999
 21
89.816
 31
0.0
  0
LINE
  5
43A
330
1E
100
AcDbEntity
  8
0
  6
CONTINUOUS
 62
     7
100
AcDbLine
 10
-224.4099999999999
 20
89.816
 30
0.0
 11
-223.2099999999999
 21
89.49446
 31
0.0
  0
LINE
  5
43B
330
1E
100
AcDbEntity
  8
0
  6
CONTINUOUS
 62
     7
100
AcDbLine
 10
-204.41015
 20
89.81619999999997
 30
0.0
 11
-214.41015
 21
89.81619999999997
 31
0.0
  0
LINE
  5
43C
330
1E
100
AcDbEntity
  8
0
  6
CONTINUOUS
 62
     7
100
AcDbLine
 10
-213.21
 20
90.13752999999999
 30
0.0
 11
-214.4099999999999
 21
89.816
 31
0.0
  0
LINE
  5
43D
330
1E
100
AcDbEntity
  8
0
  6
CONTINUOUS
 62
     7
100
AcDbLine
 10
-214.4099999999999
 20
89.816
 30
0.0
 11
-213.21
 21
89.49446
 31
0.0
  0
LINE
  5
43E
330
1E
100
AcDbEntity
  8
0
  6
CONTINUOUS
 62
     7
100
AcDbLine
 10
-194.41015
 20
89.81619999999997
 30
0.0
 11
-204.41015
 21
89.81619999999997
 31
0.0
  0
LINE
  5
43F
330
1E
100
AcDbEntity
  8
0
  6
CONTINUOUS
 62
     7
100
AcDbLine
 10
-203.21
 20
90.13752999999999
 30
0.0
 11
-204.4099999999999
 21
89.816
 31
0.0
  0
LINE
  5
440
330
1E
100
AcDbEntity
  8
0
  6
CONTINUOUS
 62
     7
100
AcDbLine
 10
-204.4099999999999
 20
89.816
 30
0.0
 11
-203.21
 21
89.49446
 31
0.0
  0
LINE
  5
441
330
1E
100
AcDbEntity
  8
0
  6
CONTINUOUS
 62
     7
100
AcDbLine
 10
-184.4101499999999
 20
89.81619999999997
 30
0.0
 11
-194.41015
 21
89.81619999999997
 31
0.0
  0
LINE
  5
442
330
1E
100
AcDbEntity
  8
0
  6
CONTINUOUS
 62
     7
100
AcDbLine
 10
-193.21
 20
90.13752999999999
 30
0.0
 11
-194.4099999999999
 21
89.816
 31
0.0
  0
LINE
  5
443
330
1E
100
AcDbEntity
  8
0
  6
CONTINUOUS
 62
     7
100
AcDbLine
 10
-194.4099999999999
 20
89.816
 30
0.0
 11
-193.21
 21
89.49446
 31
0.0
  0
LINE
  5
444
330
1E
100
AcDbEntity
  8
0
  6
CONTINUOUS
 62
     1
100
AcDbLine
 10
-219.2856499999999
 20
69.1319
 30
0.0
 11
-204.0396499999999
 21
69.1319
 31
0.0
  0
LINE
  5
445
330
1E
100
AcDbEntity
  8
0
  6
CONTINUOUS
 62
     1
100
AcDbLine
 10
-234.4627
 20
69.1319
 30
0.0
 11
-219.2856499999999
 21
69.1319
 31
0.0
  0
LINE
  5
446
330
1E
100
AcDbEntity
  8
0
  6
CONTINUOUS
 62
     1
100
AcDbLine
 10
-204.0396499999999
 20
69.1319
 30
0.0
 11
-171.9317
 21
69.1319
 31
0.0
  0
LINE
  5
447
330
1E
100
AcDbEntity
  8
0
  6
CONTINUOUS
 62
     1
100
AcDbLine
 10
-219.2856499999999
 20
84.1319
 30
0.0
 11
-204.0396499999999
 21
84.1319
 31
0.0
  0
LINE
  5
448
330
1E
100
AcDbEntity
  8
0
  6
CONTINUOUS
 62
     1
100
AcDbLine
 10
-234.4627
 20
84.1319
 30
0.0
 11
-219.2856499999999
 21
84.1319
 31
0.0
  0
LINE
  5
449
330
1E
100
AcDbEntity
  8
0
  6
CONTINUOUS
 62
     1
100
AcDbLine
 10
-204.0396499999999
 20
84.1319
 30
0.0
 11
-171.9317
 21
84.1319
 31
0.0
  0
LINE
  5
44A
330
1E
100
AcDbEntity
  8
0
  6
CONTINUOUS
 62
     7
100
AcDbLine
 10
-246.9587
 20
49.8819
 30
0.0
 11
-246.9587
 21
54.12755
 31
0.0
  0
LINE
  5
44B
330
1E
100
AcDbEntity
  8
0
  6
CONTINUOUS
 62
     7
100
AcDbLine
 10
-237.9586999999999
 20
54.12755
 30
0.0
 11
-247.7587
 21
54.12755
 31
0.0
  0
LINE
  5
44C
330
1E
100
AcDbEntity
  8
0
  6
CONTINUOUS
 62
     7
100
AcDbLine
 10
-243.4255999999999
 20
49.8819
 30
0.0
 11
-247.7587
 21
49.8819
 31
0.0
  0
LINE
  5
44D
330
1E
100
AcDbEntity
  8
0
  6
CONTINUOUS
 62
     7
100
AcDbLine
 10
-246.6364599999999
 20
52.92699999999999
 30
0.0
 11
-246.958
 21
54.127
 31
0.0
  0
LINE
  5
44E
330
1E
100
AcDbEntity
  8
0
  6
CONTINUOUS
 62
     7
100
AcDbLine
 10
-246.958
 20
54.127
 30
0.0
 11
-247.27953
 21
52.92699999999999
 31
0.0
  0
LINE
  5
44F
330
1E
100
AcDbEntity
  8
0
  6
CONTINUOUS
 62
     7
100
AcDbLine
 10
-247.27953
 20
51.081
 30
0.0
 11
-246.958
 21
49.881
 31
0.0
  0
LINE
  5
450
330
1E
100
AcDbEntity
  8
0
  6
CONTINUOUS
 62
     7
100
AcDbLine
 10
-246.958
 20
49.881
 30
0.0
 11
-246.6364599999999
 21
51.081
 31
0.0
  0
TEXT
  5
451
330
1E
100
AcDbEntity
  8
0
  6
CONTINUOUS
 62
     7
100
AcDbText
 10
-247.3587
 20
49.66472
 30
0.0
 40
3.2
  1
85
 50
90.0
 41
0.8125
  7
BIGFONT
100
AcDbText
  0
LINE
  5
452
330
1E
100
AcDbEntity
  8
0
  6
CONTINUOUS
 62
     7
100
AcDbLine
 10
-246.9587
 20
54.12755
 30
0.0
 11
-246.9587
 21
84.1305
 31
0.0
  0
LINE
  5
453
330
1E
100
AcDbEntity
  8
0
  6
CONTINUOUS
 62
     7
100
AcDbLine
 10
-237.8086999999999
 20
84.1305
 30
0.0
 11
-247.7587
 21
84.1305
 31
0.0
  0
LINE
  5
454
330
1E
100
AcDbEntity
  8
0
  6
CONTINUOUS
 62
     7
100
AcDbLine
 10
-246.6364599999999
 20
82.93000000000002
 30
0.0
 11
-246.958
 21
84.13
 31
0.0
  0
LINE
  5
455
330
1E
100
AcDbEntity
  8
0
  6
CONTINUOUS
 62
     7
100
AcDbLine
 10
-246.958
 20
84.13
 30
0.0
 11
-247.27953
 21
82.93000000000002
 31
0.0
  0
LINE
  5
456
330
1E
100
AcDbEntity
  8
0
  6
CONTINUOUS
 62
     7
100
AcDbLine
 10
-247.27953
 20
55.327
 30
0.0
 11
-246.958
 21
54.127
 31
0.0
  0
LINE
  5
457
330
1E
100
AcDbEntity
  8
0
  6
CONTINUOUS
 62
     7
100
AcDbLine
 10
-246.958
 20
54.127
 30
0.0
 11
-246.6364599999999
 21
55.327
 31
0.0
  0
LINE
  5
458
330
1E
100
AcDbEntity
  8
0
  6
CONTINUOUS
 62
     7
100
AcDbLine
 10
-208.89855
 20
84.15945
 30
0.0
 11
-208.89855
 21
69.1319
 31
0.0
  0
LINE
  5
459
330
1E
100
AcDbEntity
  8
0
  6
CONTINUOUS
 62
     7
100
AcDbLine
 10
-209.2195299999999
 20
70.33100000000001
 30
0.0
 11
-208.8979999999998
 21
69.131
 31
0.0
  0
LINE
  5
45A
330
1E
100
AcDbEntity
  8
0
  6
CONTINUOUS
 62
     7
100
AcDbLine
 10
-208.8979999999998
 20
69.131
 30
0.0
 11
-208.57646
 21
70.33100000000001
 31
0.0
  0
LINE
  5
45B
330
1E
100
AcDbEntity
  8
0
  6
CONTINUOUS
 62
     7
100
AcDbLine
 10
-208.89855
 20
102.08055
 30
0.0
 11
-208.89855
 21
84.13045
 31
0.0
  0
LINE
  5
45C
330
1E
100
AcDbEntity
  8
0
  6
CONTINUOUS
 62
     7
100
AcDbLine
 10
-209.2195299999999
 20
85.32999999999999
 30
0.0
 11
-208.8979999999998
 21
84.13
 31
0.0
  0
LINE
  5
45D
330
1E
100
AcDbEntity
  8
0
  6
CONTINUOUS
 62
     7
100
AcDbLine
 10
-208.8979999999998
 20
84.13
 30
0.0
 11
-208.57646
 21
85.32999999999999
 31
0.0
  0
POINT
  5
45E
330
1E
100
AcDbEntity
  8
0
  6
CONTINUOUS
 62
     1
100
AcDbPoint
 10
34.7222
 20
69.1319
 30
0.0
  0
TEXT
  5
45F
330
1E
100
AcDbEntity
  8
0
  6
CONTINUOUS
 62
     7
100
AcDbText
 10
-113.6403
 20
-24.7838
 30
0.0
 40
3.2
  1
55
  7
BIGFONT
100
AcDbText
  0
TEXT
  5
460
330
1E
100
AcDbEntity
  8
0
  6
CONTINUOUS
 62
     7
100
AcDbText
 10
-105.56915
 20
-24.73745
 30
0.0
 40
3.2
  1
19
  7
BIGFONT
100
AcDbText
  0
LINE
  5
461
330
1E
100
AcDbEntity
  8
0
  6
CONTINUOUS
 62
     7
100
AcDbLine
 10
-103.2146
 20
-32.20915
 30
0.0
 11
-103.2146
 21
-24.44354999999999
 31
0.0
  0
POINT
  5
462
330
1E
100
AcDbEntity
  8
0
  6
CONTINUOUS
 62
     7
100
AcDbPoint
 10
-103.2146
 20
-25.23345
 30
0.0
  0
LINE
  5
463
330
1E
100
AcDbEntity
  8
0
  6
CONTINUOUS
 62
     7
100
AcDbLine
 10
-106.9091999999999
 20
-25.23345
 30
0.0
 11
-103.2471499999999
 21
-25.23345
 31
0.0
  0
LINE
  5
464
330
1E
100
AcDbEntity
  8
0
  6
CONTINUOUS
 62
     7
100
AcDbLine
 10
-28.45919999999999
 20
-63.31459999999999
 30
0.0
 11
-40.97855
 21
-63.31459999999999
 31
0.0
  0
LINE
  5
465
330
1E
100
AcDbEntity
  8
0
  6
CONTINUOUS
 62
     7
100
AcDbLine
 10
-39.778
 20
-62.99246
 30
0.0
 11
-40.978
 21
-63.31399999999999
 31
0.0
  0
LINE
  5
466
330
1E
100
AcDbEntity
  8
0
  6
CONTINUOUS
 62
     7
100
AcDbLine
 10
-40.978
 20
-63.31399999999999
 30
0.0
 11
-39.778
 21
-63.63553
 31
0.0
  0
LINE
  5
467
330
1E
100
AcDbEntity
  8
0
  6
CONTINUOUS
 62
     7
100
AcDbLine
 10
-75.95919999999998
 20
-110.73345
 30
0.0
 11
-75.95919999999998
 21
-98.23345000000001
 31
0.0
  0
LINE
  5
468
330
1E
100
AcDbEntity
  8
0
  6
CONTINUOUS
 62
     7
100
AcDbLine
 10
-75.63746
 20
-99.433
 30
0.0
 11
-75.959
 21
-98.23300000000001
 31
0.0
  0
LINE
  5
469
330
1E
100
AcDbEntity
  8
0
  6
CONTINUOUS
 62
     7
100
AcDbLine
 10
-75.959
 20
-98.23300000000001
 30
0.0
 11
-76.28053
 21
-99.433
 31
0.0
  0
POINT
  5
46A
330
1E
100
AcDbEntity
  8
0
  6
CONTINUOUS
 62
     1
100
AcDbPoint
 10
57.1633
 20
53.1819
 30
0.0
  0
POINT
  5
46B
330
1E
100
AcDbEntity
  8
0
  6
CONTINUOUS
 62
     7
100
AcDbPoint
 10
67.16330000000001
 20
53.1819
 30
0.0
  0
POINT
  5
46C
330
1E
100
AcDbEntity
  8
0
  6
CONTINUOUS
 62
     1
100
AcDbPoint
 10
77.16330000000002
 20
53.1819
 30
0.0
  0
LINE
  5
46D
330
1E
100
AcDbEntity
  8
0
  6
CONTINUOUS
 62
     1
100
AcDbLine
 10
43.06329999999999
 20
53.6319
 30
0.0
 11
83.5133
 21
53.6319
 31
0.0
  0
LINE
  5
46E
330
1E
100
AcDbEntity
  8
0
  6
CONTINUOUS
 62
     7
100
AcDbLine
 10
83.18755000000001
 20
53.6319
 30
0.0
 11
83.5133
 21
53.6319
 31
0.0
  0
LINE
  5
46F
330
1E
100
AcDbEntity
  8
0
  6
CONTINUOUS
 62
     7
100
AcDbLine
 10
-236.9587
 20
32.5
 30
0.0
 11
-234.4670499999998
 21
32.5
 31
0.0
  0
LINE
  5
470
330
1E
100
AcDbEntity
  8
0
  6
CONTINUOUS
 62
     7
100
AcDbLine
 10
-234.4670499999998
 20
48.8819
 30
0.0
 11
-234.4670499999998
 21
31.69999999999999
 31
0.0
  0
LINE
  5
471
330
1E
100
AcDbEntity
  8
0
  6
CONTINUOUS
 62
     7
100
AcDbLine
 10
-236.9587
 20
38.723
 30
0.0
 11
-236.9587
 21
31.69999999999999
 31
0.0
  0
LINE
  5
472
330
1E
100
AcDbEntity
  8
0
  6
CONTINUOUS
 62
     7
100
AcDbLine
 10
-232.0670499999999
 20
32.5
 30
0.0
 11
-234.4670499999998
 21
32.5
 31
0.0
  0
LINE
  5
473
330
1E
100
AcDbEntity
  8
0
  6
CONTINUOUS
 62
     7
100
AcDbLine
 10
-233.2669999999999
 20
32.82152999999999
 30
0.0
 11
-234.467
 21
32.5
 31
0.0
  0
LINE
  5
474
330
1E
100
AcDbEntity
  8
0
  6
CONTINUOUS
 62
     7
100
AcDbLine
 10
-234.467
 20
32.5
 30
0.0
 11
-233.2669999999999
 21
32.17846
 31
0.0
  0
LINE
  5
475
330
1E
100
AcDbEntity
  8
0
  6
CONTINUOUS
 62
     7
100
AcDbLine
 10
-236.9587
 20
32.5
 30
0.0
 11
-239.3587
 21
32.5
 31
0.0
  0
LINE
  5
476
330
1E
100
AcDbEntity
  8
0
  6
CONTINUOUS
 62
     7
100
AcDbLine
 10
-238.158
 20
32.17846
 30
0.0
 11
-236.958
 21
32.5
 31
0.0
  0
LINE
  5
477
330
1E
100
AcDbEntity
  8
0
  6
CONTINUOUS
 62
     7
100
AcDbLine
 10
-236.958
 20
32.5
 30
0.0
 11
-238.158
 21
32.82152999999999
 31
0.0
  0
LINE
  5
478
330
1E
100
AcDbEntity
  8
0
  6
CONTINUOUS
 62
     7
100
AcDbLine
 10
-239.3587
 20
32.5
 30
0.0
 11
-243.9786999999999
 21
32.5
 31
0.0
  0
TEXT
  5
479
330
1E
100
AcDbEntity
  8
0
  6
CONTINUOUS
 62
     7
100
AcDbText
 10
-243.9786999999999
 20
32.9
 30
0.0
 40
3.2
  1
50
 41
0.8125
  7
BIGFONT
100
AcDbText
  0
LINE
  5
47A
330
1E
100
AcDbEntity
  8
0
  6
CONTINUOUS
 62
     7
100
AcDbLine
 10
-234.4670499999998
 20
32.5
 30
0.0
 11
-184.44775
 21
32.5
 31
0.0
  0
LINE
  5
47B
330
1E
100
AcDbEntity
  8
0
  6
CONTINUOUS
 62
     7
100
AcDbLine
 10
-184.44775
 20
48.8819
 30
0.0
 11
-184.44775
 21
31.69999999999999
 31
0.0
  0
LINE
  5
47C
330
1E
100
AcDbEntity
  8
0
  6
CONTINUOUS
 62
     7
100
AcDbLine
 10
-185.6469999999999
 20
32.17846
 30
0.0
 11
-184.447
 21
32.5
 31
0.0
  0
LINE
  5
47D
330
1E
100
AcDbEntity
  8
0
  6
CONTINUOUS
 62
     7
100
AcDbLine
 10
-184.447
 20
32.5
 30
0.0
 11
-185.6469999999999
 21
32.82152999999999
 31
0.0
  0
LINE
  5
47E
330
1E
100
AcDbEntity
  8
0
  6
CONTINUOUS
 62
     7
100
AcDbLine
 10
-233.2669999999999
 20
32.82152999999999
 30
0.0
 11
-234.467
 21
32.5
 31
0.0
  0
LINE
  5
47F
330
1E
100
AcDbEntity
  8
0
  6
CONTINUOUS
 62
     7
100
AcDbLine
 10
-234.467
 20
32.5
 30
0.0
 11
-233.2669999999999
 21
32.17846
 31
0.0
  0
LINE
  5
480
330
1E
100
AcDbEntity
  8
0
  6
CONTINUOUS
 62
     1
100
AcDbLine
 10
-173.1627
 20
52.1319
 30
0.0
 11
-173.1627
 21
94.88190000000001
 31
0.0
  0
LINE
  5
481
330
1E
100
AcDbEntity
  8
0
  6
CONTINUOUS
 62
     7
100
AcDbLine
 10
-159.06715
 20
89.81619999999997
 30
0.0
 11
-173.1627
 21
89.81619999999997
 31
0.0
  0
LINE
  5
482
330
1E
100
AcDbEntity
  8
0
  6
CONTINUOUS
 62
     7
100
AcDbLine
 10
-171.9619999999999
 20
90.13752999999999
 30
0.0
 11
-173.162
 21
89.816
 31
0.0
  0
LINE
  5
483
330
1E
100
AcDbEntity
  8
0
  6
CONTINUOUS
 62
     7
100
AcDbLine
 10
-173.162
 20
89.816
 30
0.0
 11
-171.9619999999999
 21
89.49446
 31
0.0
  0
LINE
  5
484
330
1E
100
AcDbEntity
  8
0
  6
CONTINUOUS
 62
     7
100
AcDbLine
 10
-159.1279499999999
 20
60.28439999999999
 30
0.0
 11
-193.9707
 21
60.28439999999999
 31
0.0
  0
LINE
  5
485
330
1E
100
AcDbEntity
  8
0
  6
CONTINUOUS
 62
     7
100
AcDbLine
 10
-192.77
 20
60.60553
 30
0.0
 11
-193.97
 21
60.284
 31
0.0
  0
LINE
  5
486
330
1E
100
AcDbEntity
  8
0
  6
CONTINUOUS
 62
     7
100
AcDbLine
 10
-193.97
 20
60.284
 30
0.0
 11
-192.77
 21
59.96246
 31
0.0
  0
LINE
  5
487
330
1E
100
AcDbEntity
  8
0
  6
CONTINUOUS
 62
     1
100
AcDbLine
 10
-42.16194999999999
 20
52.1319
 30
0.0
 11
-42.16194999999999
 21
122.3818999999999
 31
0.0
  0
LINE
  5
488
330
1E
100
AcDbEntity
  8
0
  6
CONTINUOUS
 62
     1
100
AcDbLine
 10
-103.46195
 20
52.6319
 30
0.0
 11
-42.16194999999999
 21
52.6319
 31
0.0
  0
LINE
  5
489
330
1E
100
AcDbEntity
  8
0
  6
CONTINUOUS
 62
     1
100
AcDbLine
 10
-103.46195
 20
122.3818999999999
 30
0.0
 11
-42.16194999999999
 21
122.3818999999999
 31
0.0
  0
LINE
  5
48A
330
1E
100
AcDbEntity
  8
0
  6
CONTINUOUS
 62
     7
100
AcDbLine
 10
-28.37474999999999
 20
85.01229999999997
 30
0.0
 11
-42.16194999999999
 21
85.01229999999997
 31
0.0
  0
LINE
  5
48B
330
1E
100
AcDbEntity
  8
0
  6
CONTINUOUS
 62
     7
100
AcDbLine
 10
-40.96099999999998
 20
85.33353000000003
 30
0.0
 11
-42.16099999999999
 21
85.012
 31
0.0
  0
LINE
  5
48C
330
1E
100
AcDbEntity
  8
0
  6
CONTINUOUS
 62
     7
100
AcDbLine
 10
-42.16099999999999
 20
85.012
 30
0.0
 11
-40.96099999999998
 21
84.69046
 31
0.0
  0
LINE
  5
48D
330
1E
100
AcDbEntity
  8
0
  6
CONTINUOUS
 62
     7
100
AcDbLine
 10
60.3641
 20
40.01834999999998
 30
0.0
 11
57.0633
 21
52.55510000000001
 31
0.0
  0
LINE
  5
48E
330
1E
100
AcDbEntity
  8
0
  6
CONTINUOUS
 62
     7
100
AcDbLine
 10
57.67946999999999
 20
51.47641
 30
0.0
 11
57.063
 21
52.555
 31
0.0
  0
LINE
  5
48F
330
1E
100
AcDbEntity
  8
0
  6
CONTINUOUS
 62
     7
100
AcDbLine
 10
57.063
 20
52.555
 30
0.0
 11
57.063
 21
51.31268
 31
0.0
  0
LINE
  5
490
330
1E
100
AcDbEntity
  8
0
  6
CONTINUOUS
 62
     7
100
AcDbLine
 10
60.3641
 20
40.01834999999998
 30
0.0
 11
51.47594999999999
 21
52.1069
 31
0.0
  0
LINE
  5
491
330
1E
100
AcDbEntity
  8
0
  6
CONTINUOUS
 62
     7
100
AcDbLine
 10
52.44489
 20
51.32965999999999
 30
0.0
 11
51.475
 21
52.106
 31
0.0
  0
LINE
  5
492
330
1E
100
AcDbEntity
  8
0
  6
CONTINUOUS
 62
     7
100
AcDbLine
 10
51.475
 20
52.106
 30
0.0
 11
51.92678
 21
50.94872999999999
 31
0.0
  0
LINE
  5
493
330
1E
100
AcDbEntity
  8
0
  6
CONTINUOUS
 62
     7
100
AcDbLine
 10
-221.9499
 20
-25.23345
 30
0.0
 11
-171.9418
 21
-25.23345
 31
0.0
  0
LINE
  5
494
330
1E
100
AcDbEntity
  8
0
  6
CONTINUOUS
 62
     7
100
AcDbLine
 10
-171.9418
 20
-32.23345
 30
0.0
 11
-171.9418
 21
-24.43345
 31
0.0
  0
LINE
  5
495
330
1E
100
AcDbEntity
  8
0
  6
CONTINUOUS
 62
     7
100
AcDbLine
 10
-221.9499
 20
-32.23345
 30
0.0
 11
-221.9499
 21
-24.43345
 31
0.0
  0
LINE
  5
496
330
1E
100
AcDbEntity
  8
0
  6
CONTINUOUS
 62
     7
100
AcDbLine
 10
-173.1409999999999
 20
-25.55452999999999
 30
0.0
 11
-171.9409999999999
 21
-25.233
 31
0.0
  0
LINE
  5
497
330
1E
100
AcDbEntity
  8
0
  6
CONTINUOUS
 62
     7
100
AcDbLine
 10
-171.9409999999999
 20
-25.233
 30
0.0
 11
-173.1409999999999
 21
-24.91146
 31
0.0
  0
LINE
  5
498
330
1E
100
AcDbEntity
  8
0
  6
CONTINUOUS
 62
     7
100
AcDbLine
 10
-220.7489999999999
 20
-24.91146
 30
0.0
 11
-221.9489999999999
 21
-25.233
 31
0.0
  0
LINE
  5
499
330
1E
100
AcDbEntity
  8
0
  6
CONTINUOUS
 62
     7
100
AcDbLine
 10
-221.9489999999999
 20
-25.233
 30
0.0
 11
-220.7489999999999
 21
-25.55452999999999
 31
0.0
  0
LINE
  5
49A
330
1E
100
AcDbEntity
  8
0
  6
CONTINUOUS
 62
     7
100
AcDbLine
 10
-171.9418
 20
-25.23345
 30
0.0
 11
-169.4587
 21
-25.23345
 31
0.0
  0
LINE
  5
49B
330
1E
100
AcDbEntity
  8
0
  6
CONTINUOUS
 62
     7
100
AcDbLine
 10
-169.4587
 20
-27.72655
 30
0.0
 11
-169.4587
 21
-24.43345
 31
0.0
  0
LINE
  5
49C
330
1E
100
AcDbEntity
  8
0
  6
CONTINUOUS
 62
     7
100
AcDbLine
 10
-167.0586999999999
 20
-25.23345
 30
0.0
 11
-169.4587
 21
-25.23345
 31
0.0
  0
LINE
  5
49D
330
1E
100
AcDbEntity
  8
0
  6
CONTINUOUS
 62
     7
100
AcDbLine
 10
-168.2579999999999
 20
-24.91146
 30
0.0
 11
-169.458
 21
-25.233
 31
0.0
  0
LINE
  5
49E
330
1E
100
AcDbEntity
  8
0
  6
CONTINUOUS
 62
     7
100
AcDbLine
 10
-169.458
 20
-25.233
 30
0.0
 11
-168.2579999999999
 21
-25.55452999999999
 31
0.0
  0
LINE
  5
49F
330
1E
100
AcDbEntity
  8
0
  6
CONTINUOUS
 62
     7
100
AcDbLine
 10
-171.9418
 20
-25.23345
 30
0.0
 11
-174.3418
 21
-25.23345
 31
0.0
  0
LINE
  5
4A0
330
1E
100
AcDbEntity
  8
0
  6
CONTINUOUS
 62
     7
100
AcDbLine
 10
-173.1409999999999
 20
-25.55452999999999
 30
0.0
 11
-171.9409999999999
 21
-25.233
 31
0.0
  0
LINE
  5
4A1
330
1E
100
AcDbEntity
  8
0
  6
CONTINUOUS
 62
     7
100
AcDbLine
 10
-171.9409999999999
 20
-25.233
 30
0.0
 11
-173.1409999999999
 21
-24.91146
 31
0.0
  0
LINE
  5
4A2
330
1E
100
AcDbEntity
  8
0
  6
CONTINUOUS
 62
     7
100
AcDbLine
 10
-167.0586999999999
 20
-25.23345
 30
0.0
 11
-163.2187
 21
-25.23345
 31
0.0
  0
TEXT
  5
4A3
330
1E
100
AcDbEntity
  8
0
  6
CONTINUOUS
 62
     7
100
AcDbText
 10
-168.4187
 20
-24.83344999999999
 30
0.0
 40
3.2
  1
50
 41
0.8125
  7
BIGFONT
100
AcDbText
  0
LINE
  5
4A4
330
1E
100
AcDbEntity
  8
0
  6
CONTINUOUS
 62
     7
100
AcDbLine
 10
-225.0837
 20
-110.73345
 30
0.0
 11
-225.0837
 21
-97.73345
 31
0.0
  0
LINE
  5
4A5
330
1E
100
AcDbEntity
  8
0
  6
CONTINUOUS
 62
     7
100
AcDbLine
 10
-224.7614599999999
 20
-98.93300000000001
 30
0.0
 11
-225.083
 21
-97.73299999999998
 31
0.0
  0
LINE
  5
4A6
330
1E
100
AcDbEntity
  8
0
  6
CONTINUOUS
 62
     7
100
AcDbLine
 10
-225.083
 20
-97.73299999999998
 30
0.0
 11
-225.40453
 21
-98.93300000000001
 31
0.0
  0
LINE
  5
4A7
330
1E
100
AcDbEntity
  8
0
  6
CONTINUOUS
 62
     7
100
AcDbLine
 10
-207.6485499999999
 20
-110.7293499999999
 30
0.0
 11
-207.6485499999999
 21
-98.22585
 31
0.0
  0
LINE
  5
4A8
330
1E
100
AcDbEntity
  8
0
  6
CONTINUOUS
 62
     7
100
AcDbLine
 10
-207.3264599999999
 20
-99.425
 30
0.0
 11
-207.648
 21
-98.22499999999999
 31
0.0
  0
LINE
  5
4A9
330
1E
100
AcDbEntity
  8
0
  6
CONTINUOUS
 62
     7
100
AcDbLine
 10
-207.648
 20
-98.22499999999999
 30
0.0
 11
-207.96953
 21
-99.425
 31
0.0
  0
LINE
  5
4AA
330
1E
100
AcDbEntity
  8
0
  6
CONTINUOUS
 62
     7
100
AcDbLine
 10
-159.1197
 20
-63.28655
 30
0.0
 11
-171.9883
 21
-63.28655
 31
0.0
  0
LINE
  5
4AB
330
1E
100
AcDbEntity
  8
0
  6
CONTINUOUS
 62
     7
100
AcDbLine
 10
-170.7879999999998
 20
-62.96445999999999
 30
0.0
 11
-171.988
 21
-63.286
 31
0.0
  0
LINE
  5
4AC
330
1E
100
AcDbEntity
  8
0
  6
CONTINUOUS
 62
     7
100
AcDbLine
 10
-171.988
 20
-63.286
 30
0.0
 11
-170.7879999999998
 21
-63.60753
 31
0.0
  0
LINE
  5
4AD
330
1E
100
AcDbEntity
  8
0
  6
CONTINUOUS
 62
     7
100
AcDbLine
 10
-207.6485499999999
 20
-68.23345
 30
0.0
 11
-207.6485499999999
 21
-58.23344999999999
 31
0.0
  0
LINE
  5
4AE
330
1E
100
AcDbEntity
  8
0
  6
CONTINUOUS
 62
     7
100
AcDbLine
 10
-207.3264599999999
 20
-59.433
 30
0.0
 11
-207.648
 21
-58.23299999999999
 31
0.0
  0
LINE
  5
4AF
330
1E
100
AcDbEntity
  8
0
  6
CONTINUOUS
 62
     7
100
AcDbLine
 10
-207.648
 20
-58.23299999999999
 30
0.0
 11
-207.96953
 21
-59.433
 31
0.0
  0
LINE
  5
4B0
330
1E
100
AcDbEntity
  8
0
  6
CONTINUOUS
 62
     7
100
AcDbLine
 10
-207.6485499999999
 20
-58.23344999999999
 30
0.0
 11
-207.6485499999999
 21
-48.23344999999999
 31
0.0
  0
LINE
  5
4B1
330
1E
100
AcDbEntity
  8
0
  6
CONTINUOUS
 62
     7
100
AcDbLine
 10
-207.3264599999999
 20
-49.433
 30
0.0
 11
-207.648
 21
-48.23299999999999
 31
0.0
  0
LINE
  5
4B2
330
1E
100
AcDbEntity
  8
0
  6
CONTINUOUS
 62
     7
100
AcDbLine
 10
-207.648
 20
-48.23299999999999
 30
0.0
 11
-207.96953
 21
-49.433
 31
0.0
  0
LINE
  5
4B3
330
1E
100
AcDbEntity
  8
0
  6
CONTINUOUS
 62
     7
100
AcDbLine
 10
-201.9587
 20
-63.28655
 30
0.0
 11
-211.9587
 21
-63.28655
 31
0.0
  0
LINE
  5
4B4
330
1E
100
AcDbEntity
  8
0
  6
CONTINUOUS
 62
     7
100
AcDbLine
 10
-210.758
 20
-62.96445999999999
 30
0.0
 11
-211.958
 21
-63.286
 31
0.0
  0
LINE
  5
4B5
330
1E
100
AcDbEntity
  8
0
  6
CONTINUOUS
 62
     7
100
AcDbLine
 10
-211.958
 20
-63.286
 30
0.0
 11
-210.758
 21
-63.60753
 31
0.0
  0
LINE
  5
4B6
330
1E
100
AcDbEntity
  8
0
  6
CONTINUOUS
 62
     7
100
AcDbLine
 10
-211.9587
 20
-63.28655
 30
0.0
 11
-221.9587
 21
-63.28655
 31
0.0
  0
LINE
  5
4B7
330
1E
100
AcDbEntity
  8
0
  6
CONTINUOUS
 62
     7
100
AcDbLine
 10
-220.7579999999999
 20
-62.96445999999999
 30
0.0
 11
-221.958
 21
-63.286
 31
0.0
  0
LINE
  5
4B8
330
1E
100
AcDbEntity
  8
0
  6
CONTINUOUS
 62
     7
100
AcDbLine
 10
-221.958
 20
-63.286
 30
0.0
 11
-220.7579999999999
 21
-63.60753
 31
0.0
  0
LINE
  5
4B9
330
1E
100
AcDbEntity
  8
0
  6
CONTINUOUS
 62
     7
100
AcDbLine
 10
-75.95919999999998
 20
-41.98344999999997
 30
0.0
 11
-75.95919999999998
 21
-36.93345
 31
0.0
  0
LINE
  5
4BA
330
1E
100
AcDbEntity
  8
0
  6
CONTINUOUS
 62
     7
100
AcDbLine
 10
-75.63746
 20
-38.133
 30
0.0
 11
-75.959
 21
-36.933
 31
0.0
  0
LINE
  5
4BB
330
1E
100
AcDbEntity
  8
0
  6
CONTINUOUS
 62
     7
100
AcDbLine
 10
-75.959
 20
-36.933
 30
0.0
 11
-76.28053
 21
-38.133
 31
0.0
  0
LINE
  5
4BC
330
1E
100
AcDbEntity
  8
0
  6
CONTINUOUS
 62
     7
100
AcDbLine
 10
-75.95919999999998
 20
-48.23344999999999
 30
0.0
 11
-75.95919999999998
 21
-41.82699999999999
 31
0.0
  0
LINE
  5
4BD
330
1E
100
AcDbEntity
  8
0
  6
CONTINUOUS
 62
     7
100
AcDbLine
 10
-75.63746
 20
-43.027
 30
0.0
 11
-75.959
 21
-41.82699999999999
 31
0.0
  0
LINE
  5
4BE
330
1E
100
AcDbEntity
  8
0
  6
CONTINUOUS
 62
     7
100
AcDbLine
 10
-75.959
 20
-41.82699999999999
 30
0.0
 11
-76.28053
 21
-43.027
 31
0.0
  0
LINE
  5
4BF
330
1E
100
AcDbEntity
  8
0
  6
CONTINUOUS
 62
     7
100
AcDbLine
 10
-75.95919999999998
 20
-58.23344999999999
 30
0.0
 11
-75.95919999999998
 21
-48.23344999999999
 31
0.0
  0
LINE
  5
4C0
330
1E
100
AcDbEntity
  8
0
  6
CONTINUOUS
 62
     7
100
AcDbLine
 10
-75.63746
 20
-49.433
 30
0.0
 11
-75.959
 21
-48.23299999999999
 31
0.0
  0
LINE
  5
4C1
330
1E
100
AcDbEntity
  8
0
  6
CONTINUOUS
 62
     7
100
AcDbLine
 10
-75.959
 20
-48.23299999999999
 30
0.0
 11
-76.28053
 21
-49.433
 31
0.0
  0
LINE
  5
4C2
330
1E
100
AcDbEntity
  8
0
  6
CONTINUOUS
 62
     7
100
AcDbLine
 10
-75.95919999999998
 20
-68.23345
 30
0.0
 11
-75.95919999999998
 21
-58.23344999999999
 31
0.0
  0
LINE
  5
4C3
330
1E
100
AcDbEntity
  8
0
  6
CONTINUOUS
 62
     7
100
AcDbLine
 10
-75.63746
 20
-59.433
 30
0.0
 11
-75.959
 21
-58.23299999999999
 31
0.0
  0
LINE
  5
4C4
330
1E
100
AcDbEntity
  8
0
  6
CONTINUOUS
 62
     7
100
AcDbLine
 10
-75.959
 20
-58.23299999999999
 30
0.0
 11
-76.28053
 21
-59.433
 31
0.0
  0
LINE
  5
4C5
330
1E
100
AcDbEntity
  8
0
  6
CONTINUOUS
 62
     7
100
AcDbLine
 10
-75.95919999999998
 20
-78.23345
 30
0.0
 11
-75.95919999999998
 21
-68.23345
 31
0.0
  0
LINE
  5
4C6
330
1E
100
AcDbEntity
  8
0
  6
CONTINUOUS
 62
     7
100
AcDbLine
 10
-75.63746
 20
-69.433
 30
0.0
 11
-75.959
 21
-68.233
 31
0.0
  0
LINE
  5
4C7
330
1E
100
AcDbEntity
  8
0
  6
CONTINUOUS
 62
     7
100
AcDbLine
 10
-75.959
 20
-68.233
 30
0.0
 11
-76.28053
 21
-69.433
 31
0.0
  0
LINE
  5
4C8
330
1E
100
AcDbEntity
  8
0
  6
CONTINUOUS
 62
     7
100
AcDbLine
 10
-75.95919999999998
 20
-88.23345000000001
 30
0.0
 11
-75.95919999999998
 21
-78.23345
 31
0.0
  0
LINE
  5
4C9
330
1E
100
AcDbEntity
  8
0
  6
CONTINUOUS
 62
     7
100
AcDbLine
 10
-75.63746
 20
-79.433
 30
0.0
 11
-75.959
 21
-78.233
 31
0.0
  0
LINE
  5
4CA
330
1E
100
AcDbEntity
  8
0
  6
CONTINUOUS
 62
     7
100
AcDbLine
 10
-75.959
 20
-78.233
 30
0.0
 11
-76.28053
 21
-79.433
 31
0.0
  0
LINE
  5
4CB
330
1E
100
AcDbEntity
  8
0
  6
CONTINUOUS
 62
     7
100
AcDbLine
 10
-75.95919999999998
 20
-98.23345000000001
 30
0.0
 11
-75.95919999999998
 21
-88.23345000000001
 31
0.0
  0
LINE
  5
4CC
330
1E
100
AcDbEntity
  8
0
  6
CONTINUOUS
 62
     7
100
AcDbLine
 10
-75.63746
 20
-89.43299999999998
 30
0.0
 11
-75.959
 21
-88.23300000000001
 31
0.0
  0
LINE
  5
4CD
330
1E
100
AcDbEntity
  8
0
  6
CONTINUOUS
 62
     7
100
AcDbLine
 10
-75.959
 20
-88.23300000000001
 30
0.0
 11
-76.28053
 21
-89.43299999999998
 31
0.0
  0
LINE
  5
4CE
330
1E
100
AcDbEntity
  8
0
  6
CONTINUOUS
 62
     7
100
AcDbLine
 10
-97.20919999999999
 20
-63.33515
 30
0.0
 11
-102.2592
 21
-63.33515
 31
0.0
  0
LINE
  5
4CF
330
1E
100
AcDbEntity
  8
0
  6
CONTINUOUS
 62
     7
100
AcDbLine
 10
-101.059
 20
-63.01345999999998
 30
0.0
 11
-102.259
 21
-63.335
 31
0.0
  0
LINE
  5
4D0
330
1E
100
AcDbEntity
  8
0
  6
CONTINUOUS
 62
     7
100
AcDbLine
 10
-102.259
 20
-63.335
 30
0.0
 11
-101.059
 21
-63.65653
 31
0.0
  0
LINE
  5
4D1
330
1E
100
AcDbEntity
  8
0
  6
CONTINUOUS
 62
     7
100
AcDbLine
 10
-90.95919999999999
 20
-63.33515
 30
0.0
 11
-97.21575000000001
 21
-63.33515
 31
0.0
  0
LINE
  5
4D2
330
1E
100
AcDbEntity
  8
0
  6
CONTINUOUS
 62
     7
100
AcDbLine
 10
-96.01500000000001
 20
-63.01345999999998
 30
0.0
 11
-97.215
 21
-63.335
 31
0.0
  0
LINE
  5
4D3
330
1E
100
AcDbEntity
  8
0
  6
CONTINUOUS
 62
     7
100
AcDbLine
 10
-97.215
 20
-63.335
 30
0.0
 11
-96.01500000000001
 21
-63.65653
 31
0.0
  0
LINE
  5
4D4
330
1E
100
AcDbEntity
  8
0
  6
CONTINUOUS
 62
     7
100
AcDbLine
 10
-80.95919999999997
 20
-63.33515
 30
0.0
 11
-90.95919999999999
 21
-63.33515
 31
0.0
  0
LINE
  5
4D5
330
1E
100
AcDbEntity
  8
0
  6
CONTINUOUS
 62
     7
100
AcDbLine
 10
-89.75900000000001
 20
-63.01345999999998
 30
0.0
 11
-90.959
 21
-63.335
 31
0.0
  0
LINE
  5
4D6
330
1E
100
AcDbEntity
  8
0
  6
CONTINUOUS
 62
     7
100
AcDbLine
 10
-90.959
 20
-63.335
 30
0.0
 11
-89.75900000000001
 21
-63.65653
 31
0.0
  0
LINE
  5
4D7
330
1E
100
AcDbEntity
  8
0
  6
CONTINUOUS
 62
     7
100
AcDbLine
 10
-70.95919999999998
 20
-63.33515
 30
0.0
 11
-80.95919999999997
 21
-63.33515
 31
0.0
  0
LINE
  5
4D8
330
1E
100
AcDbEntity
  8
0
  6
CONTINUOUS
 62
     7
100
AcDbLine
 10
-79.759
 20
-63.01345999999998
 30
0.0
 11
-80.959
 21
-63.335
 31
0.0
  0
LINE
  5
4D9
330
1E
100
AcDbEntity
  8
0
  6
CONTINUOUS
 62
     7
100
AcDbLine
 10
-80.959
 20
-63.335
 30
0.0
 11
-79.759
 21
-63.65653
 31
0.0
  0
LINE
  5
4DA
330
1E
100
AcDbEntity
  8
0
  6
CONTINUOUS
 62
     7
100
AcDbLine
 10
-60.9592
 20
-63.33515
 30
0.0
 11
-70.95919999999998
 21
-63.33515
 31
0.0
  0
LINE
  5
4DB
330
1E
100
AcDbEntity
  8
0
  6
CONTINUOUS
 62
     7
100
AcDbLine
 10
-69.759
 20
-63.01345999999998
 30
0.0
 11
-70.959
 21
-63.335
 31
0.0
  0
LINE
  5
4DC
330
1E
100
AcDbEntity
  8
0
  6
CONTINUOUS
 62
     7
100
AcDbLine
 10
-70.959
 20
-63.335
 30
0.0
 11
-69.759
 21
-63.65653
 31
0.0
  0
LINE
  5
4DD
330
1E
100
AcDbEntity
  8
0
  6
CONTINUOUS
 62
     7
100
AcDbLine
 10
-50.9592
 20
-63.33515
 30
0.0
 11
-60.9592
 21
-63.33515
 31
0.0
  0
LINE
  5
4DE
330
1E
100
AcDbEntity
  8
0
  6
CONTINUOUS
 62
     7
100
AcDbLine
 10
-59.75899999999999
 20
-63.01345999999998
 30
0.0
 11
-60.959
 21
-63.335
 31
0.0
  0
LINE
  5
4DF
330
1E
100
AcDbEntity
  8
0
  6
CONTINUOUS
 62
     7
100
AcDbLine
 10
-60.959
 20
-63.335
 30
0.0
 11
-59.75899999999999
 21
-63.65653
 31
0.0
  0
LINE
  5
4E0
330
1E
100
AcDbEntity
  8
0
  6
CONTINUOUS
 62
     7
100
AcDbLine
 10
-40.9592
 20
-63.33515
 30
0.0
 11
-50.9592
 21
-63.33515
 31
0.0
  0
LINE
  5
4E1
330
1E
100
AcDbEntity
  8
0
  6
CONTINUOUS
 62
     7
100
AcDbLine
 10
-49.75899999999999
 20
-63.01345999999998
 30
0.0
 11
-50.959
 21
-63.335
 31
0.0
  0
LINE
  5
4E2
330
1E
100
AcDbEntity
  8
0
  6
CONTINUOUS
 62
     7
100
AcDbLine
 10
-50.959
 20
-63.335
 30
0.0
 11
-49.75899999999999
 21
-63.65653
 31
0.0
  0
LINE
  5
4E3
330
1E
100
AcDbEntity
  8
0
  6
CONTINUOUS
 62
     7
100
AcDbLine
 10
-104.4615
 20
-25.23345
 30
0.0
 11
-94.53734999999999
 21
-25.23345
 31
0.0
  0
LINE
  5
4E4
330
1E
100
AcDbEntity
  8
0
  6
CONTINUOUS
 62
     1
100
AcDbLine
 10
-40.9592
 20
-84.69795000000003
 30
0.0
 11
-40.9592
 21
-35.98345
 31
0.0
  0
LINE
  5
4E5
330
1E
100
AcDbEntity
  8
0
  6
CONTINUOUS
 62
     1
100
AcDbLine
 10
-50.9592
 20
-94.69795000000001
 30
0.0
 11
-50.9592
 21
-35.98345
 31
0.0
  0
LINE
  5
4E6
330
1E
100
AcDbEntity
  8
0
  6
CONTINUOUS
 62
     1
100
AcDbLine
 10
-60.9592
 20
-98.23345000000001
 30
0.0
 11
-60.9592
 21
-35.98345
 31
0.0
  0
LINE
  5
4E7
330
1E
100
AcDbEntity
  8
0
  6
CONTINUOUS
 62
     1
100
AcDbLine
 10
-70.95919999999998
 20
-98.23345000000001
 30
0.0
 11
-70.95919999999998
 21
-35.98345
 31
0.0
  0
LINE
  5
4E8
330
1E
100
AcDbEntity
  8
0
  6
CONTINUOUS
 62
     1
100
AcDbLine
 10
-80.95919999999997
 20
-98.23345000000001
 30
0.0
 11
-80.95919999999997
 21
-35.98345
 31
0.0
  0
LINE
  5
4E9
330
1E
100
AcDbEntity
  8
0
  6
CONTINUOUS
 62
     1
100
AcDbLine
 10
-90.95919999999999
 20
-98.23345000000001
 30
0.0
 11
-90.95919999999999
 21
-35.98345
 31
0.0
  0
LINE
  5
4EA
330
1E
100
AcDbEntity
  8
0
  6
CONTINUOUS
 62
     1
100
AcDbLine
 10
-103.2092
 20
-98.23345000000001
 30
0.0
 11
-103.2092
 21
-37.48345
 31
0.0
  0
LINE
  5
4EB
330
1E
100
AcDbEntity
  8
0
  6
CONTINUOUS
 62
     1
100
AcDbLine
 10
-101.7091999999999
 20
-35.98345
 30
0.0
 11
-40.9592
 21
-35.98345
 31
0.0
  0
LINE
  5
4EC
330
1E
100
AcDbEntity
  8
0
  6
CONTINUOUS
 62
     1
100
AcDbLine
 10
-103.2092
 20
-41.98344999999997
 30
0.0
 11
-40.9592
 21
-41.98344999999997
 31
0.0
  0
LINE
  5
4ED
330
1E
100
AcDbEntity
  8
0
  6
CONTINUOUS
 62
     1
100
AcDbLine
 10
-103.2092
 20
-48.23344999999999
 30
0.0
 11
-40.9592
 21
-48.23344999999999
 31
0.0
  0
LINE
  5
4EE
330
1E
100
AcDbEntity
  8
0
  6
CONTINUOUS
 62
     1
100
AcDbLine
 10
-103.2092
 20
-58.23344999999999
 30
0.0
 11
-40.9592
 21
-58.23344999999999
 31
0.0
  0
LINE
  5
4EF
330
1E
100
AcDbEntity
  8
0
  6
CONTINUOUS
 62
     1
100
AcDbLine
 10
-103.2092
 20
-68.23345
 30
0.0
 11
-40.9592
 21
-68.23345
 31
0.0
  0
LINE
  5
4F0
330
1E
100
AcDbEntity
  8
0
  6
CONTINUOUS
 62
     1
100
AcDbLine
 10
-103.2092
 20
-78.23345
 30
0.0
 11
-40.9592
 21
-78.23345
 31
0.0
  0
LINE
  5
4F1
330
1E
100
AcDbEntity
  8
0
  6
CONTINUOUS
 62
     1
100
AcDbLine
 10
-103.2092
 20
-88.23345000000001
 30
0.0
 11
-44.4947
 21
-88.23345000000001
 31
0.0
  0
LINE
  5
4F2
330
1E
100
AcDbEntity
  8
0
  6
CONTINUOUS
 62
     7
100
AcDbLine
 10
-103.2092
 20
-98.23345000000001
 30
0.0
 11
-54.4947
 21
-98.23345000000001
 31
0.0
  0
ARC
  5
4F3
330
1E
100
AcDbEntity
  8
0
  6
CONTINUOUS
 62
     1
100
AcDbCircle
 10
-101.7091999999999
 20
-37.48345
 30
0.0
 40
1.5
100
AcDbArc
 50
90.0
 51
180.0
  0
LINE
  5
4F4
330
1E
100
AcDbEntity
  8
0
  6
CONTINUOUS
 62
     1
100
AcDbLine
 10
-102.2592
 20
-98.23345000000001
 30
0.0
 11
-102.2592
 21
-36.08789999999999
 31
0.0
  0
LINE
  5
4F5
330
1E
100
AcDbEntity
  8
0
  6
CONTINUOUS
 62
     1
100
AcDbLine
 10
-103.1047499999999
 20
-36.93345
 30
0.0
 11
-40.9592
 21
-36.93345
 31
0.0
  0
LINE
  5
4F6
330
1E
100
AcDbEntity
  8
0
  6
CONTINUOUS
 62
     1
100
AcDbLine
 10
-97.20919999999999
 20
-98.23345000000001
 30
0.0
 11
-97.20919999999999
 21
-35.98345
 31
0.0
  0
LINE
  5
4F7
330
1E
100
AcDbEntity
  8
0
  6
CONTINUOUS
 62
     7
100
AcDbLine
 10
-102.2724999999996
 20
-25.23345
 30
0.0
 11
-97.19955
 21
-25.23345
 31
0.0
  0
LINE
  5
4F8
330
1E
100
AcDbEntity
  8
0
  6
CONTINUOUS
 62
     7
100
AcDbLine
 10
-97.19955
 20
-32.23345
 30
0.0
 11
-97.19955
 21
-24.43345
 31
0.0
  0
LINE
  5
4F9
330
1E
100
AcDbEntity
  8
0
  6
CONTINUOUS
 62
     7
100
AcDbLine
 10
-102.2724999999996
 20
-32.23345
 30
0.0
 11
-102.2724999999996
 21
-24.43345
 31
0.0
  0
LINE
  5
4FA
330
1E
100
AcDbEntity
  8
0
  6
CONTINUOUS
 62
     7
100
AcDbLine
 10
-98.399
 20
-25.55452999999999
 30
0.0
 11
-97.199
 21
-25.233
 31
0.0
  0
LINE
  5
4FB
330
1E
100
AcDbEntity
  8
0
  6
CONTINUOUS
 62
     7
100
AcDbLine
 10
-97.199
 20
-25.233
 30
0.0
 11
-98.399
 21
-24.91146
 31
0.0
  0
LINE
  5
4FC
330
1E
100
AcDbEntity
  8
0
  6
CONTINUOUS
 62
     7
100
AcDbLine
 10
-101.072
 20
-24.91146
 30
0.0
 11
-102.272
 21
-25.233
 31
0.0
  0
LINE
  5
4FD
330
1E
100
AcDbEntity
  8
0
  6
CONTINUOUS
 62
     7
100
AcDbLine
 10
-102.272
 20
-25.233
 30
0.0
 11
-101.072
 21
-25.55452999999999
 31
0.0
  0
LINE
  5
4FE
330
1E
100
AcDbEntity
  8
0
  6
CONTINUOUS
 62
     7
100
AcDbLine
 10
-102.2724999999996
 20
-25.23345
 30
0.0
 11
-103.3125
 21
-25.23345
 31
0.0
  0
TEXT
  5
4FF
330
1E
100
AcDbEntity
  8
0
  6
CONTINUOUS
 62
     7
100
AcDbText
 10
-103.3125
 20
-28.83345
 30
0.0
 40
3.2
  1
101
 41
0.8125
  7
BIGFONT
100
AcDbText
  0
LINE
  5
500
330
1E
100
AcDbEntity
  8
0
  6
CONTINUOUS
 62
     7
100
AcDbLine
 10
-97.19955
 20
-25.23345
 30
0.0
 11
-90.9622
 21
-25.23345
 31
0.0
  0
LINE
  5
501
330
1E
100
AcDbEntity
  8
0
  6
CONTINUOUS
 62
     7
100
AcDbLine
 10
-90.9622
 20
-32.23345
 30
0.0
 11
-90.9622
 21
-24.43345
 31
0.0
  0
LINE
  5
502
330
1E
100
AcDbEntity
  8
0
  6
CONTINUOUS
 62
     7
100
AcDbLine
 10
-92.162
 20
-25.55452999999999
 30
0.0
 11
-90.96200000000001
 21
-25.233
 31
0.0
  0
LINE
  5
503
330
1E
100
AcDbEntity
  8
0
  6
CONTINUOUS
 62
     7
100
AcDbLine
 10
-90.96200000000001
 20
-25.233
 30
0.0
 11
-92.162
 21
-24.91146
 31
0.0
  0
LINE
  5
504
330
1E
100
AcDbEntity
  8
0
  6
CONTINUOUS
 62
     7
100
AcDbLine
 10
-95.99899999999999
 20
-24.91146
 30
0.0
 11
-97.199
 21
-25.233
 31
0.0
  0
LINE
  5
505
330
1E
100
AcDbEntity
  8
0
  6
CONTINUOUS
 62
     7
100
AcDbLine
 10
-97.199
 20
-25.233
 30
0.0
 11
-95.99899999999999
 21
-25.55452999999999
 31
0.0
  0
TEXT
  5
506
330
1E
100
AcDbEntity
  8
0
  6
CONTINUOUS
 62
     7
100
AcDbText
 10
-97.98087
 20
-24.83344999999999
 30
0.0
 40
3.2
  1
125
 41
0.8125
  7
BIGFONT
100
AcDbText
  0
LINE
  5
507
330
1E
100
AcDbEntity
  8
0
  6
CONTINUOUS
 62
     7
100
AcDbLine
 10
-90.9622
 20
-25.23345
 30
0.0
 11
-40.94699999999997
 21
-25.23345
 31
0.0
  0
LINE
  5
508
330
1E
100
AcDbEntity
  8
0
  6
CONTINUOUS
 62
     7
100
AcDbLine
 10
-40.94699999999997
 20
-32.23345
 30
0.0
 11
-40.94699999999997
 21
-24.43345
 31
0.0
  0
LINE
  5
509
330
1E
100
AcDbEntity
  8
0
  6
CONTINUOUS
 62
     7
100
AcDbLine
 10
-42.14699999999999
 20
-25.55452999999999
 30
0.0
 11
-40.94699999999997
 21
-25.233
 31
0.0
  0
LINE
  5
50A
330
1E
100
AcDbEntity
  8
0
  6
CONTINUOUS
 62
     7
100
AcDbLine
 10
-40.94699999999997
 20
-25.233
 30
0.0
 11
-42.14699999999999
 21
-24.91146
 31
0.0
  0
LINE
  5
50B
330
1E
100
AcDbEntity
  8
0
  6
CONTINUOUS
 62
     7
100
AcDbLine
 10
-89.762
 20
-24.91146
 30
0.0
 11
-90.96200000000001
 21
-25.233
 31
0.0
  0
LINE
  5
50C
330
1E
100
AcDbEntity
  8
0
  6
CONTINUOUS
 62
     7
100
AcDbLine
 10
-90.96200000000001
 20
-25.233
 30
0.0
 11
-89.762
 21
-25.55452999999999
 31
0.0
  0
LINE
  5
50D
330
1E
100
AcDbEntity
  8
0
  6
CONTINUOUS
 62
     7
100
AcDbLine
 10
-40.94699999999997
 20
-25.23345
 30
0.0
 11
-38.4592
 21
-25.23345
 31
0.0
  0
LINE
  5
50E
330
1E
100
AcDbEntity
  8
0
  6
CONTINUOUS
 62
     7
100
AcDbLine
 10
-38.4592
 20
-28.4736
 30
0.0
 11
-38.4592
 21
-24.43345
 31
0.0
  0
LINE
  5
50F
330
1E
100
AcDbEntity
  8
0
  6
CONTINUOUS
 62
     7
100
AcDbLine
 10
-36.05919999999999
 20
-25.23345
 30
0.0
 11
-38.4592
 21
-25.23345
 31
0.0
  0
LINE
  5
510
330
1E
100
AcDbEntity
  8
0
  6
CONTINUOUS
 62
     7
100
AcDbLine
 10
-37.259
 20
-24.91146
 30
0.0
 11
-38.459
 21
-25.233
 31
0.0
  0
LINE
  5
511
330
1E
100
AcDbEntity
  8
0
  6
CONTINUOUS
 62
     7
100
AcDbLine
 10
-38.459
 20
-25.233
 30
0.0
 11
-37.259
 21
-25.55452999999999
 31
0.0
  0
LINE
  5
512
330
1E
100
AcDbEntity
  8
0
  6
CONTINUOUS
 62
     7
100
AcDbLine
 10
-40.94699999999997
 20
-25.23345
 30
0.0
 11
-43.347
 21
-25.23345
 31
0.0
  0
LINE
  5
513
330
1E
100
AcDbEntity
  8
0
  6
CONTINUOUS
 62
     7
100
AcDbLine
 10
-42.14699999999999
 20
-25.55452999999999
 30
0.0
 11
-40.94699999999997
 21
-25.233
 31
0.0
  0
LINE
  5
514
330
1E
100
AcDbEntity
  8
0
  6
CONTINUOUS
 62
     7
100
AcDbLine
 10
-40.94699999999997
 20
-25.233
 30
0.0
 11
-42.14699999999999
 21
-24.91146
 31
0.0
  0
LINE
  5
515
330
1E
100
AcDbEntity
  8
0
  6
CONTINUOUS
 62
     7
100
AcDbLine
 10
-36.05919999999999
 20
-25.23345
 30
0.0
 11
-31.1792
 21
-25.23345
 31
0.0
  0
TEXT
  5
516
330
1E
100
AcDbEntity
  8
0
  6
CONTINUOUS
 62
     7
100
AcDbText
 10
-36.37919999999999
 20
-24.83344999999999
 30
0.0
 40
3.2
  1
50
 41
0.8125
  7
BIGFONT
100
AcDbText
  0
LINE
  5
517
330
1E
100
AcDbEntity
  8
0
  6
CONTINUOUS
 62
     1
100
AcDbLine
 10
-228.2087
 20
-98.23345000000001
 30
0.0
 11
-228.2087
 21
-35.38345
 31
0.0
  0
LINE
  5
518
330
1E
100
AcDbEntity
  8
0
  6
CONTINUOUS
 62
     1
100
AcDbLine
 10
-234.8087
 20
-41.98344999999997
 30
0.0
 11
-171.9586999999999
 21
-41.98344999999997
 31
0.0
  0
LINE
  5
519
330
1E
100
AcDbEntity
  8
0
  6
CONTINUOUS
 62
     7
100
AcDbLine
 10
-113.39505
 20
-25.23345
 30
0.0
 11
-105.96915
 21
-25.23345
 31
0.0
  0
LINE
  5
51A
330
1E
100
AcDbEntity
  8
0
  6
CONTINUOUS
 62
     7
100
AcDbLine
 10
-107.169
 20
-25.55452999999999
 30
0.0
 11
-105.969
 21
-25.233
 31
0.0
  0
LINE
  5
51B
330
1E
100
AcDbEntity
  8
0
  6
CONTINUOUS
 62
     7
100
AcDbLine
 10
-105.969
 20
-25.233
 30
0.0
 11
-107.169
 21
-24.91146
 31
0.0
  0
LINE
  5
51C
330
1E
100
AcDbEntity
  8
0
  6
CONTINUOUS
 62
     1
100
AcDbLine
 10
-103.46195
 20
52.9319
 30
0.0
 11
-42.16194999999999
 21
52.9319
 31
0.0
  0
LINE
  5
51D
330
1E
100
AcDbEntity
  8
0
  6
CONTINUOUS
 62
     1
100
AcDbLine
 10
-103.46195
 20
65.4319
 30
0.0
 11
-42.16194999999999
 21
65.4319
 31
0.0
  0
LINE
  5
51E
330
1E
100
AcDbEntity
  8
0
  6
CONTINUOUS
 62
     1
100
AcDbLine
 10
-103.46195
 20
77.9319
 30
0.0
 11
-42.16194999999999
 21
77.9319
 31
0.0
  0
LINE
  5
51F
330
1E
100
AcDbEntity
  8
0
  6
CONTINUOUS
 62
     1
100
AcDbLine
 10
-103.46195
 20
90.4319
 30
0.0
 11
-42.16194999999999
 21
90.4319
 31
0.0
  0
LINE
  5
520
330
1E
100
AcDbEntity
  8
0
  6
CONTINUOUS
 62
     1
100
AcDbLine
 10
-103.46195
 20
102.9319
 30
0.0
 11
-42.16194999999999
 21
102.9319
 31
0.0
  0
LINE
  5
521
330
1E
100
AcDbEntity
  8
0
  6
CONTINUOUS
 62
     1
100
AcDbLine
 10
-103.46195
 20
115.4319
 30
0.0
 11
-42.16194999999999
 21
115.4319
 31
0.0
  0
LINE
  5
522
330
1E
100
AcDbEntity
  8
0
  6
CONTINUOUS
 62
     7
100
AcDbLine
 10
-78.46195
 20
122.3818999999999
 30
0.0
 11
-78.46195
 21
115.4319
 31
0.0
  0
LINE
  5
523
330
1E
100
AcDbEntity
  8
0
  6
CONTINUOUS
 62
     7
100
AcDbLine
 10
-78.78253
 20
116.6309999999999
 30
0.0
 11
-78.46099999999998
 21
115.4309999999999
 31
0.0
  0
LINE
  5
524
330
1E
100
AcDbEntity
  8
0
  6
CONTINUOUS
 62
     7
100
AcDbLine
 10
-78.46099999999998
 20
115.4309999999999
 30
0.0
 11
-78.13946
 21
116.6309999999999
 31
0.0
  0
LINE
  5
525
330
1E
100
AcDbEntity
  8
0
  6
CONTINUOUS
 62
     7
100
AcDbLine
 10
-78.46195
 20
115.4629
 30
0.0
 11
-78.46195
 21
102.9319
 31
0.0
  0
LINE
  5
526
330
1E
100
AcDbEntity
  8
0
  6
CONTINUOUS
 62
     7
100
AcDbLine
 10
-78.78253
 20
104.1309999999999
 30
0.0
 11
-78.46099999999998
 21
102.9309999999999
 31
0.0
  0
LINE
  5
527
330
1E
100
AcDbEntity
  8
0
  6
CONTINUOUS
 62
     7
100
AcDbLine
 10
-78.46099999999998
 20
102.9309999999999
 30
0.0
 11
-78.13946
 21
104.1309999999999
 31
0.0
  0
LINE
  5
528
330
1E
100
AcDbEntity
  8
0
  6
CONTINUOUS
 62
     7
100
AcDbLine
 10
-78.46195
 20
102.9629
 30
0.0
 11
-78.46195
 21
90.4319
 31
0.0
  0
LINE
  5
529
330
1E
100
AcDbEntity
  8
0
  6
CONTINUOUS
 62
     7
100
AcDbLine
 10
-78.78253
 20
91.631
 30
0.0
 11
-78.46099999999998
 21
90.431
 31
0.0
  0
LINE
  5
52A
330
1E
100
AcDbEntity
  8
0
  6
CONTINUOUS
 62
     7
100
AcDbLine
 10
-78.46099999999998
 20
90.431
 30
0.0
 11
-78.13946
 21
91.631
 31
0.0
  0
LINE
  5
52B
330
1E
100
AcDbEntity
  8
0
  6
CONTINUOUS
 62
     7
100
AcDbLine
 10
-78.46195
 20
90.4629
 30
0.0
 11
-78.46195
 21
77.9319
 31
0.0
  0
LINE
  5
52C
330
1E
100
AcDbEntity
  8
0
  6
CONTINUOUS
 62
     7
100
AcDbLine
 10
-78.78253
 20
79.131
 30
0.0
 11
-78.46099999999998
 21
77.93099999999999
 31
0.0
  0
LINE
  5
52D
330
1E
100
AcDbEntity
  8
0
  6
CONTINUOUS
 62
     7
100
AcDbLine
 10
-78.46099999999998
 20
77.93099999999999
 30
0.0
 11
-78.13946
 21
79.131
 31
0.0
  0
LINE
  5
52E
330
1E
100
AcDbEntity
  8
0
  6
CONTINUOUS
 62
     7
100
AcDbLine
 10
-78.46195
 20
77.9629
 30
0.0
 11
-78.46195
 21
65.4319
 31
0.0
  0
LINE
  5
52F
330
1E
100
AcDbEntity
  8
0
  6
CONTINUOUS
 62
     7
100
AcDbLine
 10
-78.78253
 20
66.631
 30
0.0
 11
-78.46099999999998
 21
65.43099999999999
 31
0.0
  0
LINE
  5
530
330
1E
100
AcDbEntity
  8
0
  6
CONTINUOUS
 62
     7
100
AcDbLine
 10
-78.46099999999998
 20
65.43099999999999
 30
0.0
 11
-78.13946
 21
66.631
 31
0.0
  0
LINE
  5
531
330
1E
100
AcDbEntity
  8
0
  6
CONTINUOUS
 62
     7
100
AcDbLine
 10
-88.46194999999999
 20
134.8646
 30
0.0
 11
-88.46194999999999
 21
52.9319
 31
0.0
  0
LINE
  5
532
330
1E
100
AcDbEntity
  8
0
  6
CONTINUOUS
 62
     7
100
AcDbLine
 10
-88.78253
 20
54.131
 30
0.0
 11
-88.46099999999998
 21
52.93099999999999
 31
0.0
  0
LINE
  5
533
330
1E
100
AcDbEntity
  8
0
  6
CONTINUOUS
 62
     7
100
AcDbLine
 10
-88.46099999999998
 20
52.93099999999999
 30
0.0
 11
-88.13945999999999
 21
54.131
 31
0.0
  0
LINE
  5
534
330
1E
100
AcDbEntity
  8
0
  6
CONTINUOUS
 62
     7
100
AcDbLine
 10
-78.46195
 20
40.0
 30
0.0
 11
-78.46195
 21
52.6319
 31
0.0
  0
LINE
  5
535
330
1E
100
AcDbEntity
  8
0
  6
CONTINUOUS
 62
     7
100
AcDbLine
 10
-78.13946
 20
51.431
 30
0.0
 11
-78.46099999999998
 21
52.631
 31
0.0
  0
LINE
  5
536
330
1E
100
AcDbEntity
  8
0
  6
CONTINUOUS
 62
     7
100
AcDbLine
 10
-78.46099999999998
 20
52.631
 30
0.0
 11
-78.78253
 21
51.431
 31
0.0
  0
CIRCLE
  5
537
330
1E
100
AcDbEntity
  8
0
  6
CONTINUOUS
 62
     7
100
AcDbCircle
 10
-100.82035
 20
137.3941499999999
 30
0.0
 40
2.5
  0
TEXT
  5
538
330
1E
100
AcDbEntity
  8
0
  6
CONTINUOUS
 62
     7
100
AcDbText
 10
-102.3782999999999
 20
135.80025
 30
0.0
 40
3.2
  1
２
  7
BIGFONT
100
AcDbText
  0
CIRCLE
  5
539
330
1E
100
AcDbEntity
  8
0
  6
CONTINUOUS
 62
     7
100
AcDbCircle
 10
-75.00415
 20
42.4974
 30
0.0
 40
2.5
  0
TEXT
  5
53A
330
1E
100
AcDbEntity
  8
0
  6
CONTINUOUS
 62
     7
100
AcDbText
 10
-76.55840000000002
 20
40.75919999999999
 30
0.0
 40
3.2
  1
３
  7
BIGFONT
100
AcDbText
  0
TEXT
  5
53B
330
1E
100
AcDbEntity
  8
0
  6
CONTINUOUS
 62
     7
100
AcDbText
 10
-71.41094999999999
 20
40.87165
 30
0.0
 40
3.2
  1
D10
  7
BIGFONT
100
AcDbText
  0
LINE
  5
53C
330
1E
100
AcDbEntity
  8
0
  6
CONTINUOUS
 62
     7
100
AcDbLine
 10
-78.46195
 20
40.0
 30
0.0
 11
-63.46195
 21
40.0
 31
0.0
  0
LINE
  5
53D
330
1E
100
AcDbEntity
  8
0
  6
CONTINUOUS
 62
     7
100
AcDbLine
 10
-103.46195
 20
134.8646
 30
0.0
 11
-88.46194999999999
 21
134.8646
 31
0.0
  0
TEXT
  5
53E
330
1E
100
AcDbEntity
  8
0
  6
CONTINUOUS
 62
     7
100
AcDbText
 10
-97.26985
 20
135.7253
 30
0.0
 40
3.2
  1
Ｄ１３
  7
BIGFONT
100
AcDbText
  0
LINE
  5
53F
330
1E
100
AcDbEntity
  8
0
  6
CONTINUOUS
 62
     7
100
AcDbLine
 10
-115.9591999999999
 20
52.94375
 30
0.0
 11
-115.9591999999999
 21
115.4157499999999
 31
0.0
  0
LINE
  5
540
330
1E
100
AcDbEntity
  8
0
  6
CONTINUOUS
 62
     7
100
AcDbLine
 10
-106.8092
 20
115.4157499999999
 30
0.0
 11
-116.7592
 21
115.4157499999999
 31
0.0
  0
LINE
  5
541
330
1E
100
AcDbEntity
  8
0
  6
CONTINUOUS
 62
     7
100
AcDbLine
 10
-106.9591999999999
 20
52.94375
 30
0.0
 11
-116.7592
 21
52.94375
 31
0.0
  0
LINE
  5
542
330
1E
100
AcDbEntity
  8
0
  6
CONTINUOUS
 62
     7
100
AcDbLine
 10
-115.63746
 20
114.2149999999999
 30
0.0
 11
-115.959
 21
115.415
 31
0.0
  0
LINE
  5
543
330
1E
100
AcDbEntity
  8
0
  6
CONTINUOUS
 62
     7
100
AcDbLine
 10
-115.959
 20
115.415
 30
0.0
 11
-116.28053
 21
114.2149999999999
 31
0.0
  0
LINE
  5
544
330
1E
100
AcDbEntity
  8
0
  6
CONTINUOUS
 62
     7
100
AcDbLine
 10
-116.28053
 20
54.143
 30
0.0
 11
-115.959
 21
52.94299999999999
 31
0.0
  0
LINE
  5
545
330
1E
100
AcDbEntity
  8
0
  6
CONTINUOUS
 62
     7
100
AcDbLine
 10
-115.959
 20
52.94299999999999
 30
0.0
 11
-115.63746
 21
54.143
 31
0.0
  0
LINE
  5
546
330
1E
100
AcDbEntity
  8
0
  6
CONTINUOUS
 62
     7
100
AcDbLine
 10
-115.9591999999999
 20
115.4157499999999
 30
0.0
 11
-115.9591999999999
 21
122.4206499999999
 31
0.0
  0
LINE
  5
547
330
1E
100
AcDbEntity
  8
0
  6
CONTINUOUS
 62
     7
100
AcDbLine
 10
-106.9591999999999
 20
122.4206499999999
 30
0.0
 11
-116.7592
 21
122.4206499999999
 31
0.0
  0
LINE
  5
548
330
1E
100
AcDbEntity
  8
0
  6
CONTINUOUS
 62
     7
100
AcDbLine
 10
-115.63746
 20
121.2199999999999
 30
0.0
 11
-115.959
 21
122.4199999999999
 31
0.0
  0
LINE
  5
549
330
1E
100
AcDbEntity
  8
0
  6
CONTINUOUS
 62
     7
100
AcDbLine
 10
-115.959
 20
122.4199999999999
 30
0.0
 11
-116.28053
 21
121.2199999999999
 31
0.0
  0
LINE
  5
54A
330
1E
100
AcDbEntity
  8
0
  6
CONTINUOUS
 62
     7
100
AcDbLine
 10
-116.28053
 20
116.615
 30
0.0
 11
-115.959
 21
115.415
 31
0.0
  0
LINE
  5
54B
330
1E
100
AcDbEntity
  8
0
  6
CONTINUOUS
 62
     7
100
AcDbLine
 10
-115.959
 20
115.415
 30
0.0
 11
-115.63746
 21
116.615
 31
0.0
  0
LINE
  5
54C
330
1E
100
AcDbEntity
  8
0
  6
CONTINUOUS
 62
     7
100
AcDbLine
 10
-115.9591999999999
 20
115.4157499999999
 30
0.0
 11
-115.9591999999999
 21
114.63575
 31
0.0
  0
TEXT
  5
54D
330
1E
100
AcDbEntity
  8
0
  6
CONTINUOUS
 62
     7
100
AcDbText
 10
-116.3591999999999
 20
114.63575
 30
0.0
 40
3.2
  1
139
 50
90.0
 41
0.8125
  7
BIGFONT
100
AcDbText
  0
LINE
  5
54E
330
1E
100
AcDbEntity
  8
0
  6
CONTINUOUS
 62
     7
100
AcDbLine
 10
-115.9591999999999
 20
122.4206499999999
 30
0.0
 11
-115.9591999999999
 21
124.8819
 31
0.0
  0
LINE
  5
54F
330
1E
100
AcDbEntity
  8
0
  6
CONTINUOUS
 62
     7
100
AcDbLine
 10
-112.7417499999999
 20
124.8819
 30
0.0
 11
-116.7592
 21
124.8819
 31
0.0
  0
LINE
  5
550
330
1E
100
AcDbEntity
  8
0
  6
CONTINUOUS
 62
     7
100
AcDbLine
 10
-115.9591999999999
 20
127.2818999999999
 30
0.0
 11
-115.9591999999999
 21
124.8819
 31
0.0
  0
LINE
  5
551
330
1E
100
AcDbEntity
  8
0
  6
CONTINUOUS
 62
     7
100
AcDbLine
 10
-116.28053
 20
126.0809999999999
 30
0.0
 11
-115.959
 21
124.8809999999999
 31
0.0
  0
LINE
  5
552
330
1E
100
AcDbEntity
  8
0
  6
CONTINUOUS
 62
     7
100
AcDbLine
 10
-115.959
 20
124.8809999999999
 30
0.0
 11
-115.63746
 21
126.0809999999999
 31
0.0
  0
LINE
  5
553
330
1E
100
AcDbEntity
  8
0
  6
CONTINUOUS
 62
     7
100
AcDbLine
 10
-115.9591999999999
 20
122.4206499999999
 30
0.0
 11
-115.9591999999999
 21
120.0206499999999
 31
0.0
  0
LINE
  5
554
330
1E
100
AcDbEntity
  8
0
  6
CONTINUOUS
 62
     7
100
AcDbLine
 10
-115.63746
 20
121.2199999999999
 30
0.0
 11
-115.959
 21
122.4199999999999
 31
0.0
  0
LINE
  5
555
330
1E
100
AcDbEntity
  8
0
  6
CONTINUOUS
 62
     7
100
AcDbLine
 10
-115.959
 20
122.4199999999999
 30
0.0
 11
-116.28053
 21
121.2199999999999
 31
0.0
  0
LINE
  5
556
330
1E
100
AcDbEntity
  8
0
  6
CONTINUOUS
 62
     7
100
AcDbLine
 10
-115.9591999999999
 20
127.2818999999999
 30
0.0
 11
-115.9591999999999
 21
131.9019
 31
0.0
  0
TEXT
  5
557
330
1E
100
AcDbEntity
  8
0
  6
CONTINUOUS
 62
     7
100
AcDbText
 10
-116.3591999999999
 20
126.7018999999999
 30
0.0
 40
3.2
  1
50
 50
90.0
 41
0.8125
  7
BIGFONT
100
AcDbText
  0
LINE
  5
558
330
1E
100
AcDbEntity
  8
0
  6
CONTINUOUS
 62
     7
100
AcDbLine
 10
-116.75925
 20
52.6201
 30
0.0
 11
-106.9613499999999
 21
52.6201
 31
0.0
  0
LINE
  5
559
330
1E
100
AcDbEntity
  8
0
  6
CONTINUOUS
 62
     7
100
AcDbLine
 10
-115.9591999999999
 20
42.25484999999999
 30
0.0
 11
-115.9591999999999
 21
49.8819
 31
0.0
  0
LINE
  5
55A
330
1E
100
AcDbEntity
  8
0
  6
CONTINUOUS
 62
     7
100
AcDbLine
 10
-115.63746
 20
48.681
 30
0.0
 11
-115.959
 21
49.881
 31
0.0
  0
LINE
  5
55B
330
1E
100
AcDbEntity
  8
0
  6
CONTINUOUS
 62
     7
100
AcDbLine
 10
-115.959
 20
49.881
 30
0.0
 11
-116.28053
 21
48.681
 31
0.0
  0
LINE
  5
55C
330
1E
100
AcDbEntity
  8
0
  6
CONTINUOUS
 62
     7
100
AcDbLine
 10
-115.9591999999999
 20
49.17265
 30
0.0
 11
-115.9591999999999
 21
56.68195
 31
0.0
  0
POINT
  5
55D
330
1E
100
AcDbEntity
  8
0
  6
CONTINUOUS
 62
     7
100
AcDbPoint
 10
-115.9591999999999
 20
52.6201
 30
0.0
  0
TEXT
  5
55E
330
1E
100
AcDbEntity
  8
0
  6
CONTINUOUS
 62
     7
100
AcDbText
 10
-116.34765
 20
51.3044
 30
0.0
 40
3.2
  1
6
 50
90.0
  7
BIGFONT
100
AcDbText
  0
TEXT
  5
55F
330
1E
100
AcDbEntity
  8
0
  6
CONTINUOUS
 62
     7
100
AcDbText
 10
-116.35835
 20
42.3972
 30
0.0
 40
3.2
  1
55
 50
90.0
  7
BIGFONT
100
AcDbText
  0
POINT
  5
560
330
1E
100
AcDbEntity
  8
0
  6
CONTINUOUS
 62
     1
100
AcDbPoint
 10
35.86719999999999
 20
115.4327499999999
 30
0.0
  0
POINT
  5
561
330
1E
100
AcDbEntity
  8
0
  6
CONTINUOUS
 62
     7
100
AcDbPoint
 10
35.86719999999999
 20
102.9327499999999
 30
0.0
  0
POINT
  5
562
330
1E
100
AcDbEntity
  8
0
  6
CONTINUOUS
 62
     1
100
AcDbPoint
 10
35.86719999999999
 20
90.43274999999999
 30
0.0
  0
POINT
  5
563
330
1E
100
AcDbEntity
  8
0
  6
CONTINUOUS
 62
     1
100
AcDbPoint
 10
35.86719999999999
 20
77.93275
 30
0.0
  0
POINT
  5
564
330
1E
100
AcDbEntity
  8
0
  6
CONTINUOUS
 62
     1
100
AcDbPoint
 10
35.86719999999999
 20
65.43275
 30
0.0
  0
POINT
  5
565
330
1E
100
AcDbEntity
  8
0
  6
CONTINUOUS
 62
     1
100
AcDbPoint
 10
35.86055
 20
53.1819
 30
0.0
  0
LINE
  5
566
330
1E
100
AcDbEntity
  8
0
  6
CONTINUOUS
 62
     7
100
AcDbLine
 10
-207.6485499999999
 20
-41.98344999999997
 30
0.0
 11
-207.6485499999999
 21
-36.68345
 31
0.0
  0
LINE
  5
567
330
1E
100
AcDbEntity
  8
0
  6
CONTINUOUS
 62
     7
100
AcDbLine
 10
-207.3264599999999
 20
-37.883
 30
0.0
 11
-207.648
 21
-36.683
 31
0.0
  0
LINE
  5
568
330
1E
100
AcDbEntity
  8
0
  6
CONTINUOUS
 62
     7
100
AcDbLine
 10
-207.648
 20
-36.683
 30
0.0
 11
-207.96953
 21
-37.883
 31
0.0
  0
LINE
  5
569
330
1E
100
AcDbEntity
  8
0
  6
CONTINUOUS
 62
     7
100
AcDbLine
 10
-207.6485499999999
 20
-48.23344999999999
 30
0.0
 11
-207.6485499999999
 21
-41.9754
 31
0.0
  0
LINE
  5
56A
330
1E
100
AcDbEntity
  8
0
  6
CONTINUOUS
 62
     7
100
AcDbLine
 10
-207.3264599999999
 20
-43.17499999999999
 30
0.0
 11
-207.648
 21
-41.975
 31
0.0
  0
LINE
  5
56B
330
1E
100
AcDbEntity
  8
0
  6
CONTINUOUS
 62
     7
100
AcDbLine
 10
-207.648
 20
-41.975
 30
0.0
 11
-207.96953
 21
-43.17499999999999
 31
0.0
  0
LINE
  5
56C
330
1E
100
AcDbEntity
  8
0
  6
CONTINUOUS
 62
     7
100
AcDbLine
 10
-228.2087
 20
-63.28655
 30
0.0
 11
-233.5087
 21
-63.28655
 31
0.0
  0
LINE
  5
56D
330
1E
100
AcDbEntity
  8
0
  6
CONTINUOUS
 62
     7
100
AcDbLine
 10
-232.308
 20
-62.96445999999999
 30
0.0
 11
-233.508
 21
-63.286
 31
0.0
  0
LINE
  5
56E
330
1E
100
AcDbEntity
  8
0
  6
CONTINUOUS
 62
     7
100
AcDbLine
 10
-233.508
 20
-63.286
 30
0.0
 11
-232.308
 21
-63.60753
 31
0.0
  0
LINE
  5
56F
330
1E
100
AcDbEntity
  8
0
  6
CONTINUOUS
 62
     7
100
AcDbLine
 10
-221.9587
 20
-63.28655
 30
0.0
 11
-228.2201499999999
 21
-63.28655
 31
0.0
  0
LINE
  5
570
330
1E
100
AcDbEntity
  8
0
  6
CONTINUOUS
 62
     7
100
AcDbLine
 10
-227.0199999999999
 20
-62.96445999999999
 30
0.0
 11
-228.22
 21
-63.286
 31
0.0
  0
LINE
  5
571
330
1E
100
AcDbEntity
  8
0
  6
CONTINUOUS
 62
     7
100
AcDbLine
 10
-228.22
 20
-63.286
 30
0.0
 11
-227.0199999999999
 21
-63.60753
 31
0.0
  0
LINE
  5
572
330
1E
100
AcDbEntity
  8
0
  6
CONTINUOUS
 62
     7
100
AcDbLine
 10
-233.5207
 20
-25.23345
 30
0.0
 11
-228.1973499999998
 21
-25.23345
 31
0.0
  0
LINE
  5
573
330
1E
100
AcDbEntity
  8
0
  6
CONTINUOUS
 62
     7
100
AcDbLine
 10
-228.1973499999998
 20
-32.23345
 30
0.0
 11
-228.1973499999998
 21
-24.43345
 31
0.0
  0
LINE
  5
574
330
1E
100
AcDbEntity
  8
0
  6
CONTINUOUS
 62
     7
100
AcDbLine
 10
-233.5207
 20
-32.23345
 30
0.0
 11
-233.5207
 21
-24.43345
 31
0.0
  0
LINE
  5
575
330
1E
100
AcDbEntity
  8
0
  6
CONTINUOUS
 62
     7
100
AcDbLine
 10
-229.3969999999999
 20
-25.55452999999999
 30
0.0
 11
-228.197
 21
-25.233
 31
0.0
  0
LINE
  5
576
330
1E
100
AcDbEntity
  8
0
  6
CONTINUOUS
 62
     7
100
AcDbLine
 10
-228.197
 20
-25.233
 30
0.0
 11
-229.3969999999999
 21
-24.91146
 31
0.0
  0
LINE
  5
577
330
1E
100
AcDbEntity
  8
0
  6
CONTINUOUS
 62
     7
100
AcDbLine
 10
-232.3199999999999
 20
-24.91146
 30
0.0
 11
-233.5199999999999
 21
-25.233
 31
0.0
  0
LINE
  5
578
330
1E
100
AcDbEntity
  8
0
  6
CONTINUOUS
 62
     7
100
AcDbLine
 10
-233.5199999999999
 20
-25.233
 30
0.0
 11
-232.3199999999999
 21
-25.55452999999999
 31
0.0
  0
LINE
  5
579
330
1E
100
AcDbEntity
  8
0
  6
CONTINUOUS
 62
     7
100
AcDbLine
 10
-228.1973499999998
 20
-25.23345
 30
0.0
 11
-221.9499
 21
-25.23345
 31
0.0
  0
LINE
  5
57A
330
1E
100
AcDbEntity
  8
0
  6
CONTINUOUS
 62
     7
100
AcDbLine
 10
-221.9499
 20
-28.97645
 30
0.0
 11
-221.9499
 21
-24.43345
 31
0.0
  0
LINE
  5
57B
330
1E
100
AcDbEntity
  8
0
  6
CONTINUOUS
 62
     7
100
AcDbLine
 10
-223.1489999999999
 20
-25.55452999999999
 30
0.0
 11
-221.9489999999999
 21
-25.233
 31
0.0
  0
LINE
  5
57C
330
1E
100
AcDbEntity
  8
0
  6
CONTINUOUS
 62
     7
100
AcDbLine
 10
-221.9489999999999
 20
-25.233
 30
0.0
 11
-223.1489999999999
 21
-24.91146
 31
0.0
  0
LINE
  5
57D
330
1E
100
AcDbEntity
  8
0
  6
CONTINUOUS
 62
     7
100
AcDbLine
 10
-226.997
 20
-24.91146
 30
0.0
 11
-228.197
 21
-25.233
 31
0.0
  0
LINE
  5
57E
330
1E
100
AcDbEntity
  8
0
  6
CONTINUOUS
 62
     7
100
AcDbLine
 10
-228.197
 20
-25.233
 30
0.0
 11
-226.997
 21
-25.55452999999999
 31
0.0
  0
LINE
  5
57F
330
1E
100
AcDbEntity
  8
0
  6
CONTINUOUS
 62
     7
100
AcDbLine
 10
-228.1973499999998
 20
-25.23345
 30
0.0
 11
-228.9773499999999
 21
-25.23345
 31
0.0
  0
TEXT
  5
580
330
1E
100
AcDbEntity
  8
0
  6
CONTINUOUS
 62
     7
100
AcDbText
 10
-228.9773499999999
 20
-28.83345
 30
0.0
 40
3.2
  1
125
 41
0.8125
  7
BIGFONT
100
AcDbText
  0
TEXT
  5
581
330
1E
100
AcDbEntity
  8
0
  6
CONTINUOUS
 62
     7
100
AcDbText
 10
-235.2727999999999
 20
-24.71045
 30
0.0
 40
3.2
  1
103
  7
BIGFONT
100
AcDbText
  0
LINE
  5
582
330
1E
100
AcDbEntity
  8
0
  6
CONTINUOUS
 62
     1
100
AcDbLine
 10
-178.2127
 20
52.1319
 30
0.0
 11
-178.2127
 21
94.88190000000001
 31
0.0
  0
LINE
  5
583
330
1E
100
AcDbEntity
  8
0
  6
CONTINUOUS
 62
     7
100
AcDbLine
 10
-184.44775
 20
32.5
 30
0.0
 11
-178.21385
 21
32.5
 31
0.0
  0
LINE
  5
584
330
1E
100
AcDbEntity
  8
0
  6
CONTINUOUS
 62
     7
100
AcDbLine
 10
-178.21385
 20
48.8819
 30
0.0
 11
-178.21385
 21
31.69999999999999
 31
0.0
  0
LINE
  5
585
330
1E
100
AcDbEntity
  8
0
  6
CONTINUOUS
 62
     7
100
AcDbLine
 10
-184.44775
 20
37.91259999999999
 30
0.0
 11
-184.44775
 21
31.69999999999999
 31
0.0
  0
LINE
  5
586
330
1E
100
AcDbEntity
  8
0
  6
CONTINUOUS
 62
     7
100
AcDbLine
 10
-179.4129999999999
 20
32.17846
 30
0.0
 11
-178.2129999999999
 21
32.5
 31
0.0
  0
LINE
  5
587
330
1E
100
AcDbEntity
  8
0
  6
CONTINUOUS
 62
     7
100
AcDbLine
 10
-178.2129999999999
 20
32.5
 30
0.0
 11
-179.4129999999999
 21
32.82152999999999
 31
0.0
  0
LINE
  5
588
330
1E
100
AcDbEntity
  8
0
  6
CONTINUOUS
 62
     7
100
AcDbLine
 10
-183.247
 20
32.82152999999999
 30
0.0
 11
-184.447
 21
32.5
 31
0.0
  0
LINE
  5
589
330
1E
100
AcDbEntity
  8
0
  6
CONTINUOUS
 62
     7
100
AcDbLine
 10
-184.447
 20
32.5
 30
0.0
 11
-183.247
 21
32.17846
 31
0.0
  0
LINE
  5
58A
330
1E
100
AcDbEntity
  8
0
  6
CONTINUOUS
 62
     7
100
AcDbLine
 10
-184.44775
 20
32.5
 30
0.0
 11
-185.7477499999999
 21
32.5
 31
0.0
  0
TEXT
  5
58B
330
1E
100
AcDbEntity
  8
0
  6
CONTINUOUS
 62
     7
100
AcDbText
 10
-185.7477499999999
 20
28.9
 30
0.0
 40
3.2
  1
125
 41
0.8125
  7
BIGFONT
100
AcDbText
  0
LINE
  5
58C
330
1E
100
AcDbEntity
  8
0
  6
CONTINUOUS
 62
     7
100
AcDbLine
 10
-178.21385
 20
32.5
 30
0.0
 11
-173.1105
 21
32.5
 31
0.0
  0
LINE
  5
58D
330
1E
100
AcDbEntity
  8
0
  6
CONTINUOUS
 62
     7
100
AcDbLine
 10
-173.1105
 20
48.8819
 30
0.0
 11
-173.1105
 21
31.69999999999999
 31
0.0
  0
LINE
  5
58E
330
1E
100
AcDbEntity
  8
0
  6
CONTINUOUS
 62
     7
100
AcDbLine
 10
-174.31
 20
32.17846
 30
0.0
 11
-173.11
 21
32.5
 31
0.0
  0
LINE
  5
58F
330
1E
100
AcDbEntity
  8
0
  6
CONTINUOUS
 62
     7
100
AcDbLine
 10
-173.11
 20
32.5
 30
0.0
 11
-174.31
 21
32.82152999999999
 31
0.0
  0
LINE
  5
590
330
1E
100
AcDbEntity
  8
0
  6
CONTINUOUS
 62
     7
100
AcDbLine
 10
-177.0129999999999
 20
32.82152999999999
 30
0.0
 11
-178.2129999999999
 21
32.5
 31
0.0
  0
LINE
  5
591
330
1E
100
AcDbEntity
  8
0
  6
CONTINUOUS
 62
     7
100
AcDbLine
 10
-178.2129999999999
 20
32.5
 30
0.0
 11
-177.0129999999999
 21
32.17846
 31
0.0
  0
LINE
  5
592
330
1E
100
AcDbEntity
  8
0
  6
CONTINUOUS
 62
     7
100
AcDbLine
 10
-178.21385
 20
32.5
 30
0.0
 11
-179.25385
 21
32.5
 31
0.0
  0
TEXT
  5
593
330
1E
100
AcDbEntity
  8
0
  6
CONTINUOUS
 62
     7
100
AcDbText
 10
-179.25385
 20
32.9
 30
0.0
 40
3.2
  1
103
 41
0.8125
  7
BIGFONT
100
AcDbText
  0
LINE
  5
594
330
1E
100
AcDbEntity
  8
0
  6
CONTINUOUS
 62
     1
100
AcDbLine
 10
-47.21195
 20
52.1319
 30
0.0
 11
-47.21195
 21
122.3818999999999
 31
0.0
  0
LINE
  5
595
330
1E
100
AcDbEntity
  8
0
  6
CONTINUOUS
 62
     7
100
AcDbLine
 10
-178.2127
 20
89.81619999999997
 30
0.0
 11
-184.4546499999999
 21
89.81619999999997
 31
0.0
  0
LINE
  5
596
330
1E
100
AcDbEntity
  8
0
  6
CONTINUOUS
 62
     7
100
AcDbLine
 10
-183.2539999999999
 20
90.13752999999999
 30
0.0
 11
-184.454
 21
89.816
 31
0.0
  0
LINE
  5
597
330
1E
100
AcDbEntity
  8
0
  6
CONTINUOUS
 62
     7
100
AcDbLine
 10
-184.454
 20
89.816
 30
0.0
 11
-183.2539999999999
 21
89.49446
 31
0.0
  0
LINE
  5
598
330
1E
100
AcDbEntity
  8
0
  6
CONTINUOUS
 62
     7
100
AcDbLine
 10
-173.1627
 20
89.81619999999997
 30
0.0
 11
-178.22115
 21
89.81619999999997
 31
0.0
  0
LINE
  5
599
330
1E
100
AcDbEntity
  8
0
  6
CONTINUOUS
 62
     7
100
AcDbLine
 10
-177.0209999999999
 20
90.13752999999999
 30
0.0
 11
-178.2209999999999
 21
89.816
 31
0.0
  0
LINE
  5
59A
330
1E
100
AcDbEntity
  8
0
  6
CONTINUOUS
 62
     7
100
AcDbLine
 10
-178.2209999999999
 20
89.816
 30
0.0
 11
-177.0209999999999
 21
89.49446
 31
0.0
  0
LINE
  5
59B
330
1E
100
AcDbEntity
  8
0
  6
CONTINUOUS
 62
     7
100
AcDbLine
 10
-47.21195
 20
85.01229999999997
 30
0.0
 11
-53.4675
 21
85.01229999999997
 31
0.0
  0
LINE
  5
59C
330
1E
100
AcDbEntity
  8
0
  6
CONTINUOUS
 62
     7
100
AcDbLine
 10
-52.26700000000001
 20
85.33353000000003
 30
0.0
 11
-53.467
 21
85.012
 31
0.0
  0
LINE
  5
59D
330
1E
100
AcDbEntity
  8
0
  6
CONTINUOUS
 62
     7
100
AcDbLine
 10
-53.467
 20
85.012
 30
0.0
 11
-52.26700000000001
 21
84.69046
 31
0.0
  0
LINE
  5
59E
330
1E
100
AcDbEntity
  8
0
  6
CONTINUOUS
 62
     7
100
AcDbLine
 10
-42.16194999999999
 20
85.01229999999997
 30
0.0
 11
-47.21199999999998
 21
85.01229999999997
 31
0.0
  0
LINE
  5
59F
330
1E
100
AcDbEntity
  8
0
  6
CONTINUOUS
 62
     7
100
AcDbLine
 10
-46.012
 20
85.33353000000003
 30
0.0
 11
-47.21199999999998
 21
85.012
 31
0.0
  0
LINE
  5
5A0
330
1E
100
AcDbEntity
  8
0
  6
CONTINUOUS
 62
     7
100
AcDbLine
 10
-47.21199999999998
 20
85.012
 30
0.0
 11
-46.012
 21
84.69046
 31
0.0
  0
LINE
  5
5A1
330
1E
100
AcDbEntity
  8
0
  6
CONTINUOUS
 62
     7
100
AcDbLine
 10
-105.9591999999999
 20
32.5
 30
0.0
 11
-103.4753
 21
32.5
 31
0.0
  0
LINE
  5
5A2
330
1E
100
AcDbEntity
  8
0
  6
CONTINUOUS
 62
     7
100
AcDbLine
 10
-103.4753
 20
48.8819
 30
0.0
 11
-103.4753
 21
31.69999999999999
 31
0.0
  0
LINE
  5
5A3
330
1E
100
AcDbEntity
  8
0
  6
CONTINUOUS
 62
     7
100
AcDbLine
 10
-105.9591999999999
 20
36.68039999999999
 30
0.0
 11
-105.9591999999999
 21
31.69999999999999
 31
0.0
  0
LINE
  5
5A4
330
1E
100
AcDbEntity
  8
0
  6
CONTINUOUS
 62
     7
100
AcDbLine
 10
-101.0753
 20
32.5
 30
0.0
 11
-103.4753
 21
32.5
 31
0.0
  0
LINE
  5
5A5
330
1E
100
AcDbEntity
  8
0
  6
CONTINUOUS
 62
     7
100
AcDbLine
 10
-102.275
 20
32.82152999999999
 30
0.0
 11
-103.475
 21
32.5
 31
0.0
  0
LINE
  5
5A6
330
1E
100
AcDbEntity
  8
0
  6
CONTINUOUS
 62
     7
100
AcDbLine
 10
-103.475
 20
32.5
 30
0.0
 11
-102.275
 21
32.17846
 31
0.0
  0
LINE
  5
5A7
330
1E
100
AcDbEntity
  8
0
  6
CONTINUOUS
 62
     7
100
AcDbLine
 10
-105.9591999999999
 20
32.5
 30
0.0
 11
-108.3592
 21
32.5
 31
0.0
  0
LINE
  5
5A8
330
1E
100
AcDbEntity
  8
0
  6
CONTINUOUS
 62
     7
100
AcDbLine
 10
-107.159
 20
32.17846
 30
0.0
 11
-105.959
 21
32.5
 31
0.0
  0
LINE
  5
5A9
330
1E
100
AcDbEntity
  8
0
  6
CONTINUOUS
 62
     7
100
AcDbLine
 10
-105.959
 20
32.5
 30
0.0
 11
-107.159
 21
32.82152999999999
 31
0.0
  0
LINE
  5
5AA
330
1E
100
AcDbEntity
  8
0
  6
CONTINUOUS
 62
     7
100
AcDbLine
 10
-108.3592
 20
32.5
 30
0.0
 11
-112.7191999999999
 21
32.5
 31
0.0
  0
TEXT
  5
5AB
330
1E
100
AcDbEntity
  8
0
  6
CONTINUOUS
 62
     7
100
AcDbText
 10
-112.7191999999999
 20
32.9
 30
0.0
 40
3.2
  1
50
 41
0.8125
  7
BIGFONT
100
AcDbText
  0
LINE
  5
5AC
330
1E
100
AcDbEntity
  8
0
  6
CONTINUOUS
 62
     7
100
AcDbLine
 10
-103.4753
 20
32.5
 30
0.0
 11
-53.4153
 21
32.5
 31
0.0
  0
LINE
  5
5AD
330
1E
100
AcDbEntity
  8
0
  6
CONTINUOUS
 62
     7
100
AcDbLine
 10
-53.4153
 20
48.8819
 30
0.0
 11
-53.4153
 21
31.69999999999999
 31
0.0
  0
LINE
  5
5AE
330
1E
100
AcDbEntity
  8
0
  6
CONTINUOUS
 62
     7
100
AcDbLine
 10
-54.615
 20
32.17846
 30
0.0
 11
-53.41499999999999
 21
32.5
 31
0.0
  0
LINE
  5
5AF
330
1E
100
AcDbEntity
  8
0
  6
CONTINUOUS
 62
     7
100
AcDbLine
 10
-53.41499999999999
 20
32.5
 30
0.0
 11
-54.615
 21
32.82152999999999
 31
0.0
  0
LINE
  5
5B0
330
1E
100
AcDbEntity
  8
0
  6
CONTINUOUS
 62
     7
100
AcDbLine
 10
-102.275
 20
32.82152999999999
 30
0.0
 11
-103.475
 21
32.5
 31
0.0
  0
LINE
  5
5B1
330
1E
100
AcDbEntity
  8
0
  6
CONTINUOUS
 62
     7
100
AcDbLine
 10
-103.475
 20
32.5
 30
0.0
 11
-102.275
 21
32.17846
 31
0.0
  0
LINE
  5
5B2
330
1E
100
AcDbEntity
  8
0
  6
CONTINUOUS
 62
     7
100
AcDbLine
 10
-53.4153
 20
32.5
 30
0.0
 11
-47.2172
 21
32.5
 31
0.0
  0
LINE
  5
5B3
330
1E
100
AcDbEntity
  8
0
  6
CONTINUOUS
 62
     7
100
AcDbLine
 10
-47.2172
 20
48.8819
 30
0.0
 11
-47.2172
 21
31.69999999999999
 31
0.0
  0
LINE
  5
5B4
330
1E
100
AcDbEntity
  8
0
  6
CONTINUOUS
 62
     7
100
AcDbLine
 10
-48.417
 20
32.17846
 30
0.0
 11
-47.217
 21
32.5
 31
0.0
  0
LINE
  5
5B5
330
1E
100
AcDbEntity
  8
0
  6
CONTINUOUS
 62
     7
100
AcDbLine
 10
-47.217
 20
32.5
 30
0.0
 11
-48.417
 21
32.82152999999999
 31
0.0
  0
LINE
  5
5B6
330
1E
100
AcDbEntity
  8
0
  6
CONTINUOUS
 62
     7
100
AcDbLine
 10
-52.215
 20
32.82152999999999
 30
0.0
 11
-53.41499999999999
 21
32.5
 31
0.0
  0
LINE
  5
5B7
330
1E
100
AcDbEntity
  8
0
  6
CONTINUOUS
 62
     7
100
AcDbLine
 10
-53.41499999999999
 20
32.5
 30
0.0
 11
-52.215
 21
32.17846
 31
0.0
  0
LINE
  5
5B8
330
1E
100
AcDbEntity
  8
0
  6
CONTINUOUS
 62
     7
100
AcDbLine
 10
-53.4153
 20
32.5
 30
0.0
 11
-54.7153
 21
32.5
 31
0.0
  0
TEXT
  5
5B9
330
1E
100
AcDbEntity
  8
0
  6
CONTINUOUS
 62
     7
100
AcDbText
 10
-54.7153
 20
28.9
 30
0.0
 40
3.2
  1
125
 41
0.8125
  7
BIGFONT
100
AcDbText
  0
LINE
  5
5BA
330
1E
100
AcDbEntity
  8
0
  6
CONTINUOUS
 62
     7
100
AcDbLine
 10
-47.2172
 20
32.5
 30
0.0
 11
-42.14609999999999
 21
32.5
 31
0.0
  0
LINE
  5
5BB
330
1E
100
AcDbEntity
  8
0
  6
CONTINUOUS
 62
     7
100
AcDbLine
 10
-42.14609999999999
 20
48.8819
 30
0.0
 11
-42.14609999999999
 21
31.69999999999999
 31
0.0
  0
LINE
  5
5BC
330
1E
100
AcDbEntity
  8
0
  6
CONTINUOUS
 62
     7
100
AcDbLine
 10
-43.346
 20
32.17846
 30
0.0
 11
-42.14599999999999
 21
32.5
 31
0.0
  0
LINE
  5
5BD
330
1E
100
AcDbEntity
  8
0
  6
CONTINUOUS
 62
     7
100
AcDbLine
 10
-42.14599999999999
 20
32.5
 30
0.0
 11
-43.346
 21
32.82152999999999
 31
0.0
  0
LINE
  5
5BE
330
1E
100
AcDbEntity
  8
0
  6
CONTINUOUS
 62
     7
100
AcDbLine
 10
-46.017
 20
32.82152999999999
 30
0.0
 11
-47.217
 21
32.5
 31
0.0
  0
LINE
  5
5BF
330
1E
100
AcDbEntity
  8
0
  6
CONTINUOUS
 62
     7
100
AcDbLine
 10
-47.217
 20
32.5
 30
0.0
 11
-46.017
 21
32.17846
 31
0.0
  0
LINE
  5
5C0
330
1E
100
AcDbEntity
  8
0
  6
CONTINUOUS
 62
     7
100
AcDbLine
 10
-47.2172
 20
32.5
 30
0.0
 11
-48.2572
 21
32.5
 31
0.0
  0
TEXT
  5
5C1
330
1E
100
AcDbEntity
  8
0
  6
CONTINUOUS
 62
     7
100
AcDbText
 10
-48.2572
 20
32.9
 30
0.0
 40
3.2
  1
103
 41
0.8125
  7
BIGFONT
100
AcDbText
  0
TEXT
  5
5C2
330
1E
100
AcDbEntity
  8
0
  6
CONTINUOUS
 62
     7
100
AcDbText
 10
-91.65885000000001
 20
33.00545
 30
0.0
 40
3.2
  1
5×200=1000
  7
BIGFONT
100
AcDbText
  0
POINT
  5
5C3
330
1E
100
AcDbEntity
  8
0
  6
CONTINUOUS
 62
     1
100
AcDbPoint
 10
40.8133
 20
52.5476
 30
0.0
  0
POINT
  5
5C4
330
1E
100
AcDbEntity
  8
0
  6
CONTINUOUS
 62
     1
100
AcDbPoint
 10
40.9133
 20
53.1819
 30
0.0
  0
LINE
  5
5C5
330
1E
100
AcDbEntity
  8
0
  6
CONTINUOUS
 62
     1
100
AcDbLine
 10
-103.2092
 20
-98.23345000000001
 30
0.0
 11
-54.4947
 21
-98.23345000000001
 31
0.0
  0
LINE
  5
5C6
330
1E
100
AcDbEntity
  8
0
  6
CONTINUOUS
 62
     7
100
AcDbLine
 10
235.66845
 20
-93.8732
 30
0.0
 11
242.49065
 21
-85.74279999999998
 31
0.0
  0
LINE
  5
5C7
330
1E
100
AcDbEntity
  8
0
  6
CONTINUOUS
 62
     7
100
AcDbLine
 10
227.4999999999999
 20
-100.73345
 30
0.0
 11
235.66845
 21
-93.8732
 31
0.0
  0
LINE
  5
5C8
330
1E
100
AcDbEntity
  8
0
  6
CONTINUOUS
 62
     7
100
AcDbLine
 10
181.0
 20
-100.73345
 30
0.0
 11
181.0
 21
-45.58939999999998
 31
0.0
  0
LINE
  5
5C9
330
1E
100
AcDbEntity
  8
0
  6
CONTINUOUS
 62
     7
100
AcDbLine
 10
181.0
 20
-45.58939999999998
 30
0.0
 11
187.3639999999999
 21
-39.23344999999999
 31
0.0
  0
LINE
  5
5CA
330
1E
100
AcDbEntity
  8
0
  6
CONTINUOUS
 62
     7
100
AcDbLine
 10
187.3639999999999
 20
-39.23344999999999
 30
0.0
 11
242.5
 21
-39.23344999999999
 31
0.0
  0
LINE
  5
5CB
330
1E
100
AcDbEntity
  8
0
  6
CONTINUOUS
 62
     7
100
AcDbLine
 10
189.8917999999999
 20
-54.4936
 30
0.0
 11
196.2562
 21
-48.13807
 31
0.0
  0
LINE
  5
5CC
330
1E
100
AcDbEntity
  8
0
  6
CONTINUOUS
 62
     7
100
AcDbLine
 10
188.07061
 20
-39.94104999999999
 30
0.0
 11
196.8214899999999
 21
-48.70415
 31
0.0
  0
LINE
  5
5CD
330
1E
100
AcDbEntity
  8
0
  6
CONTINUOUS
 62
     7
100
AcDbLine
 10
181.70661
 20
-46.29699
 30
0.0
 11
190.4570899999999
 21
-55.05967
 31
0.0
  0
LINE
  5
5CE
330
1E
100
AcDbEntity
  8
0
  6
CONTINUOUS
 62
     7
100
AcDbLine
 10
195.63408
 20
-49.21345
 30
0.0
 11
196.2559999999999
 21
-48.138
 31
0.0
  0
LINE
  5
5CF
330
1E
100
AcDbEntity
  8
0
  6
CONTINUOUS
 62
     7
100
AcDbLine
 10
196.2559999999999
 20
-48.138
 30
0.0
 11
195.1796699999999
 21
-48.75841
 31
0.0
  0
LINE
  5
5D0
330
1E
100
AcDbEntity
  8
0
  6
CONTINUOUS
 62
     7
100
AcDbLine
 10
190.51291
 20
-53.41754
 30
0.0
 11
189.8909999999999
 21
-54.493
 31
0.0
  0
LINE
  5
5D1
330
1E
100
AcDbEntity
  8
0
  6
CONTINUOUS
 62
     7
100
AcDbLine
 10
189.8909999999999
 20
-54.493
 30
0.0
 11
190.96732
 21
-53.87258
 31
0.0
  0
TEXT
  5
5D2
330
1E
100
AcDbEntity
  8
0
  6
CONTINUOUS
 62
     7
100
AcDbText
 10
192.85816
 20
-56.61899
 30
0.0
 40
3.2
  1
180
 50
44.96
 41
0.8125
  7
BIGFONT
100
AcDbText
  0
LINE
  5
5D3
330
1E
100
AcDbEntity
  8
0
  6
CONTINUOUS
 62
     7
100
AcDbLine
 10
235.66845
 20
49.8819
 30
0.0
 11
235.66845
 21
55.8819
 31
0.0
  0
ARC
  5
5D4
330
1E
100
AcDbEntity
  8
0
  6
CONTINUOUS
 62
     7
100
AcDbCircle
 10
235.6717999999999
 20
-93.86920000000001
 30
0.0
 40
3.579899999999998
100
AcDbArc
 50
50.0
 51
220.0299999999999
  0
ARC
  5
5D5
330
1E
100
AcDbEntity
  8
0
  6
CONTINUOUS
 62
     7
100
AcDbCircle
 10
236.4593399999999
 20
-94.37107000000001
 30
0.0
 40
3.580309999999998
100
AcDbArc
 50
65.00797099999998
 51
84.21157499999997
  0
ARC
  5
5D6
330
1E
100
AcDbEntity
  8
0
  6
CONTINUOUS
 62
     7
100
AcDbCircle
 10
235.03946
 20
-93.17999
 30
0.0
 40
3.580309999999998
100
AcDbArc
 50
35.007971
 51
54.211575
  0
ARC
  5
5D7
330
1E
100
AcDbEntity
  8
0
  6
CONTINUOUS
 62
     7
100
AcDbCircle
 10
234.9817999999999
 20
-93.23801000000001
 30
0.0
 40
3.579419999999998
100
AcDbArc
 50
215.81649
 51
235.02486
  0
ARC
  5
5D8
330
1E
100
AcDbEntity
  8
0
  6
CONTINUOUS
 62
     7
100
AcDbCircle
 10
236.1733999999999
 20
-94.65685999999999
 30
0.0
 40
3.579419999999998
100
AcDbArc
 50
185.81649
 51
205.02486
  0
TEXT
  5
5D9
330
1E
100
AcDbEntity
  8
0
  6
CONTINUOUS
 62
     7
100
AcDbText
 10
229.13524
 20
-94.26035
 30
0.0
 40
3.2
  1
170°
 50
40.84999999999999
 41
0.8125
  7
BIGFONT
100
AcDbText
  0
LINE
  5
5DA
330
1E
100
AcDbEntity
  8
0
  6
CONTINUOUS
 62
     7
100
AcDbLine
 10
-176.2902499999999
 20
-93.8732
 30
0.0
 11
-169.46805
 21
-85.74279999999998
 31
0.0
  0
LINE
  5
5DB
330
1E
100
AcDbEntity
  8
0
  6
CONTINUOUS
 62
     7
100
AcDbLine
 10
-184.4586999999999
 20
-100.73345
 30
0.0
 11
-176.2902499999999
 21
-93.8732
 31
0.0
  0
LINE
  5
5DC
330
1E
100
AcDbEntity
  8
0
  6
CONTINUOUS
 62
     7
100
AcDbLine
 10
-45.29075
 20
-93.8732
 30
0.0
 11
-38.46855
 21
-85.74279999999998
 31
0.0
  0
LINE
  5
5DD
330
1E
100
AcDbEntity
  8
0
  6
CONTINUOUS
 62
     7
100
AcDbLine
 10
-53.4592
 20
-100.73345
 30
0.0
 11
-45.29075
 21
-93.8732
 31
0.0
  0
LINE
  5
61E
330
1E
100
AcDbEntity
  8
2
  6
CONTINUOUS
 62
     7
100
AcDbLine
 10
68.7148
 20
-143.1023999999998
 30
0.0
 11
136.7148
 21
-143.1023999999998
 31
0.0
  0
LINE
  5
61F
330
1E
100
AcDbEntity
  8
2
  6
CONTINUOUS
 62
     7
100
AcDbLine
 10
136.7148
 20
-168.1023999999998
 30
0.0
 11
136.7148
 21
-143.1023999999998
 31
0.0
  0
LINE
  5
620
330
1E
100
AcDbEntity
  8
2
  6
CONTINUOUS
 62
     7
100
AcDbLine
 10
68.7148
 20
-168.1023999999998
 30
0.0
 11
136.7148
 21
-168.1023999999998
 31
0.0
  0
LINE
  5
621
330
1E
100
AcDbEntity
  8
2
  6
CONTINUOUS
 62
     7
100
AcDbLine
 10
68.7148
 20
-168.1023999999998
 30
0.0
 11
68.7148
 21
-143.1023999999998
 31
0.0
  0
LINE
  5
622
330
1E
100
AcDbEntity
  8
2
  6
CONTINUOUS
 62
     7
100
AcDbLine
 10
68.7148
 20
-150.1023999999999
 30
0.0
 11
136.7148
 21
-150.1023999999999
 31
0.0
  0
LINE
  5
623
330
1E
100
AcDbEntity
  8
2
  6
CONTINUOUS
 62
     7
100
AcDbLine
 10
68.7148
 20
-156.1023999999999
 30
0.0
 11
136.7148
 21
-156.1023999999999
 31
0.0
  0
LINE
  5
624
330
1E
100
AcDbEntity
  8
2
  6
CONTINUOUS
 62
     7
100
AcDbLine
 10
68.7148
 20
-162.1024
 30
0.0
 11
136.7148
 21
-162.1024
 31
0.0
  0
LINE
  5
625
330
1E
100
AcDbEntity
  8
2
  6
CONTINUOUS
 62
     7
100
AcDbLine
 10
116.7148
 20
-168.1023999999998
 30
0.0
 11
116.7148
 21
-150.1023999999999
 31
0.0
  0
TEXT
  5
626
330
1E
100
AcDbEntity
  8
2
  6
CONTINUOUS
 62
     7
100
AcDbText
 10
74.5613
 20
-155.1023999999999
 30
0.0
 40
4.0
  1
鉄　　筋
  7
BIGFONT
100
AcDbText
  0
TEXT
  5
627
330
1E
100
AcDbEntity
  8
2
  6
CONTINUOUS
 62
     7
100
AcDbText
 10
74.5613
 20
-161.1024
 30
0.0
 40
4.0
  1
コンクリート容積
  7
BIGFONT
100
AcDbText
  0
TEXT
  5
628
330
1E
100
AcDbEntity
  8
2
  6
CONTINUOUS
 62
     7
100
AcDbText
 10
74.5613
 20
-167.1023999999999
 30
0.0
 40
4.0
  1
総　重　量
  7
BIGFONT
100
AcDbText
  0
TEXT
  5
629
330
1E
100
AcDbEntity
  8
2
  6
CONTINUOUS
 62
     7
100
AcDbText
 10
76.4927
 20
-148.8869
 30
0.0
 40
5.0
  1
重　量　内　訳　表
  7
BIGFONT
100
AcDbText
  0
TEXT
  5
62A
330
1E
100
AcDbEntity
  8
2
  6
CONTINUOUS
 62
     7
100
AcDbText
 10
118.6663
 20
-155.1023999999999
 30
0.0
 40
3.2
  1
81.49
  7
BIGFONT
100
AcDbText
  0
TEXT
  5
62B
330
1E
100
AcDbEntity
  8
2
  6
CONTINUOUS
 62
     7
100
AcDbText
 10
131.7923
 20
-155.1023999999999
 30
0.0
 40
3.0
  1
ｋｇ
 41
0.7
  7
BIGFONT
100
AcDbText
  0
TEXT
  5
62C
330
1E
100
AcDbEntity
  8
2
  6
CONTINUOUS
 62
     7
100
AcDbText
 10
118.9663
 20
-161.2309999999999
 30
0.0
 40
3.2
  1
0.651
  7
BIGFONT
100
AcDbText
  0
TEXT
  5
62D
330
1E
100
AcDbEntity
  8
2
  6
CONTINUOUS
 62
     7
100
AcDbText
 10
119.8663
 20
-167.2309999999999
 30
0.0
 40
3.2
  1
1560
  7
BIGFONT
100
AcDbText
  0
TEXT
  5
62E
330
1E
100
AcDbEntity
  8
2
  6
CONTINUOUS
 62
     7
100
AcDbText
 10
131.7412
 20
-167.1023999999999
 30
0.0
 40
3.0
  1
ｋｇ
 41
0.7
  7
BIGFONT
100
AcDbText
  0
TEXT
  5
62F
330
1E
100
AcDbEntity
  8
2
  6
CONTINUOUS
 62
     7
100
AcDbText
 10
131.993
 20
-161.1024
 30
0.0
 40
3.0
  1
ｍ
 41
0.7
  7
BIGFONT
100
AcDbText
  0
TEXT
  5
630
330
1E
100
AcDbEntity
  8
2
  6
CONTINUOUS
 62
     7
100
AcDbText
 10
134.3256
 20
-159.8992
 30
0.0
 40
1.199999999999999
  1
３
 41
0.8
  7
BIGFONT
100
AcDbText
  0
TEXT
  5
6AE
330
1E
100
AcDbEntity
  8
2
  6
CONTINUOUS
 62
     7
100
AcDbText
 10
5.477600000000051
 20
-56.60729999999981
 30
0.0
 40
4.0
  1
径
  7
BIGFONT
100
AcDbText
  0
TEXT
  5
6AF
330
1E
100
AcDbEntity
  8
2
  6
CONTINUOUS
 62
     7
100
AcDbText
 10
-2.966300000000046
 20
-47.04539999999981
 30
0.0
 40
5.0
  1
鉄筋表
  7
BIGFONT
100
AcDbText
  0
TEXT
  5
6B0
330
1E
100
AcDbEntity
  8
2
  6
CONTINUOUS
 62
     7
100
AcDbText
 10
3.160900000000026
 20
-63.58809999999993
 30
0.0
 40
3.5
  1
D13
  7
BIGFONT
100
AcDbText
  0
TEXT
  5
6B1
330
1E
100
AcDbEntity
  8
2
  6
CONTINUOUS
 62
     7
100
AcDbText
 10
3.196199999999976
 20
-71.96949999999981
 30
0.0
 40
3.5
  1
D13
  7
BIGFONT
100
AcDbText
  0
TEXT
  5
6B2
330
1E
100
AcDbEntity
  8
2
  6
CONTINUOUS
 62
     7
100
AcDbText
 10
3.196199999999976
 20
-89.46949999999981
 30
0.0
 40
3.5
  1
D10
  7
BIGFONT
100
AcDbText
  0
TEXT
  5
6B3
330
1E
100
AcDbEntity
  8
2
  6
CONTINUOUS
 62
     7
100
AcDbText
 10
3.196199999999976
 20
-94.16279999999996
 30
0.0
 40
3.5
  1
D10
  7
BIGFONT
100
AcDbText
  0
TEXT
  5
6B4
330
1E
100
AcDbEntity
  8
2
  6
CONTINUOUS
 62
     7
100
AcDbText
 10
3.196199999999976
 20
-76.66279999999995
 30
0.0
 40
3.5
  1
D13
  7
BIGFONT
100
AcDbText
  0
TEXT
  5
6B5
330
1E
100
AcDbEntity
  8
2
  6
CONTINUOUS
 62
     7
100
AcDbText
 10
3.160900000000026
 20
-102.5880999999997
 30
0.0
 40
3.5
  1
D10
  7
BIGFONT
100
AcDbText
  0
TEXT
  5
6B6
330
1E
100
AcDbEntity
  8
2
  6
CONTINUOUS
 62
     7
100
AcDbText
 10
3.160900000000026
 20
-110.5880999999999
 30
0.0
 40
3.5
  1
D13
  7
BIGFONT
100
AcDbText
  0
TEXT
  5
6B7
330
1E
100
AcDbEntity
  8
2
  6
CONTINUOUS
 62
     7
100
AcDbText
 10
3.160900000000026
 20
-118.5880999999997
 30
0.0
 40
3.5
  1
D10
  7
BIGFONT
100
AcDbText
  0
TEXT
  5
6B8
330
1E
100
AcDbEntity
  8
2
  6
CONTINUOUS
 62
     7
100
AcDbText
 10
3.160900000000026
 20
-126.5880999999997
 30
0.0
 40
3.5
  1
D10
  7
BIGFONT
100
AcDbText
  0
LINE
  5
6B9
330
1E
100
AcDbEntity
  8
2
  6
CONTINUOUS
 62
     7
100
AcDbLine
 10
-10.28519999999991
 20
-137.1023999999999
 30
0.0
 11
136.7147999999999
 21
-137.1023999999999
 31
0.0
  0
LINE
  5
6BA
330
1E
100
AcDbEntity
  8
2
  6
CONTINUOUS
 62
     7
100
AcDbLine
 10
-10.28519999999991
 20
-129.1023999999999
 30
0.0
 11
136.7147999999999
 21
-129.1023999999999
 31
0.0
  0
LINE
  5
6BB
330
1E
100
AcDbEntity
  8
2
  6
CONTINUOUS
 62
     7
100
AcDbLine
 10
-10.28519999999991
 20
-121.1023999999996
 30
0.0
 11
136.7147999999999
 21
-121.1023999999996
 31
0.0
  0
LINE
  5
6BC
330
1E
100
AcDbEntity
  8
2
  6
CONTINUOUS
 62
     7
100
AcDbLine
 10
-10.28519999999991
 20
-113.1023999999998
 30
0.0
 11
136.7147999999999
 21
-113.1023999999998
 31
0.0
  0
LINE
  5
6BD
330
1E
100
AcDbEntity
  8
2
  6
CONTINUOUS
 62
     7
100
AcDbLine
 10
-10.28519999999991
 20
-97.10239999999991
 30
0.0
 11
136.7147999999999
 21
-97.10239999999991
 31
0.0
  0
LINE
  5
6BE
330
1E
100
AcDbEntity
  8
2
  6
CONTINUOUS
 62
     7
100
AcDbLine
 10
-10.28519999999991
 20
-84.10239999999992
 30
0.0
 11
136.7147999999999
 21
-84.10239999999992
 31
0.0
  0
LINE
  5
6BF
330
1E
100
AcDbEntity
  8
2
  6
CONTINUOUS
 62
     7
100
AcDbLine
 10
-10.28519999999991
 20
-105.1023999999996
 30
0.0
 11
136.7147999999999
 21
-105.1023999999996
 31
0.0
  0
LINE
  5
6C0
330
1E
100
AcDbEntity
  8
2
  6
CONTINUOUS
 62
     7
100
AcDbLine
 10
-10.28519999999991
 20
-58.10239999999993
 30
0.0
 11
136.7147999999999
 21
-58.10239999999993
 31
0.0
  0
LINE
  5
6C1
330
1E
100
AcDbEntity
  8
2
  6
CONTINUOUS
 62
     7
100
AcDbLine
 10
-10.28519999999991
 20
-66.10239999999982
 30
0.0
 11
136.7147999999999
 21
-66.10239999999982
 31
0.0
  0
LINE
  5
6C2
330
1E
100
AcDbEntity
  8
2
  6
CONTINUOUS
 62
     7
100
AcDbLine
 10
-10.28519999999991
 20
-50.10239999999993
 30
0.0
 11
136.7147999999999
 21
-50.10239999999993
 31
0.0
  0
LINE
  5
6C3
330
1E
100
AcDbEntity
  8
2
  6
CONTINUOUS
 62
     7
100
AcDbLine
 10
-10.28519999999991
 20
-137.1023999999999
 30
0.0
 11
-10.28519999999991
 21
-105.1023999999996
 31
0.0
  0
LINE
  5
6C4
330
1E
100
AcDbEntity
  8
2
  6
CONTINUOUS
 62
     7
100
AcDbLine
 10
-0.2852000000000316
 20
-129.1023999999999
 30
0.0
 11
-0.2852000000000316
 21
-50.10239999999993
 31
0.0
  0
LINE
  5
6C5
330
1E
100
AcDbEntity
  8
2
  6
CONTINUOUS
 62
     7
100
AcDbLine
 10
-10.28519999999991
 20
-66.10239999999982
 30
0.0
 11
-10.28519999999991
 21
-50.10239999999993
 31
0.0
  0
LINE
  5
6C6
330
1E
100
AcDbEntity
  8
2
  6
CONTINUOUS
 62
     7
100
AcDbLine
 10
-10.28519999999991
 20
-105.1023999999996
 30
0.0
 11
-10.28519999999991
 21
-66.10239999999982
 31
0.0
  0
TEXT
  5
6C7
330
1E
100
AcDbEntity
  8
2
  6
CONTINUOUS
 62
     7
100
AcDbText
 10
-6.839100000000028
 20
-118.5880999999997
 30
0.0
 40
3.5
  1
６
  7
BIGFONT
100
AcDbText
  0
TEXT
  5
6C8
330
1E
100
AcDbEntity
  8
2
  6
CONTINUOUS
 62
     7
100
AcDbText
 10
-6.839100000000028
 20
-126.5880999999997
 30
0.0
 40
3.5
  1
７
  7
BIGFONT
100
AcDbText
  0
TEXT
  5
6C9
330
1E
100
AcDbEntity
  8
2
  6
CONTINUOUS
 62
     7
100
AcDbText
 10
-6.839100000000028
 20
-102.5880999999997
 30
0.0
 40
3.5
  1
４
  7
BIGFONT
100
AcDbText
  0
TEXT
  5
6CA
330
1E
100
AcDbEntity
  8
2
  6
CONTINUOUS
 62
     7
100
AcDbText
 10
-6.839100000000028
 20
-110.5880999999999
 30
0.0
 40
3.5
  1
５
  7
BIGFONT
100
AcDbText
  0
TEXT
  5
6CB
330
1E
100
AcDbEntity
  8
2
  6
CONTINUOUS
 62
     7
100
AcDbText
 10
-6.803799999999965
 20
-89.46949999999981
 30
0.0
 40
3.5
  1
３
  7
BIGFONT
100
AcDbText
  0
TEXT
  5
6CC
330
1E
100
AcDbEntity
  8
2
  6
CONTINUOUS
 62
     7
100
AcDbText
 10
-6.839100000000028
 20
-63.58809999999993
 30
0.0
 40
3.5
  1
１
  7
BIGFONT
100
AcDbText
  0
TEXT
  5
6CD
330
1E
100
AcDbEntity
  8
2
  6
CONTINUOUS
 62
     7
100
AcDbText
 10
-6.803799999999965
 20
-71.96949999999981
 30
0.0
 40
3.5
  1
２
  7
BIGFONT
100
AcDbText
  0
TEXT
  5
6CE
330
1E
100
AcDbEntity
  8
2
  6
CONTINUOUS
 62
     7
100
AcDbText
 10
-9.562400000000023
 20
-56.43159999999993
 30
0.0
 40
4.0
  1
番号
  7
BIGFONT
100
AcDbText
  0
LINE
  5
6CF
330
1E
100
AcDbEntity
  8
2
  6
CONTINUOUS
 62
     7
100
AcDbLine
 10
136.7147999999999
 20
-137.1023999999999
 30
0.0
 11
136.7147999999999
 21
-105.1023999999996
 31
0.0
  0
LINE
  5
6D0
330
1E
100
AcDbEntity
  8
2
  6
CONTINUOUS
 62
     7
100
AcDbLine
 10
101.7147999999999
 20
-137.1023999999999
 30
0.0
 11
101.7147999999999
 21
-50.10239999999993
 31
0.0
  0
TEXT
  5
6D1
330
1E
100
AcDbEntity
  8
2
  6
CONTINUOUS
 62
     7
100
AcDbText
 10
84.44960000000003
 20
-135.3598999999997
 30
0.0
 40
4.0
  1
合計
  7
BIGFONT
100
AcDbText
  0
TEXT
  5
6D2
330
1E
100
AcDbEntity
  8
2
  6
CONTINUOUS
 62
     7
100
AcDbText
 10
114.2601999999999
 20
-135.3598999999997
 30
0.0
 40
3.2
  1
81.49
  7
BIGFONT
100
AcDbText
  0
TEXT
  5
6D3
330
1E
100
AcDbEntity
  8
2
  6
CONTINUOUS
 62
     7
100
AcDbText
 10
128.3862
 20
-135.3598999999997
 30
0.0
 40
3.2
  1
ｋｇ
  7
BIGFONT
100
AcDbText
  0
TEXT
  5
6D4
330
1E
100
AcDbEntity
  8
2
  6
CONTINUOUS
 62
     7
100
AcDbText
 10
86.29614875159701
 20
-110.6259999999998
 30
0.0
 40
3.5
  1
2457
  7
BIGFONT
100
AcDbText
  0
TEXT
  5
6D5
330
1E
100
AcDbEntity
  8
2
  6
CONTINUOUS
 62
     7
100
AcDbText
 10
86.29614875159701
 20
-118.6259999999996
 30
0.0
 40
3.5
  1
2495
  7
BIGFONT
100
AcDbText
  0
LINE
  5
6D6
330
1E
100
AcDbEntity
  8
2
  6
CONTINUOUS
 62
     7
100
AcDbLine
 10
32.71479999999996
 20
-129.1023999999999
 30
0.0
 11
32.71479999999996
 21
-50.10239999999993
 31
0.0
  0
LINE
  5
6D7
330
1E
100
AcDbEntity
  8
2
  6
CONTINUOUS
 62
     7
100
AcDbLine
 10
50.71479999999997
 20
-129.1023999999999
 30
0.0
 11
50.71479999999997
 21
-50.10239999999993
 31
0.0
  0
LINE
  5
6D8
330
1E
100
AcDbEntity
  8
2
  6
CONTINUOUS
 62
     7
100
AcDbLine
 10
68.71480000000008
 20
-129.1023999999999
 30
0.0
 11
68.71480000000008
 21
-50.10239999999993
 31
0.0
  0
LINE
  5
6D9
330
1E
100
AcDbEntity
  8
2
  6
CONTINUOUS
 62
     7
100
AcDbLine
 10
83.71479999999996
 20
-129.1023999999999
 30
0.0
 11
83.71479999999996
 21
-50.10239999999993
 31
0.0
  0
LINE
  5
6DA
330
1E
100
AcDbEntity
  8
2
  6
CONTINUOUS
 62
     7
100
AcDbLine
 10
14.71480000000008
 20
-129.1023999999999
 30
0.0
 11
14.71480000000008
 21
-50.10239999999993
 31
0.0
  0
TEXT
  5
6DB
330
1E
100
AcDbEntity
  8
2
  6
CONTINUOUS
 62
     7
100
AcDbText
 10
18.52699680086266
 20
-118.6259999999996
 30
0.0
 40
3.5
  1
1220
  7
BIGFONT
100
AcDbText
  0
TEXT
  5
6DC
330
1E
100
AcDbEntity
  8
2
  6
CONTINUOUS
 62
     7
100
AcDbText
 10
22.3445060450433
 20
-126.626
 30
0.0
 40
3.5
  1
411
  7
BIGFONT
100
AcDbText
  0
TEXT
  5
6DD
330
1E
100
AcDbEntity
  8
2
  6
CONTINUOUS
 62
     7
100
AcDbText
 10
24.45647751956101
 20
-102.6259999999996
 30
0.0
 40
3.5
  1
80
  7
BIGFONT
100
AcDbText
  0
TEXT
  5
6DE
330
1E
100
AcDbEntity
  8
2
  6
CONTINUOUS
 62
     7
100
AcDbText
 10
19.03451967350951
 20
-110.6259999999998
 30
0.0
 40
3.5
  1
1200
  7
BIGFONT
100
AcDbText
  0
TEXT
  5
6DF
330
1E
100
AcDbEntity
  8
2
  6
CONTINUOUS
 62
     7
100
AcDbText
 10
40.42589154709939
 20
-118.6259999999996
 30
0.0
 40
3.5
  1
55
  7
BIGFONT
100
AcDbText
  0
TEXT
  5
6E0
330
1E
100
AcDbEntity
  8
2
  6
CONTINUOUS
 62
     7
100
AcDbText
 10
44.41473794601529
 20
-126.626
 30
0.0
 40
3.5
  1
0
  7
BIGFONT
100
AcDbText
  0
TEXT
  5
6E1
330
1E
100
AcDbEntity
  8
2
  6
CONTINUOUS
 62
     7
100
AcDbText
 10
36.31142161331057
 20
-102.6259999999996
 30
0.0
 40
3.5
  1
264
  7
BIGFONT
100
AcDbText
  0
TEXT
  5
6E2
330
1E
100
AcDbEntity
  8
2
  6
CONTINUOUS
 62
     7
100
AcDbText
 10
40.42589154709939
 20
-110.6259999999998
 30
0.0
 40
3.5
  1
57
  7
BIGFONT
100
AcDbText
  0
TEXT
  5
6E3
330
1E
100
AcDbEntity
  8
2
  6
CONTINUOUS
 62
     7
100
AcDbText
 10
21.43557435759498
 20
-71.24395091359833
 30
0.0
 40
3.5
  1
967
  7
BIGFONT
100
AcDbText
  0
TEXT
  5
6E4
330
1E
100
AcDbEntity
  8
2
  6
CONTINUOUS
 62
     7
100
AcDbText
 10
20.34485825420802
 20
-77.12250954686203
 30
0.0
 40
3.5
  1
1167
  7
BIGFONT
100
AcDbText
  0
TEXT
  5
6E5
330
1E
100
AcDbEntity
  8
2
  6
CONTINUOUS
 62
     7
100
AcDbText
 10
18.52699680086266
 20
-95.12250954686205
 30
0.0
 40
3.5
  1
1230
  7
BIGFONT
100
AcDbText
  0
TEXT
  5
6E6
330
1E
100
AcDbEntity
  8
2
  6
CONTINUOUS
 62
     7
100
AcDbText
 10
20.89021534512653
 20
-89.24395091359819
 30
0.0
 40
3.5
  1
570
  7
BIGFONT
100
AcDbText
  0
TEXT
  5
6E7
330
1E
100
AcDbEntity
  8
2
  6
CONTINUOUS
 62
     7
100
AcDbText
 10
19.71121683703887
 20
-63.62599999999996
 30
0.0
 40
3.5
  1
1357
  7
BIGFONT
100
AcDbText
  0
TEXT
  5
6E8
330
1E
100
AcDbEntity
  8
2
  6
CONTINUOUS
 62
     7
100
AcDbText
 10
40.42589154709939
 20
-77.12250954686203
 30
0.0
 40
3.5
  1
57
  7
BIGFONT
100
AcDbText
  0
TEXT
  5
6E9
330
1E
100
AcDbEntity
  8
2
  6
CONTINUOUS
 62
     7
100
AcDbText
 10
40.42589154709939
 20
-89.24395091359819
 30
0.0
 40
3.5
  1
55
  7
BIGFONT
100
AcDbText
  0
TEXT
  5
6EA
330
1E
100
AcDbEntity
  8
2
  6
CONTINUOUS
 62
     7
100
AcDbText
 10
40.42589154709939
 20
-95.12250954686205
 30
0.0
 40
3.5
  1
55
  7
BIGFONT
100
AcDbText
  0
TEXT
  5
6EB
330
1E
100
AcDbEntity
  8
2
  6
CONTINUOUS
 62
     7
100
AcDbText
 10
40.42589154709939
 20
-63.62599999999996
 30
0.0
 40
3.5
  1
57
  7
BIGFONT
100
AcDbText
  0
TEXT
  5
6EC
330
1E
100
AcDbEntity
  8
2
  6
CONTINUOUS
 62
     7
100
AcDbText
 10
40.42589154709939
 20
-71.24395091359833
 30
0.0
 40
3.5
  1
57
  7
BIGFONT
100
AcDbText
  0
TEXT
  5
6ED
330
1E
100
AcDbEntity
  8
2
  6
CONTINUOUS
 62
     7
100
AcDbText
 10
74.62917393705783
 20
-110.6259999999998
 30
0.0
 40
3.5
  1
30
  7
BIGFONT
100
AcDbText
  0
TEXT
  5
6EE
330
1E
100
AcDbEntity
  8
2
  6
CONTINUOUS
 62
     7
100
AcDbText
 10
74.62917393705783
 20
-118.6259999999996
 30
0.0
 40
3.5
  1
30
  7
BIGFONT
100
AcDbText
  0
TEXT
  5
6EF
330
1E
100
AcDbEntity
  8
2
  6
CONTINUOUS
 62
     7
100
AcDbText
 10
63.34934181147559
 20
-126.626
 30
0.0
 40
3.5
  1
0
  7
BIGFONT
100
AcDbText
  0
TEXT
  5
6F0
330
1E
100
AcDbEntity
  8
2
  6
CONTINUOUS
 62
     7
100
AcDbText
 10
54.10204629517392
 20
-118.6259999999996
 30
0.0
 40
3.5
  1
1220
  7
BIGFONT
100
AcDbText
  0
TEXT
  5
6F1
330
1E
100
AcDbEntity
  8
2
  6
CONTINUOUS
 62
     7
100
AcDbText
 10
54.64740530764284
 20
-110.6259999999998
 30
0.0
 40
3.5
  1
1200
  7
BIGFONT
100
AcDbText
  0
TEXT
  5
6F2
330
1E
100
AcDbEntity
  8
2
  6
CONTINUOUS
 62
     7
100
AcDbText
 10
59.80947037797768
 20
-102.6259999999996
 30
0.0
 40
3.5
  1
80
  7
BIGFONT
100
AcDbText
  0
TEXT
  5
6F3
330
1E
100
AcDbEntity
  8
2
  6
CONTINUOUS
 62
     7
100
AcDbText
 10
78.15516389153675
 20
-126.6259999999997
 30
0.0
 40
3.5
  1
0
  7
BIGFONT
100
AcDbText
  0
TEXT
  5
6F4
330
1E
100
AcDbEntity
  8
2
  6
CONTINUOUS
 62
     7
100
AcDbText
 10
91.43859185609448
 20
-126.6259999999997
 30
0.0
 40
3.5
  1
411
  7
BIGFONT
100
AcDbText
  0
TEXT
  5
6F5
330
1E
100
AcDbEntity
  8
2
  6
CONTINUOUS
 62
     7
100
AcDbText
 10
78.15516389153684
 20
-102.6259999999996
 30
0.0
 40
3.5
  1
0
  7
BIGFONT
100
AcDbText
  0
TEXT
  5
6F6
330
1E
100
AcDbEntity
  8
2
  6
CONTINUOUS
 62
     7
100
AcDbText
 10
89.19701320572654
 20
-102.6259999999996
 30
0.0
 40
3.5
  1
424
  7
BIGFONT
100
AcDbText
  0
TEXT
  5
6F7
330
1E
100
AcDbEntity
  8
2
  6
CONTINUOUS
 62
     7
100
AcDbText
 10
74.62917393705783
 20
-63.62599999999996
 30
0.0
 40
3.5
  1
30
  7
BIGFONT
100
AcDbText
  0
TEXT
  5
6F8
330
1E
100
AcDbEntity
  8
2
  6
CONTINUOUS
 62
     7
100
AcDbText
 10
74.62917393705783
 20
-70.81402932312733
 30
0.0
 40
3.5
  1
30
  7
BIGFONT
100
AcDbText
  0
TEXT
  5
6F9
330
1E
100
AcDbEntity
  8
2
  6
CONTINUOUS
 62
     7
100
AcDbText
 10
74.62917393705783
 20
-88.81402932312729
 30
0.0
 40
3.5
  1
30
  7
BIGFONT
100
AcDbText
  0
TEXT
  5
6FA
330
1E
100
AcDbEntity
  8
2
  6
CONTINUOUS
 62
     7
100
AcDbText
 10
74.62917393705783
 20
-95.32458950402711
 30
0.0
 40
3.5
  1
30
  7
BIGFONT
100
AcDbText
  0
TEXT
  5
6FB
330
1E
100
AcDbEntity
  8
2
  6
CONTINUOUS
 62
     7
100
AcDbText
 10
74.62917393705783
 20
-77.32458950402713
 30
0.0
 40
3.5
  1
30
  7
BIGFONT
100
AcDbText
  0
TEXT
  5
6FC
330
1E
100
AcDbEntity
  8
2
  6
CONTINUOUS
 62
     7
100
AcDbText
 10
57.6280362496529
 20
-77.12250954686203
 30
0.0
 40
3.5
  1
104
  7
BIGFONT
100
AcDbText
  0
TEXT
  5
6FD
330
1E
100
AcDbEntity
  8
2
  6
CONTINUOUS
 62
     7
100
AcDbText
 10
56.46526676098819
 20
-95.12250954686205
 30
0.0
 40
3.5
  1
820
  7
BIGFONT
100
AcDbText
  0
TEXT
  5
6FE
330
1E
100
AcDbEntity
  8
2
  6
CONTINUOUS
 62
     7
100
AcDbText
 10
56.46526676098819
 20
-89.24395091359819
 30
0.0
 40
3.5
  1
820
  7
BIGFONT
100
AcDbText
  0
TEXT
  5
6FF
330
1E
100
AcDbEntity
  8
2
  6
CONTINUOUS
 62
     7
100
AcDbText
 10
57.6280362496529
 20
-71.24395091359833
 30
0.0
 40
3.5
  1
104
  7
BIGFONT
100
AcDbText
  0
TEXT
  5
700
330
1E
100
AcDbEntity
  8
2
  6
CONTINUOUS
 62
     7
100
AcDbText
 10
57.6280362496529
 20
-63.62599999999996
 30
0.0
 40
3.5
  1
104
  7
BIGFONT
100
AcDbText
  0
TEXT
  5
701
330
1E
100
AcDbEntity
  8
2
  6
CONTINUOUS
 62
     7
100
AcDbText
 10
87.48286550422722
 20
-77.32458950402713
 30
0.0
 40
3.5
  1
1328
  7
BIGFONT
100
AcDbText
  0
TEXT
  5
702
330
1E
100
AcDbEntity
  8
2
  6
CONTINUOUS
 62
     7
100
AcDbText
 10
88.01029645309631
 20
-95.32458950402711
 30
0.0
 40
3.5
  1
2105
  7
BIGFONT
100
AcDbText
  0
TEXT
  5
703
330
1E
100
AcDbEntity
  8
2
  6
CONTINUOUS
 62
     7
100
AcDbText
 10
87.48286550422722
 20
-88.81402932312729
 30
0.0
 40
3.5
  1
1445
  7
BIGFONT
100
AcDbText
  0
TEXT
  5
704
330
1E
100
AcDbEntity
  8
2
  6
CONTINUOUS
 62
     7
100
AcDbText
 10
88.66958417840738
 20
-70.81402932312733
 30
0.0
 40
3.5
  1
1128
  7
BIGFONT
100
AcDbText
  0
TEXT
  5
705
330
1E
100
AcDbEntity
  8
2
  6
CONTINUOUS
 62
     7
100
AcDbText
 10
88.66958417840738
 20
-63.62599999999996
 30
0.0
 40
3.5
  1
1518
  7
BIGFONT
100
AcDbText
  0
TEXT
  5
706
330
1E
100
AcDbEntity
  8
2
  6
CONTINUOUS
 62
     7
100
AcDbText
 10
20.45860000000004
 20
-56.61039999999982
 30
0.0
 40
4.0
  1
Ｌ１
  7
BIGFONT
100
AcDbText
  0
TEXT
  5
707
330
1E
100
AcDbEntity
  8
2
  6
CONTINUOUS
 62
     7
100
AcDbText
 10
38.15739999999999
 20
-56.64579999999992
 30
0.0
 40
4.0
  1
Ｌ２
  7
BIGFONT
100
AcDbText
  0
TEXT
  5
708
330
1E
100
AcDbEntity
  8
2
  6
CONTINUOUS
 62
     7
100
AcDbText
 10
74.51709999999997
 20
-56.61039999999982
 30
0.0
 40
4.0
  1
Ｒ
  7
BIGFONT
100
AcDbText
  0
TEXT
  5
709
330
1E
100
AcDbEntity
  8
2
  6
CONTINUOUS
 62
     7
100
AcDbText
 10
55.34690000000007
 20
-56.57489999999981
 30
0.0
 40
4.0
  1
Ｌ３
  7
BIGFONT
100
AcDbText
  0
TEXT
  5
70A
330
1E
100
AcDbEntity
  8
2
  6
CONTINUOUS
 62
     7
100
AcDbText
 10
90.41820000000006
 20
-56.64579999999992
 30
0.0
 40
4.0
  1
Ｌ
  7
BIGFONT
100
AcDbText
  0
LINE
  5
70B
330
1E
100
AcDbEntity
  8
2
  6
CONTINUOUS
 62
     7
100
AcDbLine
 10
136.7147999999999
 20
-66.10239999999982
 30
0.0
 11
136.7147999999999
 21
-50.10239999999993
 31
0.0
  0
LINE
  5
70C
330
1E
100
AcDbEntity
  8
2
  6
CONTINUOUS
 62
     7
100
AcDbLine
 10
116.7147999999999
 20
-129.1023999999999
 30
0.0
 11
116.7147999999999
 21
-50.10239999999993
 31
0.0
  0
LINE
  5
70D
330
1E
100
AcDbEntity
  8
2
  6
CONTINUOUS
 62
     7
100
AcDbLine
 10
136.7147999999999
 20
-105.1023999999996
 30
0.0
 11
136.7147999999999
 21
-66.10239999999982
 31
0.0
  0
TEXT
  5
70E
330
1E
100
AcDbEntity
  8
2
  6
CONTINUOUS
 62
     7
100
AcDbText
 10
110.254626960286
 20
-126.6259999999997
 30
0.0
 40
3.5
  1
1
  7
BIGFONT
100
AcDbText
  0
TEXT
  5
70F
330
1E
100
AcDbEntity
  8
2
  6
CONTINUOUS
 62
     7
100
AcDbText
 10
109.4255587432914
 20
-118.6259999999996
 30
0.0
 40
3.5
  1
3
  7
BIGFONT
100
AcDbText
  0
TEXT
  5
710
330
1E
100
AcDbEntity
  8
2
  6
CONTINUOUS
 62
     7
100
AcDbText
 10
109.4255587432914
 20
-110.6259999999998
 30
0.0
 40
3.5
  1
6
  7
BIGFONT
100
AcDbText
  0
TEXT
  5
711
330
1E
100
AcDbEntity
  8
2
  6
CONTINUOUS
 62
     7
100
AcDbText
 10
107.6016078972827
 20
-102.6259999999996
 30
0.0
 40
3.5
  1
10
  7
BIGFONT
100
AcDbText
  0
TEXT
  5
712
330
1E
100
AcDbEntity
  8
2
  6
CONTINUOUS
 62
     7
100
AcDbText
 10
123.4751093999703
 20
-126.6259999999997
 30
0.0
 40
3.5
  1
0.23
  7
BIGFONT
100
AcDbText
  0
TEXT
  5
713
330
1E
100
AcDbEntity
  8
2
  6
CONTINUOUS
 62
     7
100
AcDbText
 10
122.9776680854635
 20
-118.6259999999996
 30
0.0
 40
3.5
  1
4.19
  7
BIGFONT
100
AcDbText
  0
TEXT
  5
714
330
1E
100
AcDbEntity
  8
2
  6
CONTINUOUS
 62
     7
100
AcDbText
 10
120.4904615129293
 20
-110.6259999999998
 30
0.0
 40
3.5
  1
14.67
  7
BIGFONT
100
AcDbText
  0
TEXT
  5
715
330
1E
100
AcDbEntity
  8
2
  6
CONTINUOUS
 62
     7
100
AcDbText
 10
122.9776680854635
 20
-102.6259999999996
 30
0.0
 40
3.5
  1
2.37
  7
BIGFONT
100
AcDbText
  0
TEXT
  5
716
330
1E
100
AcDbEntity
  8
2
  6
CONTINUOUS
 62
     7
100
AcDbText
 10
109.4255587432914
 20
-77.32458950402713
 30
0.0
 40
3.5
  1
2
  7
BIGFONT
100
AcDbText
  0
TEXT
  5
717
330
1E
100
AcDbEntity
  8
2
  6
CONTINUOUS
 62
     7
100
AcDbText
 10
109.4255587432914
 20
-95.32458950402711
 30
0.0
 40
3.5
  1
8
  7
BIGFONT
100
AcDbText
  0
TEXT
  5
718
330
1E
100
AcDbEntity
  8
2
  6
CONTINUOUS
 62
     7
100
AcDbText
 10
109.4255587432914
 20
-88.81402932312729
 30
0.0
 40
3.5
  1
8
  7
BIGFONT
100
AcDbText
  0
TEXT
  5
719
330
1E
100
AcDbEntity
  8
2
  6
CONTINUOUS
 62
     7
100
AcDbText
 10
109.4255587432914
 20
-70.81402932312733
 30
0.0
 40
3.5
  1
2
  7
BIGFONT
100
AcDbText
  0
TEXT
  5
71A
330
1E
100
AcDbEntity
  8
2
  6
CONTINUOUS
 62
     7
100
AcDbText
 10
107.1041665827758
 20
-63.62599999999996
 30
0.0
 40
3.5
  1
15
  7
BIGFONT
100
AcDbText
  0
TEXT
  5
71B
330
1E
100
AcDbEntity
  8
2
  6
CONTINUOUS
 62
     7
100
AcDbText
 10
122.9776680854635
 20
-77.32458950402713
 30
0.0
 40
3.5
  1
2.64
  7
BIGFONT
100
AcDbText
  0
TEXT
  5
71C
330
1E
100
AcDbEntity
  8
2
  6
CONTINUOUS
 62
     7
100
AcDbText
 10
122.9776680854635
 20
-95.32458950402711
 30
0.0
 40
3.5
  1
9.43
  7
BIGFONT
100
AcDbText
  0
TEXT
  5
71D
330
1E
100
AcDbEntity
  8
2
  6
CONTINUOUS
 62
     7
100
AcDbText
 10
122.9776680854635
 20
-88.81402932312729
 30
0.0
 40
3.5
  1
6.47
  7
BIGFONT
100
AcDbText
  0
TEXT
  5
71E
330
1E
100
AcDbEntity
  8
2
  6
CONTINUOUS
 62
     7
100
AcDbText
 10
122.9776680854635
 20
-70.81402932312733
 30
0.0
 40
3.5
  1
2.25
  7
BIGFONT
100
AcDbText
  0
TEXT
  5
71F
330
1E
100
AcDbEntity
  8
2
  6
CONTINUOUS
 62
     7
100
AcDbText
 10
119.4955788839149
 20
-63.62599999999996
 30
0.0
 40
3.5
  1
22.66
  7
BIGFONT
100
AcDbText
  0
TEXT
  5
720
330
1E
100
AcDbEntity
  8
2
  6
CONTINUOUS
 62
     7
100
AcDbText
 10
120.8137999999999
 20
-56.50739999999993
 30
0.0
 40
4.0
  1
重量
  7
BIGFONT
100
AcDbText
  0
TEXT
  5
721
330
1E
100
AcDbEntity
  8
2
  6
CONTINUOUS
 62
     7
100
AcDbText
 10
104.3708
 20
-56.50729999999993
 30
0.0
 40
4.0
  1
本数
  7
BIGFONT
100
AcDbText
  0
TEXT
  5
774
330
1E
100
AcDbEntity
  8
2
  6
CONTINUOUS
 62
     7
100
AcDbText
 10
3.196199999999976
 20
-81.91943287253868
 30
0.0
 40
3.5
  1
D13
  7
BIGFONT
100
AcDbText
  0
TEXT
  5
775
330
1E
100
AcDbEntity
  8
2
  6
CONTINUOUS
 62
     7
100
AcDbText
 10
18.52699680086266
 20
-82.37914241940075
 30
0.0
 40
3.5
  1
1227
  7
BIGFONT
100
AcDbText
  0
TEXT
  5
776
330
1E
100
AcDbEntity
  8
2
  6
CONTINUOUS
 62
     7
100
AcDbText
 10
40.42589154709939
 20
-82.37914241940075
 30
0.0
 40
3.5
  1
57
  7
BIGFONT
100
AcDbText
  0
TEXT
  5
777
330
1E
100
AcDbEntity
  8
2
  6
CONTINUOUS
 62
     7
100
AcDbText
 10
57.6280362496529
 20
-82.37914241940075
 30
0.0
 40
3.5
  1
104
  7
BIGFONT
100
AcDbText
  0
TEXT
  5
778
330
1E
100
AcDbEntity
  8
2
  6
CONTINUOUS
 62
     7
100
AcDbText
 10
74.62917393705783
 20
-82.58122237656584
 30
0.0
 40
3.5
  1
30
  7
BIGFONT
100
AcDbText
  0
TEXT
  5
779
330
1E
100
AcDbEntity
  8
2
  6
CONTINUOUS
 62
     7
100
AcDbText
 10
87.48286550422722
 20
-82.58122237656584
 30
0.0
 40
3.5
  1
1388
  7
BIGFONT
100
AcDbText
  0
TEXT
  5
77A
330
1E
100
AcDbEntity
  8
2
  6
CONTINUOUS
 62
     7
100
AcDbText
 10
107.1041665827758
 20
-82.58122237656584
 30
0.0
 40
3.5
  1
12
  7
BIGFONT
100
AcDbText
  0
TEXT
  5
77B
330
1E
100
AcDbEntity
  8
2
  6
CONTINUOUS
 62
     7
100
AcDbText
 10
120.656275924948
 20
-82.58122237656584
 30
0.0
 40
3.5
  1
16.58
  7
BIGFONT
100
AcDbText
  0
ENDSEC
  0
SECTION
  2
OBJECTS
  0
DICTIONARY
  5
C
330
0
100
AcDbDictionary
  3
ACAD_GROUP
350
D
  3
ACAD_LAYOUT
350
19
  3
ACAD_MLINESTYLE
350
16
  3
ACAD_PLOTSETTINGS
350
18
1001
ACAD
1000
TREAT_AS_HARD
1070
     0
1000
TREAT_AS_HARD
1070
     0
1000
TREAT_AS_HARD
1070
     0
1000
TREAT_AS_HARD
1070
     0
  0
DICTIONARY
  5
726
330
1E
100
AcDbDictionary
  3
ACAD_LAYOUTSELFREF
350
797
1001
ACAD
1000
TREAT_AS_HARD
1070
     0
1000
TREAT_AS_HARD
1070
     0
1000
TREAT_AS_HARD
1070
     0
  0
DICTIONARY
  5
724
330
1A
100
AcDbDictionary
  3
ACAD_LAYOUTSELFREF
350
796
1001
ACAD
1000
TREAT_AS_HARD
1070
     0
1000
TREAT_AS_HARD
1070
     0
1000
TREAT_AS_HARD
1070
     0
  0
DICTIONARY
  5
D
102
{ACAD_REACTORS
330
C
102
}
330
C
100
AcDbDictionary
1001
ACAD
1000
TREAT_AS_HARD
1070
     0
1000
TREAT_AS_HARD
1070
     0
1000
TREAT_AS_HARD
1070
     0
1000
TREAT_AS_HARD
1070
     0
  0
DICTIONARY
  5
19
102
{ACAD_REACTORS
330
C
102
}
330
C
100
AcDbDictionary
1001
ACAD
1000
TREAT_AS_HARD
1070
     0
1000
TREAT_AS_HARD
1070
     0
1000
TREAT_AS_HARD
1070
     0
1000
TREAT_AS_HARD
1070
     0
  0
DICTIONARY
  5
16
102
{ACAD_REACTORS
330
C
102
}
330
C
100
AcDbDictionary
  3
STANDARD
350
17
1001
ACAD
1000
TREAT_AS_HARD
1070
     0
1000
TREAT_AS_HARD
1070
     0
1000
TREAT_AS_HARD
1070
     0
1000
TREAT_AS_HARD
1070
     0
  0
DICTIONARY
  5
18
102
{ACAD_REACTORS
330
C
102
}
330
C
100
AcDbDictionary
1001
ACAD
1000
TREAT_AS_HARD
1070
     0
1000
TREAT_AS_HARD
1070
     0
1000
TREAT_AS_HARD
1070
     0
1000
TREAT_AS_HARD
1070
     0
  0
XRECORD
  5
797
102
{ACAD_REACTORS
330
726
102
}
330
726
100
AcDbXrecord
340
1E
  0
XRECORD
  5
796
102
{ACAD_REACTORS
330
724
102
}
330
724
100
AcDbXrecord
340
1A
  0
MLINESTYLE
  5
17
102
{ACAD_REACTORS
330
16
102
}
330
16
100
AcDbMlineStyle
  2
STANDARD
 70
     0
  3

 62
   256
 51
90.0
 52
90.0
 71
     2
 49
0.5
 62
   256
  6
BYLAYER
 49
-0.5
 62
   256
  6
BYLAYER
  0
ENDSEC
  0
EOF
