  0
SECTION
  2
HEADER
  9
$ACADVER
  1
AC1012
  9
$DWGCODEPAGE
  3
dos932
  9
$INSBASE
 10
0.0
 20
0.0
 30
0.0
  9
$EXTMIN
 10
-269.3737778816998
 20
-192.4209584743027
 30
-0.0000000000112498
  9
$EXTMAX
 10
269.4190992512963
 20
192.3889169730118
 30
0.0000000000002956
  9
$LIMMIN
 10
-297.0
 20
-210.0
  9
$LIMMAX
 10
297.0
 20
210.0
  9
$ORTHOMODE
 70
     1
  9
$REGENMODE
 70
     1
  9
$FILLMODE
 70
     1
  9
$QTEXTMODE
 70
     0
  9
$MIRRTEXT
 70
     1
  9
$DRAGMODE
 70
     2
  9
$LTSCALE
 40
1.0
  9
$OSMODE
 70
  2471
  9
$ATTMODE
 70
     1
  9
$TEXTSIZE
 40
1.0
  9
$TRACEWID
 40
0.05
  9
$TEXTSTYLE
  7
BIGFONT
  9
$CLAYER
  8
0
  9
$CELTYPE
  6
CONTINUOUS
  9
$CECOLOR
 62
   256
  9
$CELTSCALE
 40
1.0
  9
$DELOBJ
 70
     1
  9
$DISPSILH
 70
     0
  9
$DIMSCALE
 40
1.0
  9
$DIMASZ
 40
0.18
  9
$DIMEXO
 40
0.0625
  9
$DIMDLI
 40
0.38
  9
$DIMRND
 40
0.0
  9
$DIMDLE
 40
0.0
  9
$DIMEXE
 40
0.18
  9
$DIMTP
 40
0.0
  9
$DIMTM
 40
0.0
  9
$DIMTXT
 40
0.18
  9
$DIMCEN
 40
0.09
  9
$DIMTSZ
 40
0.0
  9
$DIMTOL
 70
     0
  9
$DIMLIM
 70
     0
  9
$DIMTIH
 70
     1
  9
$DIMTOH
 70
     1
  9
$DIMSE1
 70
     0
  9
$DIMSE2
 70
     0
  9
$DIMTAD
 70
     0
  9
$DIMZIN
 70
     0
  9
$DIMBLK
  1

  9
$DIMASO
 70
     1
  9
$DIMSHO
 70
     1
  9
$DIMPOST
  1

  9
$DIMAPOST
  1

  9
$DIMALT
 70
     0
  9
$DIMALTD
 70
     2
  9
$DIMALTF
 40
25.4
  9
$DIMLFAC
 40
1.0
  9
$DIMTOFL
 70
     0
  9
$DIMTVP
 40
0.0
  9
$DIMTIX
 70
     0
  9
$DIMSOXD
 70
     0
  9
$DIMSAH
 70
     0
  9
$DIMBLK1
  1

  9
$DIMBLK2
  1

  9
$DIMSTYLE
  2
STANDARD
  9
$DIMCLRD
 70
     0
  9
$DIMCLRE
 70
     0
  9
$DIMCLRT
 70
     0
  9
$DIMTFAC
 40
1.0
  9
$DIMGAP
 40
0.09
  9
$DIMJUST
 70
     0
  9
$DIMSD1
 70
     0
  9
$DIMSD2
 70
     0
  9
$DIMTOLJ
 70
     1
  9
$DIMTZIN
 70
     0
  9
$DIMALTZ
 70
     0
  9
$DIMALTTZ
 70
     0
  9
$DIMFIT
 70
     3
  9
$DIMUPT
 70
     0
  9
$DIMUNIT
 70
     2
  9
$DIMDEC
 70
     4
  9
$DIMTDEC
 70
     4
  9
$DIMALTU
 70
     2
  9
$DIMALTTD
 70
     2
  9
$DIMTXSTY
  7
STANDARD
  9
$DIMAUNIT
 70
     0
  9
$LUNITS
 70
     2
  9
$LUPREC
 70
     4
  9
$SKETCHINC
 40
0.1
  9
$FILLETRAD
 40
0.0
  9
$AUNITS
 70
     0
  9
$AUPREC
 70
     0
  9
$MENU
  1
.
  9
$ELEVATION
 40
0.0
  9
$PELEVATION
 40
0.0
  9
$THICKNESS
 40
0.0
  9
$LIMCHECK
 70
     0
  9
$BLIPMODE
 70
     0
  9
$CHAMFERA
 40
0.0
  9
$CHAMFERB
 40
0.0
  9
$CHAMFERC
 40
0.0
  9
$CHAMFERD
 40
0.0
  9
$SKPOLY
 70
     0
  9
$TDCREATE
 40
2452131.703781134
  9
$TDUPDATE
 40
2453202.788466782
  9
$TDINDWG
 40
0.0330887731
  9
$TDUSRTIMER
 40
0.0330880787
  9
$USRTIMER
 70
     1
  9
$ANGBASE
 50
0.0
  9
$ANGDIR
 70
     0
  9
$PDMODE
 70
     0
  9
$PDSIZE
 40
0.0
  9
$PLINEWID
 40
0.0
  9
$COORDS
 70
     1
  9
$SPLFRAME
 70
     0
  9
$SPLINETYPE
 70
     6
  9
$SPLINESEGS
 70
     8
  9
$ATTDIA
 70
     0
  9
$ATTREQ
 70
     1
  9
$HANDLING
 70
-16383
  9
$HANDSEED
  5
7A5
  9
$SURFTAB1
 70
     6
  9
$SURFTAB2
 70
     6
  9
$SURFTYPE
 70
     6
  9
$SURFU
 70
     6
  9
$SURFV
 70
     6
  9
$UCSNAME
  2

  9
$UCSORG
 10
0.0
 20
0.0
 30
0.0
  9
$UCSXDIR
 10
1.0
 20
0.0
 30
0.0
  9
$UCSYDIR
 10
0.0
 20
1.0
 30
0.0
  9
$PUCSNAME
  2

  9
$PUCSORG
 10
0.0
 20
0.0
 30
0.0
  9
$PUCSXDIR
 10
1.0
 20
0.0
 30
0.0
  9
$PUCSYDIR
 10
0.0
 20
1.0
 30
0.0
  9
$USERI1
 70
     0
  9
$USERI2
 70
     0
  9
$USERI3
 70
     0
  9
$USERI4
 70
     0
  9
$USERI5
 70
     0
  9
$USERR1
 40
0.0
  9
$USERR2
 40
0.0
  9
$USERR3
 40
0.0
  9
$USERR4
 40
0.0
  9
$USERR5
 40
0.0
  9
$WORLDVIEW
 70
     1
  9
$SHADEDGE
 70
     3
  9
$SHADEDIF
 70
    70
  9
$TILEMODE
 70
     1
  9
$MAXACTVP
 70
    64
  9
$PINSBASE
 10
0.0
 20
0.0
 30
0.0
  9
$PLIMCHECK
 70
     0
  9
$PEXTMIN
 10
1.000000000000000E+20
 20
1.000000000000000E+20
 30
1.000000000000000E+20
  9
$PEXTMAX
 10
-1.000000000000000E+20
 20
-1.000000000000000E+20
 30
-1.000000000000000E+20
  9
$PLIMMIN
 10
0.0
 20
0.0
  9
$PLIMMAX
 10
12.0
 20
9.0
  9
$UNITMODE
 70
     0
  9
$VISRETAIN
 70
     1
  9
$PLINEGEN
 70
     0
  9
$PSLTSCALE
 70
     1
  9
$TREEDEPTH
 70
  3020
  9
$PICKSTYLE
 70
     3
  9
$CMLSTYLE
  2
STANDARD
  9
$CMLJUST
 70
     0
  9
$CMLSCALE
 40
1.0
  9
$SAVEIMAGES
 70
     1
  0
ENDSEC
  0
SECTION
  2
CLASSES
  0
CLASS
  1
ACDBDICTIONARYWDFLT
  2
AcDbDictionaryWithDefault
  3
AutoCAD 2000
 90
    32768
280
     0
281
     0
  0
CLASS
  1
ACDBPLACEHOLDER
  2
AcDbPlaceHolder
  3
AutoCAD 2000
 90
    32768
280
     0
281
     0
  0
CLASS
  1
LAYOUT
  2
AcDbLayout
  3
AutoCAD 2000
 90
    32768
280
     0
281
     0
  0
CLASS
  1
LONG_TRANSACTION
  2
AcDbLongTransaction
  3
AutoCAD 2000
 90
    32768
280
     0
281
     0
  0
CLASS
  1
LWPOLYLINE
  2
AcDbPolyline
  3
AutoCAD 2000
 90
    32768
280
     0
281
     1
  0
CLASS
  1
HATCH
  2
AcDbHatch
  3
AutoCAD 2000
 90
    32768
280
     0
281
     1
  0
CLASS
  1
XRECORD
  2
AcDbXrecord
  3
AutoCAD 2000
 90
    32768
280
     0
281
     0
  0
CLASS
  1
LONG_TRANSACTION
  2
AcDbLongTransaction
  3
AutoCAD 2000
 90
    32768
280
     0
281
     0
  0
CLASS
  1
LWPOLYLINE
  2
AcDbPolyline
  3
AutoCAD 2000
 90
    32768
280
     0
281
     1
  0
CLASS
  1
HATCH
  2
AcDbHatch
  3
AutoCAD 2000
 90
    32768
280
     0
281
     1
  0
CLASS
  1
XRECORD
  2
AcDbXrecord
  3
AutoCAD 2000
 90
    32768
280
     0
281
     0
  0
CLASS
  1
LONG_TRANSACTION
  2
AcDbLongTransaction
  3
AutoCAD 2000
 90
    32768
280
     0
281
     0
  0
CLASS
  1
LWPOLYLINE
  2
AcDbPolyline
  3
AutoCAD 2000
 90
    32768
280
     0
281
     1
  0
CLASS
  1
HATCH
  2
AcDbHatch
  3
AutoCAD 2000
 90
    32768
280
     0
281
     1
  0
CLASS
  1
XRECORD
  2
AcDbXrecord
  3
AutoCAD 2000
 90
    32768
280
     0
281
     0
  0
ENDSEC
  0
SECTION
  2
TABLES
  0
TABLE
  2
VPORT
  5
8
330
0
100
AcDbSymbolTable
 70
     2
  0
VPORT
  5
7A2
330
8
100
AcDbSymbolTableRecord
100
AcDbViewportTableRecord
  2
*ACTIVE
 70
     0
 10
0.0
 20
0.0
 11
1.0
 21
1.0
 12
0.0226606847982165
 22
-0.0160207506454526
 13
0.0
 23
0.0
 14
1.0
 24
1.0
 15
0.0
 25
0.0
 16
0.0
 26
0.0
 36
1.0
 17
0.0
 27
0.0
 37
0.0
 40
389.301819518684
 41
1.432748538011695
 42
50.0
 43
0.0
 44
0.0
 50
0.0
 51
0.0
 71
     0
 72
   100
 73
     1
 74
     1
 75
     0
 76
     0
 77
     0
 78
     0
  0
ENDTAB
  0
TABLE
  2
LTYPE
  5
5
330
0
100
AcDbSymbolTable
 70
     5
  0
LTYPE
  5
13
330
5
100
AcDbSymbolTableRecord
100
AcDbLinetypeTableRecord
  2
BYBLOCK
 70
     0
  3

 72
    65
 73
     0
 40
0.0
  0
LTYPE
  5
14
330
5
100
AcDbSymbolTableRecord
100
AcDbLinetypeTableRecord
  2
BYLAYER
 70
     0
  3

 72
    65
 73
     0
 40
0.0
  0
LTYPE
  5
15
330
5
100
AcDbSymbolTableRecord
100
AcDbLinetypeTableRecord
  2
CONTINUOUS
 70
     0
  3
実線
 72
    65
 73
     0
 40
0.0
  0
LTYPE
  5
23
330
5
100
AcDbSymbolTableRecord
100
AcDbLinetypeTableRecord
  2
HIDDEN
 70
     0
  3
_ _ _ _ _ _ _ _ _ _ _ _ _ _ _ _ _ _ _ _ _ _ _
 72
    65
 73
     2
 40
0.375
 49
0.25
 74
     0
 49
-0.125
 74
     0
  0
LTYPE
  5
24
330
5
100
AcDbSymbolTableRecord
100
AcDbLinetypeTableRecord
  2
DASHED
 70
     0
  3
__ __ __ __ __ __ __ __ __ __ __ __ __ __ __
 72
    65
 73
     2
 40
0.75
 49
0.5
 74
     0
 49
-0.25
 74
     0
  0
LTYPE
  5
25
330
5
100
AcDbSymbolTableRecord
100
AcDbLinetypeTableRecord
  2
CENTER
 70
     0
  3
____ _ ____ _ ____ _ ____ _ ____ _ ____ _ ____
 72
    65
 73
     4
 40
2.0
 49
1.25
 74
     0
 49
-0.25
 74
     0
 49
0.25
 74
     0
 49
-0.25
 74
     0
  0
LTYPE
  5
26
330
5
100
AcDbSymbolTableRecord
100
AcDbLinetypeTableRecord
  2
PHANTOM
 70
     0
  3
_____ _ _ _____ _ _ _____ _ _ _____ _ _ ____
 72
    65
 73
     6
 40
2.5
 49
1.25
 74
     0
 49
-0.25
 74
     0
 49
0.25
 74
     0
 49
-0.25
 74
     0
 49
0.25
 74
     0
 49
-0.25
 74
     0
  0
ENDTAB
  0
TABLE
  2
LAYER
  5
2
330
0
100
AcDbSymbolTable
 70
     4
  0
LAYER
  5
10
330
2
100
AcDbSymbolTableRecord
100
AcDbLayerTableRecord
  2
0
 70
     0
 62
     7
  6
CONTINUOUS
  0
LAYER
  5
27
330
2
100
AcDbSymbolTableRecord
100
AcDbLayerTableRecord
  2
1
 70
     0
 62
     7
  6
CONTINUOUS
  0
LAYER
  5
28
330
2
100
AcDbSymbolTableRecord
100
AcDbLayerTableRecord
  2
2
 70
     0
 62
     7
  6
CONTINUOUS
  0
LAYER
  5
29
330
2
100
AcDbSymbolTableRecord
100
AcDbLayerTableRecord
  2
3
 70
     0
 62
     7
  6
CONTINUOUS
  0
ENDTAB
  0
TABLE
  2
STYLE
  5
3
330
0
100
AcDbSymbolTable
 70
     2
  0
STYLE
  5
11
330
3
100
AcDbSymbolTableRecord
100
AcDbTextStyleTableRecord
  2
STANDARD
 70
     0
 40
0.0
 41
1.0
 50
0.0
 71
     0
 42
0.2
  3
txt
  4

  0
STYLE
  5
22
330
3
100
AcDbSymbolTableRecord
100
AcDbTextStyleTableRecord
  2
BIGFONT
 70
     0
 40
0.0
 41
1.0
 50
0.0
 71
     0
 42
1.0
  3

  4
bigfont
  0
ENDTAB
  0
TABLE
  2
VIEW
  5
6
330
0
100
AcDbSymbolTable
 70
     0
  0
ENDTAB
  0
TABLE
  2
UCS
  5
7
330
0
100
AcDbSymbolTable
 70
     0
  0
ENDTAB
  0
TABLE
  2
APPID
  5
9
330
0
100
AcDbSymbolTable
 70
     1
  0
APPID
  5
12
330
9
100
AcDbSymbolTableRecord
100
AcDbRegAppTableRecord
  2
ACAD
 70
     0
  0
ENDTAB
  0
TABLE
  2
DIMSTYLE
  5
A
330
0
100
AcDbSymbolTable
 70
     1
  0
DIMSTYLE
105
618
330
A
100
AcDbSymbolTableRecord
100
AcDbDimStyleTableRecord
  2
STANDARD
 70
     0
  3

  4

  5

  6

  7

 40
1.0
 41
0.18
 42
0.0625
 43
0.38
 44
0.18
 45
0.0
 46
0.0
 47
0.0
 48
0.0
140
0.18
141
0.09
142
0.0
143
25.4
144
1.0
145
0.0
146
1.0
147
0.09
 71
     0
 72
     0
 73
     1
 74
     1
 75
     0
 76
     0
 77
     0
 78
     0
170
     0
171
     2
172
     0
173
     0
174
     0
175
     0
176
     0
177
     0
178
     0
270
     2
271
     4
272
     4
273
     2
274
     2
340
11
275
     0
280
     0
281
     0
282
     0
283
     1
284
     0
285
     0
286
     0
287
     3
288
     0
  0
ENDTAB
  0
TABLE
  2
BLOCK_RECORD
  5
1
330
0
100
AcDbSymbolTable
 70
     0
  0
BLOCK_RECORD
  5
1E
102
{ACAD_XDICTIONARY
360
78B
102
}
330
1
100
AcDbSymbolTableRecord
100
AcDbBlockTableRecord
  2
*MODEL_SPACE
  0
BLOCK_RECORD
  5
1A
102
{ACAD_XDICTIONARY
360
789
102
}
330
1
100
AcDbSymbolTableRecord
100
AcDbBlockTableRecord
  2
*PAPER_SPACE
  0
ENDTAB
  0
ENDSEC
  0
SECTION
  2
BLOCKS
  0
BLOCK
  5
1F
330
1E
100
AcDbEntity
  8
0
100
AcDbBlockBegin
  2
*MODEL_SPACE
 70
     0
 10
0.0
 20
0.0
 30
0.0
  3
*MODEL_SPACE
  1

  0
ENDBLK
  5
20
330
1E
100
AcDbEntity
  8
0
100
AcDbBlockEnd
  0
BLOCK
  5
1B
330
1A
100
AcDbEntity
 67
     1
  8
0
100
AcDbBlockBegin
  2
*PAPER_SPACE
 70
     0
 10
0.0
 20
0.0
 30
0.0
  3
*PAPER_SPACE
  1

  0
ENDBLK
  5
1C
330
1A
100
AcDbEntity
 67
     1
  8
0
100
AcDbBlockEnd
  0
ENDSEC
  0
SECTION
  2
ENTITIES
  0
LINE
  5
2D
330
1E
100
AcDbEntity
  8
0
  6
CONTINUOUS
 62
     7
100
AcDbLine
 10
166.25
 20
61.1319
 30
0.0
 11
223.75
 21
61.1319
 31
0.0
  0
LINE
  5
2E
330
1E
100
AcDbEntity
  8
0
  6
CONTINUOUS
 62
     7
100
AcDbLine
 10
166.25
 20
61.1319
 30
0.0
 11
166.25
 21
123.1818999999999
 31
0.0
  0
LINE
  5
2F
330
1E
100
AcDbEntity
  8
0
  6
CONTINUOUS
 62
     7
100
AcDbLine
 10
166.6999999999999
 20
123.6318999999999
 30
0.0
 11
171.8
 21
123.6318999999999
 31
0.0
  0
LINE
  5
30
330
1E
100
AcDbEntity
  8
0
  6
CONTINUOUS
 62
     7
100
AcDbLine
 10
133.75
 20
61.1319
 30
0.0
 11
133.75
 21
123.6318999999999
 31
0.0
  0
LINE
  5
31
330
1E
100
AcDbEntity
  8
0
  6
CONTINUOUS
 62
     7
100
AcDbLine
 10
165.25
 20
123.6318999999999
 30
0.0
 11
132.9499999999999
 21
123.6318999999999
 31
0.0
  0
LINE
  5
32
330
1E
100
AcDbEntity
  8
0
  6
CONTINUOUS
 62
     7
100
AcDbLine
 10
165.25
 20
61.1319
 30
0.0
 11
132.9499999999999
 21
61.1319
 31
0.0
  0
LINE
  5
33
330
1E
100
AcDbEntity
  8
0
  6
CONTINUOUS
 62
     7
100
AcDbLine
 10
134.07153
 20
122.431
 30
0.0
 11
133.75
 21
123.631
 31
0.0
  0
LINE
  5
34
330
1E
100
AcDbEntity
  8
0
  6
CONTINUOUS
 62
     7
100
AcDbLine
 10
133.75
 20
123.631
 30
0.0
 11
133.4284599999999
 21
122.431
 31
0.0
  0
LINE
  5
35
330
1E
100
AcDbEntity
  8
0
  6
CONTINUOUS
 62
     7
100
AcDbLine
 10
133.4284599999999
 20
62.331
 30
0.0
 11
133.75
 21
61.131
 31
0.0
  0
LINE
  5
36
330
1E
100
AcDbEntity
  8
0
  6
CONTINUOUS
 62
     7
100
AcDbLine
 10
133.75
 20
61.131
 30
0.0
 11
134.07153
 21
62.331
 31
0.0
  0
TEXT
  5
37
330
1E
100
AcDbEntity
  8
0
  6
CONTINUOUS
 62
     7
100
AcDbText
 10
133.3499999999999
 20
87.18189999999998
 30
0.0
 40
3.2
  1
1250
 50
90.0
 41
0.8125
  7
BIGFONT
100
AcDbText
  0
LINE
  5
38
330
1E
100
AcDbEntity
  8
0
  6
HIDDEN
 62
     7
100
AcDbLine
 10
166.25
 20
111.7569
 30
0.0
 11
172.25
 21
111.7569
 31
0.0
  0
LINE
  5
39
330
1E
100
AcDbEntity
  8
0
  6
CONTINUOUS
 62
     7
100
AcDbLine
 10
163.4525999999999
 20
109.8818999999999
 30
0.0
 11
168.50245
 21
109.8818999999999
 31
0.0
  0
LINE
  5
3A
330
1E
100
AcDbEntity
  8
0
  6
CONTINUOUS
 62
     7
100
AcDbLine
 10
169.1492
 20
109.8818999999999
 30
0.0
 11
169.2867999999999
 21
109.8818999999999
 31
0.0
  0
LINE
  5
3B
330
1E
100
AcDbEntity
  8
0
  6
CONTINUOUS
 62
     7
100
AcDbLine
 10
169.8465999999999
 20
109.8818999999999
 30
0.0
 11
174.887
 21
109.8818999999999
 31
0.0
  0
ARC
  5
3C
330
1E
100
AcDbEntity
  8
0
  6
CONTINUOUS
 62
     7
100
AcDbCircle
 10
171.8
 20
123.1818999999999
 30
0.0
 40
0.45
100
AcDbArc
 50
0.0
 51
90.0
  0
ARC
  5
3D
330
1E
100
AcDbEntity
  8
0
  6
CONTINUOUS
 62
     7
100
AcDbCircle
 10
166.6999999999999
 20
123.1818999999999
 30
0.0
 40
0.45
100
AcDbArc
 50
90.0
 51
180.0
  0
LINE
  5
3E
330
1E
100
AcDbEntity
  8
0
  6
CONTINUOUS
 62
     7
100
AcDbLine
 10
166.25
 20
103.6318999999999
 30
0.0
 11
172.25
 21
103.6318999999999
 31
0.0
  0
LINE
  5
3F
330
1E
100
AcDbEntity
  8
0
  6
CONTINUOUS
 62
     7
100
AcDbLine
 10
148.75
 20
61.1319
 30
0.0
 11
148.75
 21
73.6315
 31
0.0
  0
LINE
  5
40
330
1E
100
AcDbEntity
  8
0
  6
CONTINUOUS
 62
     7
100
AcDbLine
 10
165.25
 20
73.6315
 30
0.0
 11
147.9499999999999
 21
73.6315
 31
0.0
  0
LINE
  5
41
330
1E
100
AcDbEntity
  8
0
  6
CONTINUOUS
 62
     7
100
AcDbLine
 10
148.75
 20
61.1319
 30
0.0
 11
148.75
 21
61.1319
 31
0.0
  0
LINE
  5
42
330
1E
100
AcDbEntity
  8
0
  6
CONTINUOUS
 62
     7
100
AcDbLine
 10
149.0715299999999
 20
72.431
 30
0.0
 11
148.75
 21
73.631
 31
0.0
  0
LINE
  5
43
330
1E
100
AcDbEntity
  8
0
  6
CONTINUOUS
 62
     7
100
AcDbLine
 10
148.75
 20
73.631
 30
0.0
 11
148.42846
 21
72.431
 31
0.0
  0
LINE
  5
44
330
1E
100
AcDbEntity
  8
0
  6
CONTINUOUS
 62
     7
100
AcDbLine
 10
148.42846
 20
62.331
 30
0.0
 11
148.75
 21
61.131
 31
0.0
  0
LINE
  5
45
330
1E
100
AcDbEntity
  8
0
  6
CONTINUOUS
 62
     7
100
AcDbLine
 10
148.75
 20
61.131
 30
0.0
 11
149.0715299999999
 21
62.331
 31
0.0
  0
TEXT
  5
46
330
1E
100
AcDbEntity
  8
0
  6
CONTINUOUS
 62
     7
100
AcDbText
 10
148.35
 20
63.48169999999999
 30
0.0
 40
3.2
  1
250
 50
90.0
 41
0.8125
  7
BIGFONT
100
AcDbText
  0
LINE
  5
47
330
1E
100
AcDbEntity
  8
0
  6
CONTINUOUS
 62
     7
100
AcDbLine
 10
148.75
 20
73.6315
 30
0.0
 11
148.75
 21
103.6318999999999
 31
0.0
  0
LINE
  5
48
330
1E
100
AcDbEntity
  8
0
  6
CONTINUOUS
 62
     7
100
AcDbLine
 10
165.25
 20
103.6318999999999
 30
0.0
 11
147.9499999999999
 21
103.6318999999999
 31
0.0
  0
LINE
  5
49
330
1E
100
AcDbEntity
  8
0
  6
CONTINUOUS
 62
     7
100
AcDbLine
 10
149.0715299999999
 20
102.431
 30
0.0
 11
148.75
 21
103.631
 31
0.0
  0
LINE
  5
4A
330
1E
100
AcDbEntity
  8
0
  6
CONTINUOUS
 62
     7
100
AcDbLine
 10
148.75
 20
103.631
 30
0.0
 11
148.42846
 21
102.431
 31
0.0
  0
LINE
  5
4B
330
1E
100
AcDbEntity
  8
0
  6
CONTINUOUS
 62
     7
100
AcDbLine
 10
148.42846
 20
74.831
 30
0.0
 11
148.75
 21
73.631
 31
0.0
  0
LINE
  5
4C
330
1E
100
AcDbEntity
  8
0
  6
CONTINUOUS
 62
     7
100
AcDbLine
 10
148.75
 20
73.631
 30
0.0
 11
149.0715299999999
 21
74.831
 31
0.0
  0
TEXT
  5
4D
330
1E
100
AcDbEntity
  8
0
  6
CONTINUOUS
 62
     7
100
AcDbText
 10
148.35
 20
84.73170000000001
 30
0.0
 40
3.2
  1
600
 50
90.0
 41
0.8125
  7
BIGFONT
100
AcDbText
  0
LINE
  5
4E
330
1E
100
AcDbEntity
  8
0
  6
CONTINUOUS
 62
     7
100
AcDbLine
 10
148.75
 20
103.6318999999999
 30
0.0
 11
148.75
 21
123.6318999999999
 31
0.0
  0
LINE
  5
4F
330
1E
100
AcDbEntity
  8
0
  6
CONTINUOUS
 62
     7
100
AcDbLine
 10
148.75
 20
123.6318999999999
 30
0.0
 11
148.75
 21
123.6318999999999
 31
0.0
  0
LINE
  5
50
330
1E
100
AcDbEntity
  8
0
  6
CONTINUOUS
 62
     7
100
AcDbLine
 10
149.0715299999999
 20
122.431
 30
0.0
 11
148.75
 21
123.631
 31
0.0
  0
LINE
  5
51
330
1E
100
AcDbEntity
  8
0
  6
CONTINUOUS
 62
     7
100
AcDbLine
 10
148.75
 20
123.631
 30
0.0
 11
148.42846
 21
122.431
 31
0.0
  0
LINE
  5
52
330
1E
100
AcDbEntity
  8
0
  6
CONTINUOUS
 62
     7
100
AcDbLine
 10
148.42846
 20
104.831
 30
0.0
 11
148.75
 21
103.631
 31
0.0
  0
LINE
  5
53
330
1E
100
AcDbEntity
  8
0
  6
CONTINUOUS
 62
     7
100
AcDbLine
 10
148.75
 20
103.631
 30
0.0
 11
149.0715299999999
 21
104.831
 31
0.0
  0
TEXT
  5
54
330
1E
100
AcDbEntity
  8
0
  6
CONTINUOUS
 62
     7
100
AcDbText
 10
148.35
 20
109.7318999999999
 30
0.0
 40
3.2
  1
400
 50
90.0
 41
0.8125
  7
BIGFONT
100
AcDbText
  0
LINE
  5
55
330
1E
100
AcDbEntity
  8
0
  6
CONTINUOUS
 62
     7
100
AcDbLine
 10
156.25
 20
107.1352499999999
 30
0.0
 11
156.25
 21
123.6318999999999
 31
0.0
  0
LINE
  5
56
330
1E
100
AcDbEntity
  8
0
  6
CONTINUOUS
 62
     7
100
AcDbLine
 10
156.78475
 20
123.6318999999999
 30
0.0
 11
155.4499999999999
 21
123.6318999999999
 31
0.0
  0
LINE
  5
57
330
1E
100
AcDbEntity
  8
0
  6
CONTINUOUS
 62
     7
100
AcDbLine
 10
165.25
 20
107.1352499999999
 30
0.0
 11
155.4499999999999
 21
107.1352499999999
 31
0.0
  0
LINE
  5
58
330
1E
100
AcDbEntity
  8
0
  6
CONTINUOUS
 62
     7
100
AcDbLine
 10
156.5715299999999
 20
122.431
 30
0.0
 11
156.25
 21
123.631
 31
0.0
  0
LINE
  5
59
330
1E
100
AcDbEntity
  8
0
  6
CONTINUOUS
 62
     7
100
AcDbLine
 10
156.25
 20
123.631
 30
0.0
 11
155.9284599999999
 21
122.431
 31
0.0
  0
LINE
  5
5A
330
1E
100
AcDbEntity
  8
0
  6
CONTINUOUS
 62
     7
100
AcDbLine
 10
155.9284599999999
 20
108.335
 30
0.0
 11
156.25
 21
107.135
 31
0.0
  0
LINE
  5
5B
330
1E
100
AcDbEntity
  8
0
  6
CONTINUOUS
 62
     7
100
AcDbLine
 10
156.25
 20
107.135
 30
0.0
 11
156.5715299999999
 21
108.335
 31
0.0
  0
TEXT
  5
5C
330
1E
100
AcDbEntity
  8
0
  6
CONTINUOUS
 62
     7
100
AcDbText
 10
155.8499999999999
 20
111.4835699999999
 30
0.0
 40
3.2
  1
330
 50
90.0
 41
0.8125
  7
BIGFONT
100
AcDbText
  0
LINE
  5
5D
330
1E
100
AcDbEntity
  8
0
  6
CONTINUOUS
 62
     7
100
AcDbLine
 10
223.75
 20
103.6318999999999
 30
0.0
 11
223.75
 21
123.6318999999999
 31
0.0
  0
LINE
  5
5E
330
1E
100
AcDbEntity
  8
0
  6
CONTINUOUS
 62
     7
100
AcDbLine
 10
223.6
 20
103.4818999999999
 30
0.0
 11
223.75
 21
103.6318999999999
 31
0.0
  0
LINE
  5
5F
330
1E
100
AcDbEntity
  8
0
  6
CONTINUOUS
 62
     7
100
AcDbLine
 10
223.6
 20
75.78189999999998
 30
0.0
 11
223.6
 21
103.4818999999999
 31
0.0
  0
LINE
  5
60
330
1E
100
AcDbEntity
  8
0
  6
CONTINUOUS
 62
     7
100
AcDbLine
 10
223.6
 20
75.78189999999998
 30
0.0
 11
223.75
 21
75.6319
 31
0.0
  0
LINE
  5
61
330
1E
100
AcDbEntity
  8
0
  6
CONTINUOUS
 62
     7
100
AcDbLine
 10
223.75
 20
61.7319
 30
0.0
 11
223.75
 21
75.6319
 31
0.0
  0
LINE
  5
62
330
1E
100
AcDbEntity
  8
0
  6
CONTINUOUS
 62
     7
100
AcDbLine
 10
194.4106999999999
 20
109.8818999999999
 30
0.0
 11
203.8369499999999
 21
109.8818999999999
 31
0.0
  0
LINE
  5
63
330
1E
100
AcDbEntity
  8
0
  6
CONTINUOUS
 62
     7
100
AcDbLine
 10
198.75
 20
105.1819
 30
0.0
 11
198.75
 21
114.5819
 31
0.0
  0
CIRCLE
  5
64
330
1E
100
AcDbEntity
  8
0
  6
CONTINUOUS
 62
     7
100
AcDbCircle
 10
198.75
 20
109.8818999999999
 30
0.0
 40
1.875
  0
LINE
  5
65
330
1E
100
AcDbEntity
  8
0
  6
CONTINUOUS
 62
     7
100
AcDbLine
 10
150.2655999999998
 20
67.11315
 30
0.0
 11
165.2707499999999
 21
67.11315
 31
0.0
  0
LINE
  5
66
330
1E
100
AcDbEntity
  8
3
  6
CONTINUOUS
 62
     7
100
AcDbLine
 10
167.2879999999999
 20
-190.299
 30
0.0
 11
167.2879999999999
 21
-140.299
 31
0.0
  0
LINE
  5
67
330
1E
100
AcDbEntity
  8
3
  6
CONTINUOUS
 62
     7
100
AcDbLine
 10
167.2879999999999
 20
-190.299
 30
0.0
 11
167.2879999999999
 21
-140.299
 31
0.0
  0
LINE
  5
68
330
1E
100
AcDbEntity
  8
3
  6
CONTINUOUS
 62
     7
100
AcDbLine
 10
167.2879999999999
 20
-190.299
 30
0.0
 11
167.2879999999999
 21
-140.299
 31
0.0
  0
LINE
  5
69
330
1E
100
AcDbEntity
  8
3
  6
CONTINUOUS
 62
     7
100
AcDbLine
 10
167.2879999999999
 20
-190.299
 30
0.0
 11
167.2879999999999
 21
-140.299
 31
0.0
  0
LINE
  5
6A
330
1E
100
AcDbEntity
  8
3
  6
CONTINUOUS
 62
     7
100
AcDbLine
 10
167.2879999999999
 20
-190.299
 30
0.0
 11
167.2879999999999
 21
-140.299
 31
0.0
  0
LINE
  5
6B
330
1E
100
AcDbEntity
  8
3
  6
CONTINUOUS
 62
     7
100
AcDbLine
 10
167.2879999999999
 20
-190.299
 30
0.0
 11
167.2879999999999
 21
-140.299
 31
0.0
  0
LINE
  5
6C
330
1E
100
AcDbEntity
  8
3
  6
CONTINUOUS
 62
     7
100
AcDbLine
 10
167.2879999999999
 20
-140.299
 30
0.0
 11
267.288
 21
-140.299
 31
0.0
  0
LINE
  5
6D
330
1E
100
AcDbEntity
  8
3
  6
CONTINUOUS
 62
     7
100
AcDbLine
 10
267.288
 20
-190.299
 30
0.0
 11
267.288
 21
-140.299
 31
0.0
  0
LINE
  5
6E
330
1E
100
AcDbEntity
  8
3
  6
CONTINUOUS
 62
     7
100
AcDbLine
 10
167.2879999999999
 20
-190.299
 30
0.0
 11
267.288
 21
-190.299
 31
0.0
  0
LINE
  5
6F
330
1E
100
AcDbEntity
  8
3
  6
CONTINUOUS
 62
     7
100
AcDbLine
 10
167.2879999999999
 20
-190.299
 30
0.0
 11
167.2879999999999
 21
-140.299
 31
0.0
  0
LINE
  5
70
330
1E
100
AcDbEntity
  8
3
  6
CONTINUOUS
 62
     7
100
AcDbLine
 10
167.2879999999999
 20
-140.299
 30
0.0
 11
267.288
 21
-140.299
 31
0.0
  0
LINE
  5
71
330
1E
100
AcDbEntity
  8
3
  6
CONTINUOUS
 62
     7
100
AcDbLine
 10
267.288
 20
-190.299
 30
0.0
 11
267.288
 21
-140.299
 31
0.0
  0
LINE
  5
72
330
1E
100
AcDbEntity
  8
3
  6
CONTINUOUS
 62
     7
100
AcDbLine
 10
167.2879999999999
 20
-190.299
 30
0.0
 11
267.288
 21
-190.299
 31
0.0
  0
LINE
  5
73
330
1E
100
AcDbEntity
  8
3
  6
CONTINUOUS
 62
     7
100
AcDbLine
 10
167.2879999999999
 20
-190.299
 30
0.0
 11
167.2879999999999
 21
-140.299
 31
0.0
  0
LINE
  5
74
330
1E
100
AcDbEntity
  8
3
  6
CONTINUOUS
 62
     7
100
AcDbLine
 10
167.2879999999999
 20
-150.299
 30
0.0
 11
267.288
 21
-150.299
 31
0.0
  0
LINE
  5
75
330
1E
100
AcDbEntity
  8
3
  6
CONTINUOUS
 62
     7
100
AcDbLine
 10
167.2879999999999
 20
-158.299
 30
0.0
 11
267.288
 21
-158.299
 31
0.0
  0
LINE
  5
76
330
1E
100
AcDbEntity
  8
3
  6
CONTINUOUS
 62
     7
100
AcDbLine
 10
167.2879999999999
 20
-166.299
 30
0.0
 11
267.288
 21
-166.299
 31
0.0
  0
LINE
  5
77
330
1E
100
AcDbEntity
  8
3
  6
CONTINUOUS
 62
     7
100
AcDbLine
 10
167.2879999999999
 20
-179.299
 30
0.0
 11
267.288
 21
-179.299
 31
0.0
  0
LINE
  5
78
330
1E
100
AcDbEntity
  8
3
  6
CONTINUOUS
 62
     7
100
AcDbLine
 10
194.2879999999999
 20
-179.299
 30
0.0
 11
194.2879999999999
 21
-140.299
 31
0.0
  0
LINE
  5
79
330
1E
100
AcDbEntity
  8
3
  6
CONTINUOUS
 62
     7
100
AcDbLine
 10
187.2879999999999
 20
-179.299
 30
0.0
 11
187.2879999999999
 21
-166.299
 31
0.0
  0
LINE
  5
7A
330
1E
100
AcDbEntity
  8
3
  6
CONTINUOUS
 62
     7
100
AcDbLine
 10
174.2879999999999
 20
-179.299
 30
0.0
 11
174.2879999999999
 21
-166.299
 31
0.0
  0
LINE
  5
7B
330
1E
100
AcDbEntity
  8
3
  6
CONTINUOUS
 62
     7
100
AcDbLine
 10
207.288
 20
-179.299
 30
0.0
 11
207.288
 21
-166.299
 31
0.0
  0
LINE
  5
7C
330
1E
100
AcDbEntity
  8
3
  6
CONTINUOUS
 62
     7
100
AcDbLine
 10
214.2879999999999
 20
-179.299
 30
0.0
 11
214.2879999999999
 21
-166.299
 31
0.0
  0
LINE
  5
7D
330
1E
100
AcDbEntity
  8
3
  6
CONTINUOUS
 62
     7
100
AcDbLine
 10
227.2879999999999
 20
-179.299
 30
0.0
 11
227.2879999999999
 21
-166.299
 31
0.0
  0
LINE
  5
7E
330
1E
100
AcDbEntity
  8
3
  6
CONTINUOUS
 62
     7
100
AcDbLine
 10
234.288
 20
-179.299
 30
0.0
 11
234.288
 21
-166.299
 31
0.0
  0
LINE
  5
7F
330
1E
100
AcDbEntity
  8
3
  6
CONTINUOUS
 62
     7
100
AcDbLine
 10
247.2879999999999
 20
-179.299
 30
0.0
 11
247.2879999999999
 21
-166.299
 31
0.0
  0
LINE
  5
80
330
1E
100
AcDbEntity
  8
3
  6
CONTINUOUS
 62
     7
100
AcDbLine
 10
254.2879999999999
 20
-179.299
 30
0.0
 11
254.2879999999999
 21
-166.299
 31
0.0
  0
LINE
  5
81
330
1E
100
AcDbEntity
  8
3
  6
CONTINUOUS
 62
     7
100
AcDbLine
 10
219.2879999999999
 20
-158.299
 30
0.0
 11
219.2879999999999
 21
-150.299
 31
0.0
  0
LINE
  5
82
330
1E
100
AcDbEntity
  8
3
  6
CONTINUOUS
 62
     7
100
AcDbLine
 10
242.2879999999999
 20
-158.299
 30
0.0
 11
242.2879999999999
 21
-150.299
 31
0.0
  0
TEXT
  5
83
330
1E
100
AcDbEntity
  8
3
  6
CONTINUOUS
 62
     7
100
AcDbText
 10
170.6029999999999
 20
-148.1629999999998
 30
0.0
 40
5.0
  1
図面名
  7
BIGFONT
100
AcDbText
  0
TEXT
  5
84
330
1E
100
AcDbEntity
  8
3
  6
CONTINUOUS
 62
     7
100
AcDbText
 10
171.083
 20
-156.5249999999998
 30
0.0
 40
4.0
  1
縮尺
  7
BIGFONT
100
AcDbText
  0
TEXT
  5
85
330
1E
100
AcDbEntity
  8
3
  6
CONTINUOUS
 62
     7
100
AcDbText
 10
221.519
 20
-156.4289999999999
 30
0.0
 40
4.0
  1
図面番号
  7
BIGFONT
100
AcDbText
  0
TEXT
  5
86
330
1E
100
AcDbEntity
  8
3
  6
CONTINUOUS
 62
     7
100
AcDbText
 10
170.8909999999999
 20
-164.503
 30
0.0
 40
4.0
  1
設計年月日
  7
BIGFONT
100
AcDbText
  0
TEXT
  5
87
330
1E
100
AcDbEntity
  8
3
  6
CONTINUOUS
 62
     7
100
AcDbText
 10
202.9779999999999
 20
-164.503
 30
0.0
 40
4.0
  1
平成　　年　　月　　日
  7
BIGFONT
100
AcDbText
  0
TEXT
  5
88
330
1E
100
AcDbEntity
  8
3
  6
CONTINUOUS
 62
     7
100
AcDbText
 10
188.8940802455199
 20
-188.2329999999999
 30
0.0
 40
6.0
  1
千葉窯業株式会社
  7
BIGFONT
100
AcDbText
  0
TEXT
  5
89
330
1E
100
AcDbEntity
  8
3
  6
CONTINUOUS
 62
     7
100
AcDbText
 10
168.97
 20
-168.06
 30
0.0
 40
4.0
  1
部長
 50
270.0
  7
BIGFONT
100
AcDbText
  0
TEXT
  5
8A
330
1E
100
AcDbEntity
  8
3
  6
CONTINUOUS
 62
     7
100
AcDbText
 10
188.952
 20
-168.06
 30
0.0
 40
4.0
  1
課長
 50
270.0
  7
BIGFONT
100
AcDbText
  0
TEXT
  5
8B
330
1E
100
AcDbEntity
  8
3
  6
CONTINUOUS
 62
     7
100
AcDbText
 10
208.9339999999999
 20
-168.06
 30
0.0
 40
4.0
  1
検図
 50
270.0
  7
BIGFONT
100
AcDbText
  0
TEXT
  5
8C
330
1E
100
AcDbEntity
  8
3
  6
CONTINUOUS
 62
     7
100
AcDbText
 10
229.109
 20
-168.06
 30
0.0
 40
4.0
  1
設計
 50
270.0
  7
BIGFONT
100
AcDbText
  0
TEXT
  5
8D
330
1E
100
AcDbEntity
  8
3
  6
CONTINUOUS
 62
     7
100
AcDbText
 10
248.9949999999999
 20
-167.964
 30
0.0
 40
4.0
  1
製図
 50
270.0
  7
BIGFONT
100
AcDbText
  0
LINE
  5
8E
330
1E
100
AcDbEntity
  8
3
  6
CONTINUOUS
 62
     7
100
AcDbLine
 10
167.2879999999999
 20
-140.299
 30
0.0
 11
267.288
 21
-140.299
 31
0.0
  0
LINE
  5
8F
330
1E
100
AcDbEntity
  8
3
  6
CONTINUOUS
 62
     7
100
AcDbLine
 10
267.288
 20
-190.299
 30
0.0
 11
267.288
 21
-140.299
 31
0.0
  0
LINE
  5
90
330
1E
100
AcDbEntity
  8
3
  6
CONTINUOUS
 62
     7
100
AcDbLine
 10
167.2879999999999
 20
-190.299
 30
0.0
 11
267.288
 21
-190.299
 31
0.0
  0
LINE
  5
91
330
1E
100
AcDbEntity
  8
3
  6
CONTINUOUS
 62
     7
100
AcDbLine
 10
167.2879999999999
 20
-190.299
 30
0.0
 11
167.2879999999999
 21
-140.299
 31
0.0
  0
TEXT
  5
A1
330
1E
100
AcDbEntity
  8
3
  6
CONTINUOUS
 62
     7
100
AcDbText
 10
217.423
 20
-164.5299999999999
 30
0.0
 40
3.799999999999998
  1
３
  7
BIGFONT
100
AcDbText
  0
TEXT
  5
A2
330
1E
100
AcDbEntity
  8
3
  6
CONTINUOUS
 62
     7
100
AcDbText
 10
232.721
 20
-164.5309999999998
 30
0.0
 40
3.799999999999998
  1
６
  7
BIGFONT
100
AcDbText
  0
TEXT
  5
A3
330
1E
100
AcDbEntity
  8
3
  6
CONTINUOUS
 62
     7
100
AcDbText
 10
248.0529999999999
 20
-164.5459999999999
 30
0.0
 40
3.799999999999998
  1
１
  7
BIGFONT
100
AcDbText
  0
TEXT
  5
A4
330
1E
100
AcDbEntity
  8
3
  6
CONTINUOUS
 62
     7
100
AcDbText
 10
198.882
 20
-156.481
 30
0.0
 40
4.0
  1
１：２０
  7
BIGFONT
100
AcDbText
  0
LINE
  5
A5
330
1E
100
AcDbEntity
  8
0
  6
CONTINUOUS
 62
     7
100
AcDbLine
 10
-269.3601
 20
192.3783999999999
 30
0.0
 11
269.3899
 21
192.3783999999999
 31
0.0
  0
LINE
  5
A6
330
1E
100
AcDbEntity
  8
0
  6
CONTINUOUS
 62
     7
100
AcDbLine
 10
269.3899
 20
-192.3941499999999
 30
0.0
 11
269.3899
 21
192.3783999999999
 31
0.0
  0
LINE
  5
A7
330
1E
100
AcDbEntity
  8
0
  6
CONTINUOUS
 62
     7
100
AcDbLine
 10
-269.3601
 20
-192.3941499999999
 30
0.0
 11
-269.3601
 21
192.3783999999999
 31
0.0
  0
LINE
  5
A8
330
1E
100
AcDbEntity
  8
0
  6
CONTINUOUS
 62
     7
100
AcDbLine
 10
-269.3601
 20
-192.3941499999999
 30
0.0
 11
269.3899
 21
-192.3941499999999
 31
0.0
  0
LINE
  5
A9
330
1E
100
AcDbEntity
  8
0
  6
CONTINUOUS
 62
     7
100
AcDbLine
 10
-158.80425
 20
167.3095999999999
 30
0.0
 11
158.7381
 21
167.3095999999999
 31
0.0
  0
TEXT
  5
AA
330
1E
100
AcDbEntity
  8
0
  6
CONTINUOUS
 62
     7
100
AcDbText
 10
-154.38525
 20
169.50085
 30
0.0
 40
10.0
  1
ＫＬウォール３型．コーナー部構造図
  7
BIGFONT
100
AcDbText
  0
TEXT
  5
AB
330
1E
100
AcDbEntity
  8
0
  6
CONTINUOUS
 62
     7
100
AcDbText
 10
121.78295
 20
170.3279499999998
 30
0.0
 40
5.5
  1
Ｓ＝１：２０
  7
BIGFONT
100
AcDbText
  0
TEXT
  5
AC
330
1E
100
AcDbEntity
  8
0
  6
CONTINUOUS
 62
     7
100
AcDbText
 10
50.03892647089989
 20
170.1426999999999
 30
0.0
 40
6.5
  1
(H=1250-90°)
  7
BIGFONT
100
AcDbText
  0
LINE
  5
AD
330
1E
100
AcDbEntity
  8
0
  6
CONTINUOUS
 62
     7
100
AcDbLine
 10
-98.6448
 20
148.2318999999999
 30
0.0
 11
-46.1275
 21
148.2318999999999
 31
0.0
  0
LINE
  5
AE
330
1E
100
AcDbEntity
  8
0
  6
CONTINUOUS
 62
     7
100
AcDbLine
 10
-215.74815
 20
148.2318999999999
 30
0.0
 11
-163.3015499999999
 21
148.2318999999999
 31
0.0
  0
TEXT
  5
AF
330
1E
100
AcDbEntity
  8
0
  6
CONTINUOUS
 62
     7
100
AcDbText
 10
-212.6524999999999
 20
148.9318499999999
 30
0.0
 40
6.0
  1
Ａ－Ａ
 41
0.8666665999999999
  7
BIGFONT
100
AcDbText
  0
TEXT
  5
B0
330
1E
100
AcDbEntity
  8
0
  6
CONTINUOUS
 62
     7
100
AcDbText
 10
-95.51160000000001
 20
148.81845
 30
0.0
 40
6.0
  1
Ｂ－Ｂ
 41
0.8666665999999999
  7
BIGFONT
100
AcDbText
  0
TEXT
  5
B1
330
1E
100
AcDbEntity
  8
0
  6
CONTINUOUS
 62
     7
100
AcDbText
 10
-212.8699
 20
-2.61125
 30
0.0
 40
6.0
  1
Ｃ－Ｃ
 41
0.8666665999999999
  7
BIGFONT
100
AcDbText
  0
TEXT
  5
B2
330
1E
100
AcDbEntity
  8
0
  6
CONTINUOUS
 62
     7
100
AcDbText
 10
-95.6591
 20
-2.693599999999998
 30
0.0
 40
6.0
  1
Ｄ－Ｄ
 41
0.8666665999999999
  7
BIGFONT
100
AcDbText
  0
TEXT
  5
B3
330
1E
100
AcDbEntity
  8
0
  6
CONTINUOUS
 62
     7
100
AcDbText
 10
-71.8458
 20
-2.817299999999999
 30
0.0
 40
6.0
  1
断面図
  7
BIGFONT
100
AcDbText
  0
TEXT
  5
B4
330
1E
100
AcDbEntity
  8
0
  6
CONTINUOUS
 62
     7
100
AcDbText
 10
-189.1884
 20
-2.75815
 30
0.0
 40
6.0
  1
断面図
  7
BIGFONT
100
AcDbText
  0
TEXT
  5
B5
330
1E
100
AcDbEntity
  8
0
  6
CONTINUOUS
 62
     7
100
AcDbText
 10
-189.1123499999999
 20
148.8429999999999
 30
0.0
 40
6.0
  1
断面図
  7
BIGFONT
100
AcDbText
  0
TEXT
  5
B6
330
1E
100
AcDbEntity
  8
0
  6
CONTINUOUS
 62
     7
100
AcDbText
 10
-72.0113
 20
148.96395
 30
0.0
 40
6.0
  1
断面図
  7
BIGFONT
100
AcDbText
  0
LINE
  5
B7
330
1E
100
AcDbEntity
  8
0
  6
CONTINUOUS
 62
     7
100
AcDbLine
 10
-215.79155
 20
-3.459849999999998
 30
0.0
 11
-163.4979999999998
 21
-3.459849999999998
 31
0.0
  0
LINE
  5
B8
330
1E
100
AcDbEntity
  8
0
  6
CONTINUOUS
 62
     7
100
AcDbLine
 10
181.5099999999999
 20
148.2318999999999
 30
0.0
 11
208.02005
 21
148.2318999999999
 31
0.0
  0
TEXT
  5
B9
330
1E
100
AcDbEntity
  8
0
  6
CONTINUOUS
 62
     7
100
AcDbText
 10
182.7195
 20
149.3769
 30
0.0
 40
6.2
  1
側面図
  7
BIGFONT
100
AcDbText
  0
TEXT
  5
BA
330
1E
100
AcDbEntity
  8
0
  6
CONTINUOUS
 62
     7
100
AcDbText
 10
182.71105
 20
-2.279199999999999
 30
0.0
 40
6.2
  1
平面図
  7
BIGFONT
100
AcDbText
  0
LINE
  5
BB
330
1E
100
AcDbEntity
  8
0
  6
CONTINUOUS
 62
     7
100
AcDbLine
 10
181.5098499999999
 20
-3.459849999999998
 30
0.0
 11
207.9998999999999
 21
-3.459849999999998
 31
0.0
  0
TEXT
  5
BC
330
1E
100
AcDbEntity
  8
3
  6
CONTINUOUS
 62
     7
100
AcDbText
 10
195.2299999999999
 20
-149.618
 30
0.0
 40
3.7
  1
コーナー部構造図
  7
BIGFONT
100
AcDbText
  0
TEXT
  5
BD
330
1E
100
AcDbEntity
  8
3
  6
CONTINUOUS
 62
     7
100
AcDbText
 10
195.25
 20
-144.9379999999998
 30
0.0
 40
3.7
  1
ＫＬウォール３型
  7
BIGFONT
100
AcDbText
  0
TEXT
  5
C0
330
1E
100
AcDbEntity
  8
3
  6
CONTINUOUS
 62
     7
100
AcDbText
 10
231.7778468870748
 20
-149.531
 30
0.0
 40
3.7
  1
(H一250=90°)
 41
0.9
  7
BIGFONT
100
AcDbText
  0
LINE
  5
C1
330
1E
100
AcDbEntity
  8
0
  6
CONTINUOUS
 62
     7
100
AcDbLine
 10
172.25
 20
71.1319
 30
0.0
 11
176.25
 21
67.1319
 31
0.0
  0
LINE
  5
C2
330
1E
100
AcDbEntity
  8
0
  6
CONTINUOUS
 62
     7
100
AcDbLine
 10
166.25
 20
73.6315
 30
0.0
 11
172.25
 21
73.63155
 31
0.0
  0
LINE
  5
C3
330
1E
100
AcDbEntity
  8
0
  6
CONTINUOUS
 62
     7
100
AcDbLine
 10
223.75
 20
61.1319
 30
0.0
 11
223.75
 21
71.1319
 31
0.0
  0
LINE
  5
C4
330
1E
100
AcDbEntity
  8
0
  6
CONTINUOUS
 62
     7
100
AcDbLine
 10
183.75
 20
71.1319
 30
0.0
 11
223.75
 21
71.1319
 31
0.0
  0
LINE
  5
C5
330
1E
100
AcDbEntity
  8
0
  6
CONTINUOUS
 62
     7
100
AcDbLine
 10
183.75
 20
67.1319
 30
0.0
 11
183.75
 21
71.1319
 31
0.0
  0
LINE
  5
C6
330
1E
100
AcDbEntity
  8
0
  6
CONTINUOUS
 62
     7
100
AcDbLine
 10
211.2499999999999
 20
61.1319
 30
0.0
 11
211.2499999999999
 21
67.1319
 31
0.0
  0
LINE
  5
C7
330
1E
100
AcDbEntity
  8
0
  6
CONTINUOUS
 62
     7
100
AcDbLine
 10
172.25
 20
71.1319
 30
0.0
 11
172.25
 21
123.1818999999999
 31
0.0
  0
LINE
  5
C8
330
1E
100
AcDbEntity
  8
0
  6
CONTINUOUS
 62
     7
100
AcDbLine
 10
176.25
 20
67.1319
 30
0.0
 11
223.75
 21
67.1319
 31
0.0
  0
LINE
  5
C9
330
1E
100
AcDbEntity
  8
0
  6
CONTINUOUS
 62
     7
100
AcDbLine
 10
238.84275
 20
61.1319
 30
0.0
 11
238.84275
 21
67.1319
 31
0.0
  0
LINE
  5
CA
330
1E
100
AcDbEntity
  8
0
  6
CONTINUOUS
 62
     7
100
AcDbLine
 10
224.75
 20
67.1319
 30
0.0
 11
239.64275
 21
67.1319
 31
0.0
  0
LINE
  5
CB
330
1E
100
AcDbEntity
  8
0
  6
CONTINUOUS
 62
     7
100
AcDbLine
 10
224.75
 20
61.1319
 30
0.0
 11
239.64275
 21
61.1319
 31
0.0
  0
LINE
  5
CC
330
1E
100
AcDbEntity
  8
0
  6
CONTINUOUS
 62
     7
100
AcDbLine
 10
239.1635299999999
 20
65.93099999999999
 30
0.0
 11
238.8419999999999
 21
67.131
 31
0.0
  0
LINE
  5
CD
330
1E
100
AcDbEntity
  8
0
  6
CONTINUOUS
 62
     7
100
AcDbLine
 10
238.8419999999999
 20
67.131
 30
0.0
 11
238.52046
 21
65.93099999999999
 31
0.0
  0
LINE
  5
CE
330
1E
100
AcDbEntity
  8
0
  6
CONTINUOUS
 62
     7
100
AcDbLine
 10
238.52046
 20
62.331
 30
0.0
 11
238.8419999999999
 21
61.131
 31
0.0
  0
LINE
  5
CF
330
1E
100
AcDbEntity
  8
0
  6
CONTINUOUS
 62
     7
100
AcDbLine
 10
238.8419999999999
 20
61.131
 30
0.0
 11
239.1635299999999
 21
62.331
 31
0.0
  0
TEXT
  5
D0
330
1E
100
AcDbEntity
  8
0
  6
CONTINUOUS
 62
     7
100
AcDbText
 10
238.44275
 20
60.2319
 30
0.0
 40
3.2
  1
120
 50
90.0
 41
0.8125
  7
BIGFONT
100
AcDbText
  0
LINE
  5
D1
330
1E
100
AcDbEntity
  8
0
  6
CONTINUOUS
 62
     7
100
AcDbLine
 10
238.84275
 20
67.1319
 30
0.0
 11
238.84275
 21
71.1319
 31
0.0
  0
LINE
  5
D2
330
1E
100
AcDbEntity
  8
0
  6
CONTINUOUS
 62
     7
100
AcDbLine
 10
224.75
 20
71.1319
 30
0.0
 11
239.64275
 21
71.1319
 31
0.0
  0
LINE
  5
D3
330
1E
100
AcDbEntity
  8
0
  6
CONTINUOUS
 62
     7
100
AcDbLine
 10
238.84275
 20
73.53189999999997
 30
0.0
 11
238.84275
 21
71.1319
 31
0.0
  0
LINE
  5
D4
330
1E
100
AcDbEntity
  8
0
  6
CONTINUOUS
 62
     7
100
AcDbLine
 10
238.52046
 20
72.331
 30
0.0
 11
238.8419999999999
 21
71.131
 31
0.0
  0
LINE
  5
D5
330
1E
100
AcDbEntity
  8
0
  6
CONTINUOUS
 62
     7
100
AcDbLine
 10
238.8419999999999
 20
71.131
 30
0.0
 11
239.1635299999999
 21
72.331
 31
0.0
  0
LINE
  5
D6
330
1E
100
AcDbEntity
  8
0
  6
CONTINUOUS
 62
     7
100
AcDbLine
 10
238.84275
 20
67.1319
 30
0.0
 11
238.84275
 21
64.73189999999999
 31
0.0
  0
LINE
  5
D7
330
1E
100
AcDbEntity
  8
0
  6
CONTINUOUS
 62
     7
100
AcDbLine
 10
239.1635299999999
 20
65.93099999999999
 30
0.0
 11
238.8419999999999
 21
67.131
 31
0.0
  0
LINE
  5
D8
330
1E
100
AcDbEntity
  8
0
  6
CONTINUOUS
 62
     7
100
AcDbLine
 10
238.8419999999999
 20
67.131
 30
0.0
 11
238.52046
 21
65.93099999999999
 31
0.0
  0
LINE
  5
D9
330
1E
100
AcDbEntity
  8
0
  6
CONTINUOUS
 62
     7
100
AcDbLine
 10
238.84275
 20
73.53189999999997
 30
0.0
 11
238.84275
 21
78.9319
 31
0.0
  0
TEXT
  5
DA
330
1E
100
AcDbEntity
  8
0
  6
CONTINUOUS
 62
     7
100
AcDbText
 10
238.44275
 20
73.7319
 30
0.0
 40
3.2
  1
80
 50
90.0
 41
0.8125
  7
BIGFONT
100
AcDbText
  0
LINE
  5
DB
330
1E
100
AcDbEntity
  8
0
  6
CONTINUOUS
 62
     7
100
AcDbLine
 10
166.25
 20
36.1319
 30
0.0
 11
211.2499999999999
 21
36.1319
 31
0.0
  0
LINE
  5
DC
330
1E
100
AcDbEntity
  8
0
  6
CONTINUOUS
 62
     7
100
AcDbLine
 10
211.2499999999999
 20
60.1319
 30
0.0
 11
211.2499999999999
 21
35.33189999999999
 31
0.0
  0
LINE
  5
DD
330
1E
100
AcDbEntity
  8
0
  6
CONTINUOUS
 62
     7
100
AcDbLine
 10
166.25
 20
60.1319
 30
0.0
 11
166.25
 21
35.33189999999999
 31
0.0
  0
LINE
  5
DE
330
1E
100
AcDbEntity
  8
0
  6
CONTINUOUS
 62
     7
100
AcDbLine
 10
210.05
 20
35.80945999999999
 30
0.0
 11
211.2499999999999
 21
36.131
 31
0.0
  0
LINE
  5
DF
330
1E
100
AcDbEntity
  8
0
  6
CONTINUOUS
 62
     7
100
AcDbLine
 10
211.2499999999999
 20
36.131
 30
0.0
 11
210.05
 21
36.45252999999997
 31
0.0
  0
LINE
  5
E0
330
1E
100
AcDbEntity
  8
0
  6
CONTINUOUS
 62
     7
100
AcDbLine
 10
167.4499999999999
 20
36.45252999999997
 30
0.0
 11
166.25
 21
36.131
 31
0.0
  0
LINE
  5
E1
330
1E
100
AcDbEntity
  8
0
  6
CONTINUOUS
 62
     7
100
AcDbLine
 10
166.25
 20
36.131
 30
0.0
 11
167.4499999999999
 21
35.80945999999999
 31
0.0
  0
TEXT
  5
E2
330
1E
100
AcDbEntity
  8
0
  6
CONTINUOUS
 62
     7
100
AcDbText
 10
184.8499999999999
 20
36.5319
 30
0.0
 40
3.2
  1
900
 41
0.8125
  7
BIGFONT
100
AcDbText
  0
LINE
  5
E3
330
1E
100
AcDbEntity
  8
0
  6
CONTINUOUS
 62
     7
100
AcDbLine
 10
166.25
 20
51.1319
 30
0.0
 11
188.75
 21
51.1319
 31
0.0
  0
LINE
  5
E4
330
1E
100
AcDbEntity
  8
0
  6
CONTINUOUS
 62
     7
100
AcDbLine
 10
188.75
 20
60.1319
 30
0.0
 11
188.75
 21
50.3319
 31
0.0
  0
LINE
  5
E5
330
1E
100
AcDbEntity
  8
0
  6
CONTINUOUS
 62
     7
100
AcDbLine
 10
166.25
 20
52.4617
 30
0.0
 11
166.25
 21
50.3319
 31
0.0
  0
LINE
  5
E6
330
1E
100
AcDbEntity
  8
0
  6
CONTINUOUS
 62
     7
100
AcDbLine
 10
187.55
 20
50.80945999999999
 30
0.0
 11
188.75
 21
51.131
 31
0.0
  0
LINE
  5
E7
330
1E
100
AcDbEntity
  8
0
  6
CONTINUOUS
 62
     7
100
AcDbLine
 10
188.75
 20
51.131
 30
0.0
 11
187.55
 21
51.45253
 31
0.0
  0
LINE
  5
E8
330
1E
100
AcDbEntity
  8
0
  6
CONTINUOUS
 62
     7
100
AcDbLine
 10
167.4499999999999
 20
51.45253
 30
0.0
 11
166.25
 21
51.131
 31
0.0
  0
LINE
  5
E9
330
1E
100
AcDbEntity
  8
0
  6
CONTINUOUS
 62
     7
100
AcDbLine
 10
166.25
 20
51.131
 30
0.0
 11
167.4499999999999
 21
50.80945999999999
 31
0.0
  0
TEXT
  5
EA
330
1E
100
AcDbEntity
  8
0
  6
CONTINUOUS
 62
     7
100
AcDbText
 10
173.5999999999999
 20
51.5319
 30
0.0
 40
3.2
  1
450
 41
0.8125
  7
BIGFONT
100
AcDbText
  0
LINE
  5
EB
330
1E
100
AcDbEntity
  8
0
  6
CONTINUOUS
 62
     7
100
AcDbLine
 10
188.75
 20
51.1319
 30
0.0
 11
211.2499999999999
 21
51.1319
 31
0.0
  0
LINE
  5
EC
330
1E
100
AcDbEntity
  8
0
  6
CONTINUOUS
 62
     7
100
AcDbLine
 10
211.2499999999999
 20
51.84155
 30
0.0
 11
211.2499999999999
 21
50.3319
 31
0.0
  0
LINE
  5
ED
330
1E
100
AcDbEntity
  8
0
  6
CONTINUOUS
 62
     7
100
AcDbLine
 10
210.05
 20
50.80945999999999
 30
0.0
 11
211.2499999999999
 21
51.131
 31
0.0
  0
LINE
  5
EE
330
1E
100
AcDbEntity
  8
0
  6
CONTINUOUS
 62
     7
100
AcDbLine
 10
211.2499999999999
 20
51.131
 30
0.0
 11
210.05
 21
51.45253
 31
0.0
  0
LINE
  5
EF
330
1E
100
AcDbEntity
  8
0
  6
CONTINUOUS
 62
     7
100
AcDbLine
 10
189.9499999999999
 20
51.45253
 30
0.0
 11
188.75
 21
51.131
 31
0.0
  0
LINE
  5
F0
330
1E
100
AcDbEntity
  8
0
  6
CONTINUOUS
 62
     7
100
AcDbLine
 10
188.75
 20
51.131
 30
0.0
 11
189.9499999999999
 21
50.80945999999999
 31
0.0
  0
TEXT
  5
F1
330
1E
100
AcDbEntity
  8
0
  6
CONTINUOUS
 62
     7
100
AcDbText
 10
196.1
 20
51.5319
 30
0.0
 40
3.2
  1
450
 41
0.8125
  7
BIGFONT
100
AcDbText
  0
LINE
  5
F2
330
1E
100
AcDbEntity
  8
0
  6
CONTINUOUS
 62
     7
100
AcDbLine
 10
166.25
 20
43.6319
 30
0.0
 11
172.25
 21
43.6319
 31
0.0
  0
LINE
  5
F3
330
1E
100
AcDbEntity
  8
0
  6
CONTINUOUS
 62
     7
100
AcDbLine
 10
172.25
 20
50.1319
 30
0.0
 11
172.25
 21
42.8319
 31
0.0
  0
LINE
  5
F4
330
1E
100
AcDbEntity
  8
0
  6
CONTINUOUS
 62
     7
100
AcDbLine
 10
166.25
 20
44.20035
 30
0.0
 11
166.25
 21
42.8319
 31
0.0
  0
LINE
  5
F5
330
1E
100
AcDbEntity
  8
0
  6
CONTINUOUS
 62
     7
100
AcDbLine
 10
171.05
 20
43.30945999999999
 30
0.0
 11
172.25
 21
43.631
 31
0.0
  0
LINE
  5
F6
330
1E
100
AcDbEntity
  8
0
  6
CONTINUOUS
 62
     7
100
AcDbLine
 10
172.25
 20
43.631
 30
0.0
 11
171.05
 21
43.95252999999999
 31
0.0
  0
LINE
  5
F7
330
1E
100
AcDbEntity
  8
0
  6
CONTINUOUS
 62
     7
100
AcDbLine
 10
167.4499999999999
 20
43.95252999999999
 30
0.0
 11
166.25
 21
43.631
 31
0.0
  0
LINE
  5
F8
330
1E
100
AcDbEntity
  8
0
  6
CONTINUOUS
 62
     7
100
AcDbLine
 10
166.25
 20
43.631
 30
0.0
 11
167.4499999999999
 21
43.30945999999999
 31
0.0
  0
TEXT
  5
F9
330
1E
100
AcDbEntity
  8
0
  6
CONTINUOUS
 62
     7
100
AcDbText
 10
165.35
 20
44.0319
 30
0.0
 40
3.2
  1
120
 41
0.8125
  7
BIGFONT
100
AcDbText
  0
LINE
  5
FA
330
1E
100
AcDbEntity
  8
0
  6
CONTINUOUS
 62
     7
100
AcDbLine
 10
172.25
 20
43.6319
 30
0.0
 11
211.2499999999999
 21
43.6319
 31
0.0
  0
LINE
  5
FB
330
1E
100
AcDbEntity
  8
0
  6
CONTINUOUS
 62
     7
100
AcDbLine
 10
211.2499999999999
 20
44.47784999999998
 30
0.0
 11
211.2499999999999
 21
42.8319
 31
0.0
  0
LINE
  5
FC
330
1E
100
AcDbEntity
  8
0
  6
CONTINUOUS
 62
     7
100
AcDbLine
 10
210.05
 20
43.30945999999999
 30
0.0
 11
211.2499999999999
 21
43.631
 31
0.0
  0
LINE
  5
FD
330
1E
100
AcDbEntity
  8
0
  6
CONTINUOUS
 62
     7
100
AcDbLine
 10
211.2499999999999
 20
43.631
 30
0.0
 11
210.05
 21
43.95252999999999
 31
0.0
  0
LINE
  5
FE
330
1E
100
AcDbEntity
  8
0
  6
CONTINUOUS
 62
     7
100
AcDbLine
 10
173.4499999999999
 20
43.95252999999999
 30
0.0
 11
172.25
 21
43.631
 31
0.0
  0
LINE
  5
FF
330
1E
100
AcDbEntity
  8
0
  6
CONTINUOUS
 62
     7
100
AcDbLine
 10
172.25
 20
43.631
 30
0.0
 11
173.4499999999999
 21
43.30945999999999
 31
0.0
  0
TEXT
  5
100
330
1E
100
AcDbEntity
  8
0
  6
CONTINUOUS
 62
     7
100
AcDbText
 10
187.85
 20
44.0319
 30
0.0
 40
3.2
  1
780
 41
0.8125
  7
BIGFONT
100
AcDbText
  0
LINE
  5
101
330
1E
100
AcDbEntity
  8
0
  6
CONTINUOUS
 62
     7
100
AcDbLine
 10
172.25
 20
52.90035
 30
0.0
 11
172.25
 21
60.1639
 31
0.0
  0
LINE
  5
102
330
1E
100
AcDbEntity
  8
0
  6
CONTINUOUS
 62
     7
100
AcDbLine
 10
141.25
 20
61.1319
 30
0.0
 11
141.25
 21
66.99495
 31
0.0
  0
LINE
  5
103
330
1E
100
AcDbEntity
  8
0
  6
CONTINUOUS
 62
     7
100
AcDbLine
 10
143.6148499999999
 20
66.99495
 30
0.0
 11
140.4499999999997
 21
66.99495
 31
0.0
  0
LINE
  5
104
330
1E
100
AcDbEntity
  8
0
  6
CONTINUOUS
 62
     7
100
AcDbLine
 10
143.0347999999999
 20
61.1319
 30
0.0
 11
140.4499999999997
 21
61.1319
 31
0.0
  0
LINE
  5
105
330
1E
100
AcDbEntity
  8
0
  6
CONTINUOUS
 62
     7
100
AcDbLine
 10
141.57153
 20
65.79399999999999
 30
0.0
 11
141.25
 21
66.994
 31
0.0
  0
LINE
  5
106
330
1E
100
AcDbEntity
  8
0
  6
CONTINUOUS
 62
     7
100
AcDbLine
 10
141.25
 20
66.994
 30
0.0
 11
140.92846
 21
65.79399999999999
 31
0.0
  0
LINE
  5
107
330
1E
100
AcDbEntity
  8
0
  6
CONTINUOUS
 62
     7
100
AcDbLine
 10
140.92846
 20
62.331
 30
0.0
 11
141.25
 21
61.131
 31
0.0
  0
LINE
  5
108
330
1E
100
AcDbEntity
  8
0
  6
CONTINUOUS
 62
     7
100
AcDbLine
 10
141.25
 20
61.131
 30
0.0
 11
141.57153
 21
62.331
 31
0.0
  0
TEXT
  5
109
330
1E
100
AcDbEntity
  8
0
  6
CONTINUOUS
 62
     7
100
AcDbText
 10
140.8499999999999
 20
60.16341999999998
 30
0.0
 40
3.2
  1
120
 50
90.0
 41
0.8125
  7
BIGFONT
100
AcDbText
  0
LINE
  5
10A
330
1E
100
AcDbEntity
  8
0
  6
CONTINUOUS
 62
     7
100
AcDbLine
 10
141.25
 20
66.99495
 30
0.0
 11
141.25
 21
123.6318999999999
 31
0.0
  0
LINE
  5
10B
330
1E
100
AcDbEntity
  8
0
  6
CONTINUOUS
 62
     7
100
AcDbLine
 10
141.9923999999999
 20
123.6318999999999
 30
0.0
 11
140.4499999999997
 21
123.6318999999999
 31
0.0
  0
LINE
  5
10C
330
1E
100
AcDbEntity
  8
0
  6
CONTINUOUS
 62
     7
100
AcDbLine
 10
141.57153
 20
122.431
 30
0.0
 11
141.25
 21
123.631
 31
0.0
  0
LINE
  5
10D
330
1E
100
AcDbEntity
  8
0
  6
CONTINUOUS
 62
     7
100
AcDbLine
 10
141.25
 20
123.631
 30
0.0
 11
140.92846
 21
122.431
 31
0.0
  0
LINE
  5
10E
330
1E
100
AcDbEntity
  8
0
  6
CONTINUOUS
 62
     7
100
AcDbLine
 10
140.92846
 20
68.194
 30
0.0
 11
141.25
 21
66.994
 31
0.0
  0
LINE
  5
10F
330
1E
100
AcDbEntity
  8
0
  6
CONTINUOUS
 62
     7
100
AcDbLine
 10
141.25
 20
66.994
 30
0.0
 11
141.57153
 21
68.194
 31
0.0
  0
TEXT
  5
110
330
1E
100
AcDbEntity
  8
0
  6
CONTINUOUS
 62
     7
100
AcDbText
 10
140.8499999999999
 20
90.11341999999999
 30
0.0
 40
3.2
  1
1130
 50
90.0
 41
0.8125
  7
BIGFONT
100
AcDbText
  0
LINE
  5
111
330
1E
100
AcDbEntity
  8
0
  6
CONTINUOUS
 62
     7
100
AcDbLine
 10
166.25
 20
-88.95985000000001
 30
0.0
 11
166.25
 21
-31.45985
 31
0.0
  0
LINE
  5
112
330
1E
100
AcDbEntity
  8
0
  6
CONTINUOUS
 62
     7
100
AcDbLine
 10
166.25
 20
-31.45985
 30
0.0
 11
223.75
 21
-31.45985
 31
0.0
  0
LINE
  5
113
330
1E
100
AcDbEntity
  8
0
  6
CONTINUOUS
 62
     7
100
AcDbLine
 10
166.25
 20
-88.95985000000001
 30
0.0
 11
211.2499999999999
 21
-88.95985000000001
 31
0.0
  0
LINE
  5
114
330
1E
100
AcDbEntity
  8
0
  6
CONTINUOUS
 62
     7
100
AcDbLine
 10
183.75
 20
-41.45985
 30
0.0
 11
223.75
 21
-41.45985
 31
0.0
  0
LINE
  5
115
330
1E
100
AcDbEntity
  8
0
  6
CONTINUOUS
 62
     7
100
AcDbLine
 10
176.25
 20
-88.95985000000001
 30
0.0
 11
176.25
 21
-48.95985
 31
0.0
  0
LINE
  5
116
330
1E
100
AcDbEntity
  8
0
  6
CONTINUOUS
 62
     7
100
AcDbLine
 10
172.25
 20
-48.95985
 30
0.0
 11
176.25
 21
-48.95985
 31
0.0
  0
LINE
  5
117
330
1E
100
AcDbEntity
  8
0
  6
CONTINUOUS
 62
     7
100
AcDbLine
 10
183.75
 20
-41.45985
 30
0.0
 11
183.75
 21
-37.45985
 31
0.0
  0
LINE
  5
118
330
1E
100
AcDbEntity
  8
0
  6
CONTINUOUS
 62
     7
100
AcDbLine
 10
148.75
 20
-88.95985000000001
 30
0.0
 11
148.75
 21
-31.45985
 31
0.0
  0
LINE
  5
119
330
1E
100
AcDbEntity
  8
0
  6
CONTINUOUS
 62
     7
100
AcDbLine
 10
165.25
 20
-31.45985
 30
0.0
 11
147.9499999999999
 21
-31.45985
 31
0.0
  0
LINE
  5
11A
330
1E
100
AcDbEntity
  8
0
  6
CONTINUOUS
 62
     7
100
AcDbLine
 10
165.25
 20
-88.95985000000001
 30
0.0
 11
147.9499999999999
 21
-88.95985000000001
 31
0.0
  0
LINE
  5
11B
330
1E
100
AcDbEntity
  8
0
  6
CONTINUOUS
 62
     7
100
AcDbLine
 10
149.0715299999999
 20
-32.659
 30
0.0
 11
148.75
 21
-31.459
 31
0.0
  0
LINE
  5
11C
330
1E
100
AcDbEntity
  8
0
  6
CONTINUOUS
 62
     7
100
AcDbLine
 10
148.75
 20
-31.459
 30
0.0
 11
148.42846
 21
-32.659
 31
0.0
  0
LINE
  5
11D
330
1E
100
AcDbEntity
  8
0
  6
CONTINUOUS
 62
     7
100
AcDbLine
 10
148.42846
 20
-87.759
 30
0.0
 11
148.75
 21
-88.95900000000002
 31
0.0
  0
LINE
  5
11E
330
1E
100
AcDbEntity
  8
0
  6
CONTINUOUS
 62
     7
100
AcDbLine
 10
148.75
 20
-88.95900000000002
 30
0.0
 11
149.0715299999999
 21
-87.759
 31
0.0
  0
TEXT
  5
11F
330
1E
100
AcDbEntity
  8
0
  6
CONTINUOUS
 62
     7
100
AcDbText
 10
148.35
 20
-65.40985
 30
0.0
 40
3.2
  1
1150
 50
90.0
 41
0.8125
  7
BIGFONT
100
AcDbText
  0
LINE
  5
120
330
1E
100
AcDbEntity
  8
0
  6
CONTINUOUS
 62
     7
100
AcDbLine
 10
156.25
 20
-88.95985000000001
 30
0.0
 11
156.25
 21
-48.9457
 31
0.0
  0
LINE
  5
121
330
1E
100
AcDbEntity
  8
0
  6
CONTINUOUS
 62
     7
100
AcDbLine
 10
165.25
 20
-48.9457
 30
0.0
 11
155.4499999999999
 21
-48.9457
 31
0.0
  0
LINE
  5
122
330
1E
100
AcDbEntity
  8
0
  6
CONTINUOUS
 62
     7
100
AcDbLine
 10
158.0062499999999
 20
-88.95985000000001
 30
0.0
 11
155.4499999999999
 21
-88.95985000000001
 31
0.0
  0
LINE
  5
123
330
1E
100
AcDbEntity
  8
0
  6
CONTINUOUS
 62
     7
100
AcDbLine
 10
156.5715299999999
 20
-50.145
 30
0.0
 11
156.25
 21
-48.945
 31
0.0
  0
LINE
  5
124
330
1E
100
AcDbEntity
  8
0
  6
CONTINUOUS
 62
     7
100
AcDbLine
 10
156.25
 20
-48.945
 30
0.0
 11
155.9284599999999
 21
-50.145
 31
0.0
  0
LINE
  5
125
330
1E
100
AcDbEntity
  8
0
  6
CONTINUOUS
 62
     7
100
AcDbLine
 10
155.9284599999999
 20
-87.759
 30
0.0
 11
156.25
 21
-88.95900000000002
 31
0.0
  0
LINE
  5
126
330
1E
100
AcDbEntity
  8
0
  6
CONTINUOUS
 62
     7
100
AcDbLine
 10
156.25
 20
-88.95900000000002
 30
0.0
 11
156.5715299999999
 21
-87.759
 31
0.0
  0
TEXT
  5
127
330
1E
100
AcDbEntity
  8
0
  6
CONTINUOUS
 62
     7
100
AcDbText
 10
155.8499999999999
 20
-72.85276999999998
 30
0.0
 40
3.2
  1
800
 50
90.0
 41
0.8125
  7
BIGFONT
100
AcDbText
  0
ARC
  5
128
330
1E
100
AcDbEntity
  8
0
  6
CONTINUOUS
 62
     7
100
AcDbCircle
 10
166.25
 20
-31.45985
 30
0.0
 40
7.407499999999997
100
AcDbArc
 50
270.0
 51
0.0
  0
ARC
  5
129
330
1E
100
AcDbEntity
  8
0
  6
CONTINUOUS
 62
     7
100
AcDbCircle
 10
164.3326599999998
 20
-31.71142
 30
0.0
 40
7.407999999999998
100
AcDbArc
 50
285.0
 51
294.28117
  0
ARC
  5
12A
330
1E
100
AcDbEntity
  8
0
  6
CONTINUOUS
 62
     7
100
AcDbCircle
 10
168.1673299999999
 20
-31.71142
 30
0.0
 40
7.407999999999998
100
AcDbArc
 50
255.0
 51
264.28117
  0
ARC
  5
12B
330
1E
100
AcDbEntity
  8
0
  6
CONTINUOUS
 62
     7
100
AcDbCircle
 10
166.50238
 20
-33.37607
 30
0.0
 40
7.407
100
AcDbArc
 50
5.717573099999999
 51
15.0
  0
ARC
  5
12C
330
1E
100
AcDbEntity
  8
0
  6
CONTINUOUS
 62
     7
100
AcDbCircle
 10
166.50238
 20
-29.54192
 30
0.0
 40
7.407
100
AcDbArc
 50
335.71757
 51
345.0
  0
LINE
  5
12D
330
1E
100
AcDbEntity
  8
0
  6
CONTINUOUS
 62
     7
100
AcDbLine
 10
166.25
 20
-106.45985
 30
0.0
 11
211.2499999999999
 21
-106.45985
 31
0.0
  0
LINE
  5
12E
330
1E
100
AcDbEntity
  8
0
  6
CONTINUOUS
 62
     7
100
AcDbLine
 10
211.2499999999999
 20
-89.95985000000002
 30
0.0
 11
211.2499999999999
 21
-107.25985
 31
0.0
  0
LINE
  5
12F
330
1E
100
AcDbEntity
  8
0
  6
CONTINUOUS
 62
     7
100
AcDbLine
 10
166.25
 20
-89.95985000000002
 30
0.0
 11
166.25
 21
-107.25985
 31
0.0
  0
LINE
  5
130
330
1E
100
AcDbEntity
  8
0
  6
CONTINUOUS
 62
     7
100
AcDbLine
 10
210.05
 20
-106.78053
 30
0.0
 11
211.2499999999999
 21
-106.459
 31
0.0
  0
LINE
  5
131
330
1E
100
AcDbEntity
  8
0
  6
CONTINUOUS
 62
     7
100
AcDbLine
 10
211.2499999999999
 20
-106.459
 30
0.0
 11
210.05
 21
-106.13746
 31
0.0
  0
LINE
  5
132
330
1E
100
AcDbEntity
  8
0
  6
CONTINUOUS
 62
     7
100
AcDbLine
 10
167.4499999999999
 20
-106.13746
 30
0.0
 11
166.25
 21
-106.459
 31
0.0
  0
LINE
  5
133
330
1E
100
AcDbEntity
  8
0
  6
CONTINUOUS
 62
     7
100
AcDbLine
 10
166.25
 20
-106.459
 30
0.0
 11
167.4499999999999
 21
-106.78053
 31
0.0
  0
TEXT
  5
134
330
1E
100
AcDbEntity
  8
0
  6
CONTINUOUS
 62
     7
100
AcDbText
 10
184.8499999999999
 20
-106.0598499999997
 30
0.0
 40
3.2
  1
900
 41
0.8125
  7
BIGFONT
100
AcDbText
  0
LINE
  5
135
330
1E
100
AcDbEntity
  8
0
  6
CONTINUOUS
 62
     7
100
AcDbLine
 10
166.25
 20
-98.95985000000001
 30
0.0
 11
172.25
 21
-98.95985000000001
 31
0.0
  0
LINE
  5
136
330
1E
100
AcDbEntity
  8
0
  6
CONTINUOUS
 62
     7
100
AcDbLine
 10
172.25
 20
-89.95985000000002
 30
0.0
 11
172.25
 21
-99.75985000000001
 31
0.0
  0
LINE
  5
137
330
1E
100
AcDbEntity
  8
0
  6
CONTINUOUS
 62
     7
100
AcDbLine
 10
166.25
 20
-97.55745
 30
0.0
 11
166.25
 21
-99.75985000000001
 31
0.0
  0
LINE
  5
138
330
1E
100
AcDbEntity
  8
0
  6
CONTINUOUS
 62
     7
100
AcDbLine
 10
171.05
 20
-99.28053
 30
0.0
 11
172.25
 21
-98.95900000000001
 31
0.0
  0
LINE
  5
139
330
1E
100
AcDbEntity
  8
0
  6
CONTINUOUS
 62
     7
100
AcDbLine
 10
172.25
 20
-98.95900000000001
 30
0.0
 11
171.05
 21
-98.63746
 31
0.0
  0
LINE
  5
13A
330
1E
100
AcDbEntity
  8
0
  6
CONTINUOUS
 62
     7
100
AcDbLine
 10
167.4499999999999
 20
-98.63746
 30
0.0
 11
166.25
 21
-98.95900000000001
 31
0.0
  0
LINE
  5
13B
330
1E
100
AcDbEntity
  8
0
  6
CONTINUOUS
 62
     7
100
AcDbLine
 10
166.25
 20
-98.95900000000001
 30
0.0
 11
167.4499999999999
 21
-99.28053
 31
0.0
  0
TEXT
  5
13C
330
1E
100
AcDbEntity
  8
0
  6
CONTINUOUS
 62
     7
100
AcDbText
 10
165.35
 20
-98.55985
 30
0.0
 40
3.2
  1
120
 41
0.8125
  7
BIGFONT
100
AcDbText
  0
LINE
  5
13D
330
1E
100
AcDbEntity
  8
0
  6
CONTINUOUS
 62
     7
100
AcDbLine
 10
172.25
 20
-98.95985000000001
 30
0.0
 11
176.25
 21
-98.95985000000001
 31
0.0
  0
LINE
  5
13E
330
1E
100
AcDbEntity
  8
0
  6
CONTINUOUS
 62
     7
100
AcDbLine
 10
176.25
 20
-89.95985000000002
 30
0.0
 11
176.25
 21
-99.75985000000001
 31
0.0
  0
LINE
  5
13F
330
1E
100
AcDbEntity
  8
0
  6
CONTINUOUS
 62
     7
100
AcDbLine
 10
178.65
 20
-98.95985000000001
 30
0.0
 11
176.25
 21
-98.95985000000001
 31
0.0
  0
LINE
  5
140
330
1E
100
AcDbEntity
  8
0
  6
CONTINUOUS
 62
     7
100
AcDbLine
 10
177.4499999999999
 20
-98.63746
 30
0.0
 11
176.25
 21
-98.95900000000001
 31
0.0
  0
LINE
  5
141
330
1E
100
AcDbEntity
  8
0
  6
CONTINUOUS
 62
     7
100
AcDbLine
 10
176.25
 20
-98.95900000000001
 30
0.0
 11
177.4499999999999
 21
-99.28053
 31
0.0
  0
LINE
  5
142
330
1E
100
AcDbEntity
  8
0
  6
CONTINUOUS
 62
     7
100
AcDbLine
 10
172.25
 20
-98.95985000000001
 30
0.0
 11
169.8499999999999
 21
-98.95985000000001
 31
0.0
  0
LINE
  5
143
330
1E
100
AcDbEntity
  8
0
  6
CONTINUOUS
 62
     7
100
AcDbLine
 10
171.05
 20
-99.28053
 30
0.0
 11
172.25
 21
-98.95900000000001
 31
0.0
  0
LINE
  5
144
330
1E
100
AcDbEntity
  8
0
  6
CONTINUOUS
 62
     7
100
AcDbLine
 10
172.25
 20
-98.95900000000001
 30
0.0
 11
171.05
 21
-98.63746
 31
0.0
  0
LINE
  5
145
330
1E
100
AcDbEntity
  8
0
  6
CONTINUOUS
 62
     7
100
AcDbLine
 10
178.65
 20
-98.95985000000001
 30
0.0
 11
182.23
 21
-98.95985000000001
 31
0.0
  0
TEXT
  5
146
330
1E
100
AcDbEntity
  8
0
  6
CONTINUOUS
 62
     7
100
AcDbText
 10
177.0299999999999
 20
-98.55985
 30
0.0
 40
3.2
  1
80
 41
0.8125
  7
BIGFONT
100
AcDbText
  0
LINE
  5
147
330
1E
100
AcDbEntity
  8
0
  6
CONTINUOUS
 62
     7
100
AcDbLine
 10
87.5
 20
61.1319
 30
0.0
 11
87.5
 21
67.1319
 31
0.0
  0
LINE
  5
148
330
1E
100
AcDbEntity
  8
0
  6
CONTINUOUS
 62
     7
100
AcDbLine
 10
166.6999999999999
 20
123.6318999999999
 30
0.0
 11
223.75
 21
123.6318999999999
 31
0.0
  0
LINE
  5
149
330
1E
100
AcDbEntity
  8
0
  6
CONTINUOUS
 62
     7
100
AcDbLine
 10
166.25
 20
140.8197499999999
 30
0.0
 11
172.25
 21
140.8197499999999
 31
0.0
  0
LINE
  5
14A
330
1E
100
AcDbEntity
  8
0
  6
CONTINUOUS
 62
     7
100
AcDbLine
 10
172.25
 20
124.6318999999999
 30
0.0
 11
172.25
 21
141.61975
 31
0.0
  0
LINE
  5
14B
330
1E
100
AcDbEntity
  8
0
  6
CONTINUOUS
 62
     7
100
AcDbLine
 10
166.25
 20
124.6318999999999
 30
0.0
 11
166.25
 21
141.61975
 31
0.0
  0
LINE
  5
14C
330
1E
100
AcDbEntity
  8
0
  6
CONTINUOUS
 62
     7
100
AcDbLine
 10
171.05
 20
140.49746
 30
0.0
 11
172.25
 21
140.8189999999999
 31
0.0
  0
LINE
  5
14D
330
1E
100
AcDbEntity
  8
0
  6
CONTINUOUS
 62
     7
100
AcDbLine
 10
172.25
 20
140.8189999999999
 30
0.0
 11
171.05
 21
141.14053
 31
0.0
  0
LINE
  5
14E
330
1E
100
AcDbEntity
  8
0
  6
CONTINUOUS
 62
     7
100
AcDbLine
 10
167.4499999999999
 20
141.14053
 30
0.0
 11
166.25
 21
140.8189999999999
 31
0.0
  0
LINE
  5
14F
330
1E
100
AcDbEntity
  8
0
  6
CONTINUOUS
 62
     7
100
AcDbLine
 10
166.25
 20
140.8189999999999
 30
0.0
 11
167.4499999999999
 21
140.49746
 31
0.0
  0
TEXT
  5
150
330
1E
100
AcDbEntity
  8
0
  6
CONTINUOUS
 62
     7
100
AcDbText
 10
165.35
 20
141.2197499999997
 30
0.0
 40
3.2
  1
120
 41
0.8125
  7
BIGFONT
100
AcDbText
  0
LINE
  5
151
330
1E
100
AcDbEntity
  8
0
  6
CONTINUOUS
 62
     7
100
AcDbLine
 10
172.25
 20
140.8197499999999
 30
0.0
 11
176.25
 21
140.8197499999999
 31
0.0
  0
LINE
  5
152
330
1E
100
AcDbEntity
  8
0
  6
CONTINUOUS
 62
     7
100
AcDbLine
 10
176.25
 20
124.6318999999999
 30
0.0
 11
176.25
 21
141.61975
 31
0.0
  0
LINE
  5
153
330
1E
100
AcDbEntity
  8
0
  6
CONTINUOUS
 62
     7
100
AcDbLine
 10
178.65
 20
140.8197499999999
 30
0.0
 11
176.25
 21
140.8197499999999
 31
0.0
  0
LINE
  5
154
330
1E
100
AcDbEntity
  8
0
  6
CONTINUOUS
 62
     7
100
AcDbLine
 10
177.4499999999999
 20
141.14053
 30
0.0
 11
176.25
 21
140.8189999999999
 31
0.0
  0
LINE
  5
155
330
1E
100
AcDbEntity
  8
0
  6
CONTINUOUS
 62
     7
100
AcDbLine
 10
176.25
 20
140.8189999999999
 30
0.0
 11
177.4499999999999
 21
140.49746
 31
0.0
  0
LINE
  5
156
330
1E
100
AcDbEntity
  8
0
  6
CONTINUOUS
 62
     7
100
AcDbLine
 10
172.25
 20
140.8197499999999
 30
0.0
 11
169.8499999999999
 21
140.8197499999999
 31
0.0
  0
LINE
  5
157
330
1E
100
AcDbEntity
  8
0
  6
CONTINUOUS
 62
     7
100
AcDbLine
 10
171.05
 20
140.49746
 30
0.0
 11
172.25
 21
140.8189999999999
 31
0.0
  0
LINE
  5
158
330
1E
100
AcDbEntity
  8
0
  6
CONTINUOUS
 62
     7
100
AcDbLine
 10
172.25
 20
140.8189999999999
 30
0.0
 11
171.05
 21
141.14053
 31
0.0
  0
LINE
  5
159
330
1E
100
AcDbEntity
  8
0
  6
CONTINUOUS
 62
     7
100
AcDbLine
 10
178.65
 20
140.8197499999999
 30
0.0
 11
181.97
 21
140.8197499999999
 31
0.0
  0
TEXT
  5
15A
330
1E
100
AcDbEntity
  8
0
  6
CONTINUOUS
 62
     7
100
AcDbText
 10
176.77
 20
141.2197499999997
 30
0.0
 40
3.2
  1
80
 41
0.8125
  7
BIGFONT
100
AcDbText
  0
LINE
  5
15B
330
1E
100
AcDbEntity
  8
0
  6
CONTINUOUS
 62
     7
100
AcDbLine
 10
-98.647
 20
-3.459849999999998
 30
0.0
 11
-46.35345
 21
-3.459849999999998
 31
0.0
  0
TEXT
  5
15C
330
1E
100
AcDbEntity
  8
0
  6
CONTINUOUS
 62
     7
100
AcDbText
 10
171.5948999999999
 20
-40.9837
 30
0.0
 40
3.2
  1
90°
 50
45.0
  7
BIGFONT
100
AcDbText
  0
LINE
  5
15D
330
1E
100
AcDbEntity
  8
0
  6
CONTINUOUS
 62
     7
100
AcDbLine
 10
-218.8655999999999
 20
-88.95985000000001
 30
0.0
 11
-218.8655999999999
 21
-31.45985
 31
0.0
  0
LINE
  5
15E
330
1E
100
AcDbEntity
  8
0
  6
CONTINUOUS
 62
     7
100
AcDbLine
 10
-218.8655999999999
 20
-31.45985
 30
0.0
 11
-161.3655999999999
 21
-31.45985
 31
0.0
  0
LINE
  5
15F
330
1E
100
AcDbEntity
  8
0
  6
CONTINUOUS
 62
     7
100
AcDbLine
 10
-101.333
 20
-88.95985000000001
 30
0.0
 11
-101.333
 21
-31.45985
 31
0.0
  0
LINE
  5
160
330
1E
100
AcDbEntity
  8
0
  6
CONTINUOUS
 62
     7
100
AcDbLine
 10
-101.333
 20
-31.45985
 30
0.0
 11
-43.833
 21
-31.45985
 31
0.0
  0
LINE
  5
161
330
1E
100
AcDbEntity
  8
0
  6
CONTINUOUS
 62
     7
100
AcDbLine
 10
87.5
 20
103.6318999999999
 30
0.0
 11
87.5
 21
123.6318999999999
 31
0.0
  0
LINE
  5
162
330
1E
100
AcDbEntity
  8
0
  6
CONTINUOUS
 62
     7
100
AcDbLine
 10
87.34999999999997
 20
103.4818999999999
 30
0.0
 11
87.5
 21
103.6318999999999
 31
0.0
  0
LINE
  5
163
330
1E
100
AcDbEntity
  8
0
  6
CONTINUOUS
 62
     7
100
AcDbLine
 10
87.34999999999997
 20
75.78189999999998
 30
0.0
 11
87.34999999999997
 21
103.4818999999999
 31
0.0
  0
LINE
  5
164
330
1E
100
AcDbEntity
  8
0
  6
CONTINUOUS
 62
     7
100
AcDbLine
 10
87.34999999999997
 20
75.78189999999998
 30
0.0
 11
87.5
 21
75.6319
 31
0.0
  0
LINE
  5
165
330
1E
100
AcDbEntity
  8
0
  6
CONTINUOUS
 62
     7
100
AcDbLine
 10
87.5
 20
61.7319
 30
0.0
 11
87.5
 21
75.6319
 31
0.0
  0
LINE
  5
166
330
1E
100
AcDbEntity
  8
0
  6
CONTINUOUS
 62
     7
100
AcDbLine
 10
87.5
 20
61.1319
 30
0.0
 11
87.5
 21
71.1319
 31
0.0
  0
LINE
  5
167
330
1E
100
AcDbEntity
  8
0
  6
CONTINUOUS
 62
     7
100
AcDbLine
 10
36.03744999999999
 20
123.6318999999999
 30
0.0
 11
87.5
 21
123.6318999999999
 31
0.0
  0
LINE
  5
168
330
1E
100
AcDbEntity
  8
0
  6
CONTINUOUS
 62
     7
100
AcDbLine
 10
75.0164
 20
61.1319
 30
0.0
 11
87.5
 21
61.1319
 31
0.0
  0
LINE
  5
169
330
1E
100
AcDbEntity
  8
0
  6
CONTINUOUS
 62
     7
100
AcDbLine
 10
75.0164
 20
67.1319
 30
0.0
 11
87.5
 21
67.1319
 31
0.0
  0
ARC
  5
16A
330
1E
100
AcDbEntity
  8
0
  6
CONTINUOUS
 62
     7
100
AcDbCircle
 10
35.54999999999999
 20
123.1818999999999
 30
0.0
 40
0.45
100
AcDbArc
 50
0.0
 51
5.4705107
  0
LINE
  5
16B
330
1E
100
AcDbEntity
  8
0
  6
CONTINUOUS
 62
     7
100
AcDbLine
 10
35.99795
 20
123.6318999999999
 30
0.0
 11
36.03744999999999
 21
123.6318999999999
 31
0.0
  0
LINE
  5
16C
330
1E
100
AcDbEntity
  8
0
  6
CONTINUOUS
 62
     7
100
AcDbLine
 10
36.0
 20
122.36865
 30
0.0
 11
36.0
 21
123.1818999999999
 31
0.0
  0
LINE
  5
16D
330
1E
100
AcDbEntity
  8
0
  6
CONTINUOUS
 62
     7
100
AcDbLine
 10
74.98385
 20
61.1319
 30
0.0
 11
75.0164
 21
61.1319
 31
0.0
  0
LINE
  5
16E
330
1E
100
AcDbEntity
  8
0
  6
CONTINUOUS
 62
     7
100
AcDbLine
 10
74.98385
 20
67.1319
 30
0.0
 11
75.0164
 21
67.1319
 31
0.0
  0
LINE
  5
16F
330
1E
100
AcDbEntity
  8
0
  6
CONTINUOUS
 62
     7
100
AcDbLine
 10
75.0
 20
61.1319
 30
0.0
 11
75.0
 21
63.54505
 31
0.0
  0
LINE
  5
170
330
1E
100
AcDbEntity
  8
0
  6
CONTINUOUS
 62
     7
100
AcDbLine
 10
75.0
 20
63.54505
 30
0.0
 11
75.0
 21
64.62579999999999
 31
0.0
  0
LINE
  5
171
330
1E
100
AcDbEntity
  8
0
  6
CONTINUOUS
 62
     7
100
AcDbLine
 10
75.0
 20
64.62579999999999
 30
0.0
 11
75.0
 21
67.1319
 31
0.0
  0
POINT
  5
172
330
1E
100
AcDbEntity
  8
0
  6
CONTINUOUS
 62
     7
100
AcDbPoint
 10
45.0
 20
63.78325
 30
0.0
  0
POINT
  5
173
330
1E
100
AcDbEntity
  8
0
  6
CONTINUOUS
 62
     1
100
AcDbPoint
 10
33.08675
 20
65.63044999999999
 30
0.0
  0
LINE
  5
174
330
1E
100
AcDbEntity
  8
0
  6
CONTINUOUS
 62
     1
100
AcDbLine
 10
40.3065
 20
63.53325
 30
0.0
 11
44.45649999999999
 21
63.53325
 31
0.0
  0
LINE
  5
175
330
1E
100
AcDbEntity
  8
0
  6
CONTINUOUS
 62
     1
100
AcDbLine
 10
32.3897
 20
71.5979
 30
0.0
 11
32.3897
 21
75.59789999999998
 31
0.0
  0
LINE
  5
176
330
1E
100
AcDbEntity
  8
0
  6
CONTINUOUS
 62
     1
100
AcDbLine
 10
35.61444999999999
 20
63.5315
 30
0.0
 11
39.61444999999999
 21
63.5315
 31
0.0
  0
LINE
  5
177
330
1E
100
AcDbEntity
  8
0
  6
CONTINUOUS
 62
     1
100
AcDbLine
 10
32.39914999999999
 20
66.40229999999999
 30
0.0
 11
32.39914999999999
 21
70.4023
 31
0.0
  0
ARC
  5
178
330
1E
100
AcDbEntity
  8
0
  6
CONTINUOUS
 62
     1
100
AcDbCircle
 10
33.65
 20
64.78189999999999
 30
0.0
 40
1.5
100
AcDbArc
 50
180.0
 51
270.0
  0
ARC
  5
179
330
1E
100
AcDbEntity
  8
0
  6
CONTINUOUS
 62
     1
100
AcDbCircle
 10
33.89915
 20
66.40229999999999
 30
0.0
 40
1.5
100
AcDbArc
 50
180.0
 51
266.63107
  0
LINE
  5
17A
330
1E
100
AcDbEntity
  8
0
  6
CONTINUOUS
 62
     1
100
AcDbLine
 10
33.65
 20
63.2819
 30
0.0
 11
57.5002
 21
63.2819
 31
0.0
  0
LINE
  5
17B
330
1E
100
AcDbEntity
  8
0
  6
CONTINUOUS
 62
     1
100
AcDbLine
 10
32.14999999999999
 20
64.78189999999999
 30
0.0
 11
32.14999999999999
 21
98.62385000000001
 31
0.0
  0
LINE
  5
17C
330
1E
100
AcDbEntity
  8
0
  6
CONTINUOUS
 62
     7
100
AcDbLine
 10
-6.67415
 20
64.45295
 30
0.0
 11
7.1435
 21
64.45295
 31
0.0
  0
LINE
  5
17D
330
1E
100
AcDbEntity
  8
0
  6
CONTINUOUS
 62
     7
100
AcDbLine
 10
-1.67765
 20
63.64685
 30
0.0
 11
7.0963
 21
63.64685
 31
0.0
  0
LINE
  5
17E
330
1E
100
AcDbEntity
  8
0
  6
CONTINUOUS
 62
     7
100
AcDbLine
 10
90.25
 20
64.43795
 30
0.0
 11
104.06765
 21
64.43795
 31
0.0
  0
LINE
  5
17F
330
1E
100
AcDbEntity
  8
0
  6
CONTINUOUS
 62
     7
100
AcDbLine
 10
90.29345000000001
 20
63.64685
 30
0.0
 11
99.0674
 21
63.64685
 31
0.0
  0
TEXT
  5
180
330
1E
100
AcDbEntity
  8
0
  6
CONTINUOUS
 62
     7
100
AcDbText
 10
97.49555
 20
54.06835
 30
0.0
 40
4.2
  1
Ｃ
 41
0.8333332999999999
  7
BIGFONT
100
AcDbText
  0
TEXT
  5
181
330
1E
100
AcDbEntity
  8
0
  6
CONTINUOUS
 62
     7
100
AcDbText
 10
102.6210499999999
 20
54.05699999999999
 30
0.0
 40
4.2
  1
Ｄ
 41
0.8333332999999999
  7
BIGFONT
100
AcDbText
  0
TEXT
  5
182
330
1E
100
AcDbEntity
  8
0
  6
CONTINUOUS
 62
     7
100
AcDbText
 10
-8.020799999999999
 20
54.2139
 30
0.0
 40
4.2
  1
Ｄ
 41
0.8333332999999999
  7
BIGFONT
100
AcDbText
  0
TEXT
  5
183
330
1E
100
AcDbEntity
  8
0
  6
CONTINUOUS
 62
     7
100
AcDbText
 10
-3.33665
 20
54.2028
 30
0.0
 40
4.2
  1
Ｃ
 41
0.8333332999999999
  7
BIGFONT
100
AcDbText
  0
TEXT
  5
184
330
1E
100
AcDbEntity
  8
0
  6
CONTINUOUS
 62
     7
100
AcDbText
 10
23.06235
 20
21.6176
 30
0.0
 40
4.2
  1
Ａ
 41
0.8333332999999999
  7
BIGFONT
100
AcDbText
  0
TEXT
  5
185
330
1E
100
AcDbEntity
  8
0
  6
CONTINUOUS
 62
     7
100
AcDbText
 10
23.3
 20
138.8032
 30
0.0
 40
4.2
  1
Ｂ
 41
0.8333332999999999
  7
BIGFONT
100
AcDbText
  0
TEXT
  5
186
330
1E
100
AcDbEntity
  8
0
  6
CONTINUOUS
 62
     7
100
AcDbText
 10
23.0866
 20
133.53075
 30
0.0
 40
4.2
  1
Ａ
 41
0.8333332999999999
  7
BIGFONT
100
AcDbText
  0
LINE
  5
187
330
1E
100
AcDbEntity
  8
0
  6
CONTINUOUS
 62
     7
100
AcDbLine
 10
33.64965
 20
126.9268
 30
0.0
 11
33.64965
 21
141.2072
 31
0.0
  0
LINE
  5
188
330
1E
100
AcDbEntity
  8
0
  6
CONTINUOUS
 62
     7
100
AcDbLine
 10
32.47489999999999
 20
126.9268
 30
0.0
 11
32.47489999999999
 21
135.6996499999999
 31
0.0
  0
LINE
  5
189
330
1E
100
AcDbEntity
  8
0
  6
CONTINUOUS
 62
     7
100
AcDbLine
 10
33.64965
 20
18.13635
 30
0.0
 11
33.64965
 21
32.41675
 31
0.0
  0
LINE
  5
18A
330
1E
100
AcDbEntity
  8
0
  6
CONTINUOUS
 62
     7
100
AcDbLine
 10
32.47489999999999
 20
23.6353
 30
0.0
 11
32.47489999999999
 21
32.40815
 31
0.0
  0
TEXT
  5
18B
330
1E
100
AcDbEntity
  8
0
  6
CONTINUOUS
 62
     7
100
AcDbText
 10
23.24445
 20
15.7994
 30
0.0
 40
4.2
  1
Ｂ
 41
0.8333332999999999
  7
BIGFONT
100
AcDbText
  0
LINE
  5
18C
330
1E
100
AcDbEntity
  8
0
  6
CONTINUOUS
 62
     7
100
AcDbLine
 10
30.0
 20
61.1319
 30
0.0
 11
30.0
 21
123.1818999999999
 31
0.0
  0
ARC
  5
18D
330
1E
100
AcDbEntity
  8
0
  6
CONTINUOUS
 62
     7
100
AcDbCircle
 10
35.54999999999999
 20
123.1818999999999
 30
0.0
 40
0.45
100
AcDbArc
 50
0.0
 51
90.0
  0
LINE
  5
18E
330
1E
100
AcDbEntity
  8
0
  6
CONTINUOUS
 62
     7
100
AcDbLine
 10
36.0
 20
71.1319
 30
0.0
 11
40.0
 21
67.1319
 31
0.0
  0
LINE
  5
18F
330
1E
100
AcDbEntity
  8
0
  6
CONTINUOUS
 62
     7
100
AcDbLine
 10
75.0
 20
61.1319
 30
0.0
 11
75.0
 21
67.1319
 31
0.0
  0
LINE
  5
190
330
1E
100
AcDbEntity
  8
0
  6
CONTINUOUS
 62
     7
100
AcDbLine
 10
36.0
 20
71.1319
 30
0.0
 11
36.0
 21
123.1818999999999
 31
0.0
  0
LINE
  5
191
330
1E
100
AcDbEntity
  8
0
  6
CONTINUOUS
 62
     7
100
AcDbLine
 10
30.0
 20
36.1319
 30
0.0
 11
75.0
 21
36.1319
 31
0.0
  0
LINE
  5
192
330
1E
100
AcDbEntity
  8
0
  6
CONTINUOUS
 62
     7
100
AcDbLine
 10
75.0
 20
60.1319
 30
0.0
 11
75.0
 21
35.33189999999999
 31
0.0
  0
LINE
  5
193
330
1E
100
AcDbEntity
  8
0
  6
CONTINUOUS
 62
     7
100
AcDbLine
 10
30.0
 20
60.1319
 30
0.0
 11
30.0
 21
35.33189999999999
 31
0.0
  0
LINE
  5
194
330
1E
100
AcDbEntity
  8
0
  6
CONTINUOUS
 62
     7
100
AcDbLine
 10
73.79999999999999
 20
35.80945999999999
 30
0.0
 11
75.0
 21
36.131
 31
0.0
  0
LINE
  5
195
330
1E
100
AcDbEntity
  8
0
  6
CONTINUOUS
 62
     7
100
AcDbLine
 10
75.0
 20
36.131
 30
0.0
 11
73.79999999999999
 21
36.45252999999997
 31
0.0
  0
LINE
  5
196
330
1E
100
AcDbEntity
  8
0
  6
CONTINUOUS
 62
     7
100
AcDbLine
 10
31.2
 20
36.45252999999997
 30
0.0
 11
30.0
 21
36.131
 31
0.0
  0
LINE
  5
197
330
1E
100
AcDbEntity
  8
0
  6
CONTINUOUS
 62
     7
100
AcDbLine
 10
30.0
 20
36.131
 30
0.0
 11
31.2
 21
35.80945999999999
 31
0.0
  0
TEXT
  5
198
330
1E
100
AcDbEntity
  8
0
  6
CONTINUOUS
 62
     7
100
AcDbText
 10
48.6
 20
36.5319
 30
0.0
 40
3.2
  1
900
 41
0.8125
  7
BIGFONT
100
AcDbText
  0
LINE
  5
199
330
1E
100
AcDbEntity
  8
0
  6
CONTINUOUS
 62
     7
100
AcDbLine
 10
30.0
 20
43.6319
 30
0.0
 11
32.16384999999998
 21
43.6319
 31
0.0
  0
LINE
  5
19A
330
1E
100
AcDbEntity
  8
0
  6
CONTINUOUS
 62
     7
100
AcDbLine
 10
32.16384999999998
 20
60.1319
 30
0.0
 11
32.16384999999998
 21
42.8319
 31
0.0
  0
LINE
  5
19B
330
1E
100
AcDbEntity
  8
0
  6
CONTINUOUS
 62
     7
100
AcDbLine
 10
30.0
 20
46.04795
 30
0.0
 11
30.0
 21
42.8319
 31
0.0
  0
LINE
  5
19C
330
1E
100
AcDbEntity
  8
0
  6
CONTINUOUS
 62
     7
100
AcDbLine
 10
34.56385
 20
43.6319
 30
0.0
 11
32.16384999999998
 21
43.6319
 31
0.0
  0
LINE
  5
19D
330
1E
100
AcDbEntity
  8
0
  6
CONTINUOUS
 62
     7
100
AcDbLine
 10
33.363
 20
43.95252999999999
 30
0.0
 11
32.16299999999999
 21
43.631
 31
0.0
  0
LINE
  5
19E
330
1E
100
AcDbEntity
  8
0
  6
CONTINUOUS
 62
     7
100
AcDbLine
 10
32.16299999999999
 20
43.631
 30
0.0
 11
33.363
 21
43.30945999999999
 31
0.0
  0
LINE
  5
19F
330
1E
100
AcDbEntity
  8
0
  6
CONTINUOUS
 62
     7
100
AcDbLine
 10
30.0
 20
43.6319
 30
0.0
 11
27.6
 21
43.6319
 31
0.0
  0
LINE
  5
1A0
330
1E
100
AcDbEntity
  8
0
  6
CONTINUOUS
 62
     7
100
AcDbLine
 10
28.8
 20
43.30945999999999
 30
0.0
 11
30.0
 21
43.631
 31
0.0
  0
LINE
  5
1A1
330
1E
100
AcDbEntity
  8
0
  6
CONTINUOUS
 62
     7
100
AcDbLine
 10
30.0
 20
43.631
 30
0.0
 11
28.8
 21
43.95252999999999
 31
0.0
  0
LINE
  5
1A2
330
1E
100
AcDbEntity
  8
0
  6
CONTINUOUS
 62
     7
100
AcDbLine
 10
27.6
 20
43.6319
 30
0.0
 11
22.2
 21
43.6319
 31
0.0
  0
TEXT
  5
1A3
330
1E
100
AcDbEntity
  8
0
  6
CONTINUOUS
 62
     7
100
AcDbText
 10
22.2
 20
44.0319
 30
0.0
 40
3.2
  1
45
 41
0.8125
  7
BIGFONT
100
AcDbText
  0
LINE
  5
1A4
330
1E
100
AcDbEntity
  8
0
  6
CONTINUOUS
 62
     7
100
AcDbLine
 10
32.16384999999998
 20
43.6319
 30
0.0
 11
75.0
 21
43.6319
 31
0.0
  0
LINE
  5
1A5
330
1E
100
AcDbEntity
  8
0
  6
CONTINUOUS
 62
     7
100
AcDbLine
 10
75.0
 20
46.7413
 30
0.0
 11
75.0
 21
42.8319
 31
0.0
  0
LINE
  5
1A6
330
1E
100
AcDbEntity
  8
0
  6
CONTINUOUS
 62
     7
100
AcDbLine
 10
73.79999999999999
 20
43.30945999999999
 30
0.0
 11
75.0
 21
43.631
 31
0.0
  0
LINE
  5
1A7
330
1E
100
AcDbEntity
  8
0
  6
CONTINUOUS
 62
     7
100
AcDbLine
 10
75.0
 20
43.631
 30
0.0
 11
73.79999999999999
 21
43.95252999999999
 31
0.0
  0
LINE
  5
1A8
330
1E
100
AcDbEntity
  8
0
  6
CONTINUOUS
 62
     7
100
AcDbLine
 10
33.363
 20
43.95252999999999
 30
0.0
 11
32.16299999999999
 21
43.631
 31
0.0
  0
LINE
  5
1A9
330
1E
100
AcDbEntity
  8
0
  6
CONTINUOUS
 62
     7
100
AcDbLine
 10
32.16299999999999
 20
43.631
 30
0.0
 11
33.363
 21
43.30945999999999
 31
0.0
  0
TEXT
  5
1AA
330
1E
100
AcDbEntity
  8
0
  6
CONTINUOUS
 62
     7
100
AcDbText
 10
49.68192
 20
44.0319
 30
0.0
 40
3.2
  1
855
 41
0.8125
  7
BIGFONT
100
AcDbText
  0
LINE
  5
1AB
330
1E
100
AcDbEntity
  8
0
  6
CONTINUOUS
 62
     1
100
AcDbLine
 10
33.81099999999999
 20
64.89305
 30
0.0
 11
34.0004
 21
64.8819
 31
0.0
  0
LINE
  5
1AC
330
1E
100
AcDbEntity
  8
0
  6
CONTINUOUS
 62
     1
100
AcDbLine
 10
32.3897
 20
71.59784999999998
 30
0.0
 11
40.3065
 21
63.53325
 31
0.0
  0
LINE
  5
1AD
330
1E
100
AcDbEntity
  8
0
  6
CONTINUOUS
 62
     7
100
AcDbLine
 10
30.44999999999999
 20
123.6318999999999
 30
0.0
 11
35.25619999999999
 21
123.6318999999999
 31
0.0
  0
LINE
  5
1AE
330
1E
100
AcDbEntity
  8
0
  6
CONTINUOUS
 62
     7
100
AcDbLine
 10
35.25619999999999
 20
123.6318999999999
 30
0.0
 11
35.54999999999999
 21
123.6318999999999
 31
0.0
  0
ARC
  5
1AF
330
1E
100
AcDbEntity
  8
0
  6
CONTINUOUS
 62
     7
100
AcDbCircle
 10
30.44999999999999
 20
123.1818999999999
 30
0.0
 40
0.45
100
AcDbArc
 50
90.0
 51
92.25422399999999
  0
ARC
  5
1B0
330
1E
100
AcDbEntity
  8
0
  6
CONTINUOUS
 62
     7
100
AcDbCircle
 10
30.44999999999999
 20
123.1818999999999
 30
0.0
 40
0.45
100
AcDbArc
 50
92.25422399999999
 51
180.0
  0
LINE
  5
1B1
330
1E
100
AcDbEntity
  8
0
  6
CONTINUOUS
 62
     7
100
AcDbLine
 10
30.44999999999999
 20
123.6318999999999
 30
0.0
 11
35.25619999999999
 21
123.6318999999999
 31
0.0
  0
LINE
  5
1B2
330
1E
100
AcDbEntity
  8
0
  6
CONTINUOUS
 62
     1
100
AcDbLine
 10
33.5
 20
64.8819
 30
0.0
 11
33.5
 21
121.5818999999999
 31
0.0
  0
LINE
  5
1B3
330
1E
100
AcDbEntity
  8
0
  6
CONTINUOUS
 62
     7
100
AcDbLine
 10
104.06765
 20
64.43795
 30
0.0
 11
104.0659
 21
59.4118
 31
0.0
  0
LINE
  5
1B4
330
1E
100
AcDbEntity
  8
0
  6
CONTINUOUS
 62
     7
100
AcDbLine
 10
103.74387
 20
60.61111
 30
0.0
 11
104.065
 21
59.411
 31
0.0
  0
LINE
  5
1B5
330
1E
100
AcDbEntity
  8
0
  6
CONTINUOUS
 62
     7
100
AcDbLine
 10
104.065
 20
59.411
 30
0.0
 11
104.38695
 21
60.61088
 31
0.0
  0
LINE
  5
1B6
330
1E
100
AcDbEntity
  8
0
  6
CONTINUOUS
 62
     7
100
AcDbLine
 10
99.0674
 20
63.64685
 30
0.0
 11
99.0674
 21
59.4118
 31
0.0
  0
LINE
  5
1B7
330
1E
100
AcDbEntity
  8
0
  6
CONTINUOUS
 62
     7
100
AcDbLine
 10
98.74546
 20
60.61099999999999
 30
0.0
 11
99.067
 21
59.411
 31
0.0
  0
LINE
  5
1B8
330
1E
100
AcDbEntity
  8
0
  6
CONTINUOUS
 62
     7
100
AcDbLine
 10
99.067
 20
59.411
 30
0.0
 11
99.38853000000001
 21
60.61099999999999
 31
0.0
  0
LINE
  5
1B9
330
1E
100
AcDbEntity
  8
0
  6
CONTINUOUS
 62
     7
100
AcDbLine
 10
-1.67765
 20
63.64685
 30
0.0
 11
-1.67765
 21
59.4118
 31
0.0
  0
LINE
  5
1BA
330
1E
100
AcDbEntity
  8
0
  6
CONTINUOUS
 62
     7
100
AcDbLine
 10
-1.998529999999997
 20
60.61099999999999
 30
0.0
 11
-1.676999999999999
 21
59.411
 31
0.0
  0
LINE
  5
1BB
330
1E
100
AcDbEntity
  8
0
  6
CONTINUOUS
 62
     7
100
AcDbLine
 10
-1.676999999999999
 20
59.411
 30
0.0
 11
-1.35546
 21
60.61099999999999
 31
0.0
  0
LINE
  5
1BC
330
1E
100
AcDbEntity
  8
0
  6
CONTINUOUS
 62
     7
100
AcDbLine
 10
-6.67415
 20
64.45295
 30
0.0
 11
-6.676999999999997
 21
59.4118
 31
0.0
  0
LINE
  5
1BD
330
1E
100
AcDbEntity
  8
0
  6
CONTINUOUS
 62
     7
100
AcDbLine
 10
-6.99786
 20
60.61118
 30
0.0
 11
-6.676999999999997
 21
59.411
 31
0.0
  0
LINE
  5
1BE
330
1E
100
AcDbEntity
  8
0
  6
CONTINUOUS
 62
     7
100
AcDbLine
 10
-6.676999999999997
 20
59.411
 30
0.0
 11
-6.354779999999997
 21
60.61081
 31
0.0
  0
LINE
  5
1BF
330
1E
100
AcDbEntity
  8
0
  6
CONTINUOUS
 62
     7
100
AcDbLine
 10
33.64965
 20
141.2072
 30
0.0
 11
27.5694
 21
141.217
 31
0.0
  0
LINE
  5
1C0
330
1E
100
AcDbEntity
  8
0
  6
CONTINUOUS
 62
     7
100
AcDbLine
 10
28.76951
 20
141.5365999999998
 30
0.0
 11
27.56899999999999
 21
141.217
 31
0.0
  0
LINE
  5
1C1
330
1E
100
AcDbEntity
  8
0
  6
CONTINUOUS
 62
     7
100
AcDbLine
 10
27.56899999999999
 20
141.217
 30
0.0
 11
28.76848
 21
140.8935199999999
 31
0.0
  0
LINE
  5
1C2
330
1E
100
AcDbEntity
  8
0
  6
CONTINUOUS
 62
     7
100
AcDbLine
 10
32.47489999999999
 20
135.6996499999999
 30
0.0
 11
27.5694
 21
135.7144499999999
 31
0.0
  0
LINE
  5
1C3
330
1E
100
AcDbEntity
  8
0
  6
CONTINUOUS
 62
     7
100
AcDbLine
 10
28.76996
 20
136.03191
 30
0.0
 11
27.56899999999999
 21
135.714
 31
0.0
  0
LINE
  5
1C4
330
1E
100
AcDbEntity
  8
0
  6
CONTINUOUS
 62
     7
100
AcDbLine
 10
27.56899999999999
 20
135.714
 30
0.0
 11
28.76801999999999
 21
135.3888399999999
 31
0.0
  0
LINE
  5
1C5
330
1E
100
AcDbEntity
  8
0
  6
CONTINUOUS
 62
     7
100
AcDbLine
 10
32.47489999999999
 20
23.6353
 30
0.0
 11
27.5694
 21
23.6353
 31
0.0
  0
LINE
  5
1C6
330
1E
100
AcDbEntity
  8
0
  6
CONTINUOUS
 62
     7
100
AcDbLine
 10
28.769
 20
23.95652999999998
 30
0.0
 11
27.56899999999999
 21
23.635
 31
0.0
  0
LINE
  5
1C7
330
1E
100
AcDbEntity
  8
0
  6
CONTINUOUS
 62
     7
100
AcDbLine
 10
27.56899999999999
 20
23.635
 30
0.0
 11
28.769
 21
23.31345999999999
 31
0.0
  0
LINE
  5
1C8
330
1E
100
AcDbEntity
  8
0
  6
CONTINUOUS
 62
     7
100
AcDbLine
 10
33.64965
 20
18.13635
 30
0.0
 11
27.5694
 21
18.13635
 31
0.0
  0
LINE
  5
1C9
330
1E
100
AcDbEntity
  8
0
  6
CONTINUOUS
 62
     7
100
AcDbLine
 10
28.769
 20
18.45753
 30
0.0
 11
27.56899999999999
 21
18.136
 31
0.0
  0
LINE
  5
1CA
330
1E
100
AcDbEntity
  8
0
  6
CONTINUOUS
 62
     7
100
AcDbLine
 10
27.56899999999999
 20
18.136
 30
0.0
 11
28.769
 21
17.81446
 31
0.0
  0
LINE
  5
1CB
330
1E
100
AcDbEntity
  8
0
  6
CONTINUOUS
 62
     7
100
AcDbLine
 10
12.5
 20
61.1319
 30
0.0
 11
12.5
 21
63.2819
 31
0.0
  0
LINE
  5
1CC
330
1E
100
AcDbEntity
  8
0
  6
CONTINUOUS
 62
     7
100
AcDbLine
 10
29.0
 20
63.2819
 30
0.0
 11
11.69999999999999
 21
63.2819
 31
0.0
  0
LINE
  5
1CD
330
1E
100
AcDbEntity
  8
0
  6
CONTINUOUS
 62
     7
100
AcDbLine
 10
29.0
 20
61.1319
 30
0.0
 11
11.69999999999999
 21
61.1319
 31
0.0
  0
LINE
  5
1CE
330
1E
100
AcDbEntity
  8
0
  6
CONTINUOUS
 62
     7
100
AcDbLine
 10
12.5
 20
65.6819
 30
0.0
 11
12.5
 21
63.2819
 31
0.0
  0
LINE
  5
1CF
330
1E
100
AcDbEntity
  8
0
  6
CONTINUOUS
 62
     7
100
AcDbLine
 10
12.17846
 20
64.48100000000001
 30
0.0
 11
12.5
 21
63.281
 31
0.0
  0
LINE
  5
1D0
330
1E
100
AcDbEntity
  8
0
  6
CONTINUOUS
 62
     7
100
AcDbLine
 10
12.5
 20
63.281
 30
0.0
 11
12.82153
 21
64.48100000000001
 31
0.0
  0
LINE
  5
1D1
330
1E
100
AcDbEntity
  8
0
  6
CONTINUOUS
 62
     7
100
AcDbLine
 10
12.5
 20
61.1319
 30
0.0
 11
12.5
 21
58.73190000000001
 31
0.0
  0
LINE
  5
1D2
330
1E
100
AcDbEntity
  8
0
  6
CONTINUOUS
 62
     7
100
AcDbLine
 10
12.82153
 20
59.931
 30
0.0
 11
12.5
 21
61.131
 31
0.0
  0
LINE
  5
1D3
330
1E
100
AcDbEntity
  8
0
  6
CONTINUOUS
 62
     7
100
AcDbLine
 10
12.5
 20
61.131
 30
0.0
 11
12.17846
 21
59.931
 31
0.0
  0
LINE
  5
1D4
330
1E
100
AcDbEntity
  8
0
  6
CONTINUOUS
 62
     7
100
AcDbLine
 10
12.5
 20
58.73190000000001
 30
0.0
 11
12.5
 21
53.3319
 31
0.0
  0
TEXT
  5
1D5
330
1E
100
AcDbEntity
  8
0
  6
CONTINUOUS
 62
     7
100
AcDbText
 10
12.09999999999999
 20
53.3319
 30
0.0
 40
3.2
  1
45
 50
90.0
 41
0.8125
  7
BIGFONT
100
AcDbText
  0
LINE
  5
1D6
330
1E
100
AcDbEntity
  8
0
  6
CONTINUOUS
 62
     7
100
AcDbLine
 10
12.5
 20
63.2819
 30
0.0
 11
12.5
 21
121.13655
 31
0.0
  0
LINE
  5
1D7
330
1E
100
AcDbEntity
  8
0
  6
CONTINUOUS
 62
     7
100
AcDbLine
 10
29.0
 20
121.13655
 30
0.0
 11
11.69999999999999
 21
121.13655
 31
0.0
  0
LINE
  5
1D8
330
1E
100
AcDbEntity
  8
0
  6
CONTINUOUS
 62
     7
100
AcDbLine
 10
12.82153
 20
119.936
 30
0.0
 11
12.5
 21
121.1359999999999
 31
0.0
  0
LINE
  5
1D9
330
1E
100
AcDbEntity
  8
0
  6
CONTINUOUS
 62
     7
100
AcDbLine
 10
12.5
 20
121.1359999999999
 30
0.0
 11
12.17846
 21
119.936
 31
0.0
  0
LINE
  5
1DA
330
1E
100
AcDbEntity
  8
0
  6
CONTINUOUS
 62
     7
100
AcDbLine
 10
12.17846
 20
64.48100000000001
 30
0.0
 11
12.5
 21
63.281
 31
0.0
  0
LINE
  5
1DB
330
1E
100
AcDbEntity
  8
0
  6
CONTINUOUS
 62
     7
100
AcDbLine
 10
12.5
 20
63.281
 30
0.0
 11
12.82153
 21
64.48100000000001
 31
0.0
  0
TEXT
  5
1DC
330
1E
100
AcDbEntity
  8
0
  6
CONTINUOUS
 62
     7
100
AcDbText
 10
12.09999999999999
 20
87.00922
 30
0.0
 40
3.2
  1
1155
 50
90.0
 41
0.8125
  7
BIGFONT
100
AcDbText
  0
LINE
  5
1DD
330
1E
100
AcDbEntity
  8
0
  6
CONTINUOUS
 62
     7
100
AcDbLine
 10
12.5
 20
121.13655
 30
0.0
 11
12.5
 21
123.6318999999999
 31
0.0
  0
LINE
  5
1DE
330
1E
100
AcDbEntity
  8
0
  6
CONTINUOUS
 62
     7
100
AcDbLine
 10
29.0
 20
123.6318999999999
 30
0.0
 11
11.69999999999999
 21
123.6318999999999
 31
0.0
  0
LINE
  5
1DF
330
1E
100
AcDbEntity
  8
0
  6
CONTINUOUS
 62
     7
100
AcDbLine
 10
12.5
 20
126.0318999999999
 30
0.0
 11
12.5
 21
123.6318999999999
 31
0.0
  0
LINE
  5
1E0
330
1E
100
AcDbEntity
  8
0
  6
CONTINUOUS
 62
     7
100
AcDbLine
 10
12.17846
 20
124.831
 30
0.0
 11
12.5
 21
123.631
 31
0.0
  0
LINE
  5
1E1
330
1E
100
AcDbEntity
  8
0
  6
CONTINUOUS
 62
     7
100
AcDbLine
 10
12.5
 20
123.631
 30
0.0
 11
12.82153
 21
124.831
 31
0.0
  0
LINE
  5
1E2
330
1E
100
AcDbEntity
  8
0
  6
CONTINUOUS
 62
     7
100
AcDbLine
 10
12.5
 20
121.13655
 30
0.0
 11
12.5
 21
118.73655
 31
0.0
  0
LINE
  5
1E3
330
1E
100
AcDbEntity
  8
0
  6
CONTINUOUS
 62
     7
100
AcDbLine
 10
12.82153
 20
119.936
 30
0.0
 11
12.5
 21
121.1359999999999
 31
0.0
  0
LINE
  5
1E4
330
1E
100
AcDbEntity
  8
0
  6
CONTINUOUS
 62
     7
100
AcDbLine
 10
12.5
 20
121.1359999999999
 30
0.0
 11
12.17846
 21
119.936
 31
0.0
  0
LINE
  5
1E5
330
1E
100
AcDbEntity
  8
0
  6
CONTINUOUS
 62
     7
100
AcDbLine
 10
12.5
 20
126.0318999999999
 30
0.0
 11
12.5
 21
131.4319
 31
0.0
  0
TEXT
  5
1E6
330
1E
100
AcDbEntity
  8
0
  6
CONTINUOUS
 62
     7
100
AcDbText
 10
12.09999999999999
 20
126.2318999999999
 30
0.0
 40
3.2
  1
50
 50
90.0
 41
0.8125
  7
BIGFONT
100
AcDbText
  0
LINE
  5
1E7
330
1E
100
AcDbEntity
  8
0
  6
CONTINUOUS
 62
     1
100
AcDbLine
 10
33.5
 20
65.03149999999999
 30
0.0
 11
33.5
 21
66.20255
 31
0.0
  0
LINE
  5
1E8
330
1E
100
AcDbEntity
  8
0
  6
CONTINUOUS
 62
     1
100
AcDbLine
 10
35.0
 20
63.5315
 30
0.0
 11
37.98344999999999
 21
63.5315
 31
0.0
  0
ARC
  5
1E9
330
1E
100
AcDbEntity
  8
0
  6
CONTINUOUS
 62
     1
100
AcDbCircle
 10
35.0
 20
65.03149999999999
 30
0.0
 40
1.5
100
AcDbArc
 50
180.0
 51
270.0
  0
POINT
  5
1EA
330
1E
100
AcDbEntity
  8
0
  6
CONTINUOUS
 62
     7
100
AcDbPoint
 10
33.95
 20
121.1319
 30
0.0
  0
POINT
  5
1EB
330
1E
100
AcDbEntity
  8
0
  6
CONTINUOUS
 62
     7
100
AcDbPoint
 10
32.61504999999999
 20
95.4054
 30
0.0
  0
LINE
  5
1EC
330
1E
100
AcDbEntity
  8
0
  6
CONTINUOUS
 62
     7
100
AcDbLine
 10
40.0
 20
67.1319
 30
0.0
 11
75.0
 21
67.1319
 31
0.0
  0
LINE
  5
1ED
330
1E
100
AcDbEntity
  8
0
  6
CONTINUOUS
 62
     7
100
AcDbLine
 10
30.0
 20
61.1319
 30
0.0
 11
75.0
 21
61.1319
 31
0.0
  0
LINE
  5
1EE
330
1E
100
AcDbEntity
  8
0
  6
CONTINUOUS
 62
     7
100
AcDbLine
 10
-101.333
 20
61.7554
 30
0.0
 11
-101.333
 21
76.6554
 31
0.0
  0
LINE
  5
1EF
330
1E
100
AcDbEntity
  8
0
  6
CONTINUOUS
 62
     7
100
AcDbLine
 10
-101.333
 20
76.6554
 30
0.0
 11
-101.183
 21
76.8054
 31
0.0
  0
LINE
  5
1F0
330
1E
100
AcDbEntity
  8
0
  6
CONTINUOUS
 62
     7
100
AcDbLine
 10
-101.183
 20
76.8054
 30
0.0
 11
-101.183
 21
116.0053999999999
 31
0.0
  0
LINE
  5
1F1
330
1E
100
AcDbEntity
  8
0
  6
CONTINUOUS
 62
     7
100
AcDbLine
 10
-101.333
 20
116.1553999999999
 30
0.0
 11
-101.183
 21
116.0053999999999
 31
0.0
  0
LINE
  5
1F2
330
1E
100
AcDbEntity
  8
0
  6
CONTINUOUS
 62
     7
100
AcDbLine
 10
-101.333
 20
123.6553999999999
 30
0.0
 11
-43.8515
 21
123.6553999999999
 31
0.0
  0
LINE
  5
1F3
330
1E
100
AcDbEntity
  8
0
  6
CONTINUOUS
 62
     7
100
AcDbLine
 10
-43.8515
 20
61.7554
 30
0.0
 11
-43.8515
 21
76.6554
 31
0.0
  0
LINE
  5
1F4
330
1E
100
AcDbEntity
  8
0
  6
CONTINUOUS
 62
     7
100
AcDbLine
 10
-101.333
 20
61.7554
 30
0.0
 11
-100.7329999999999
 21
61.1554
 31
0.0
  0
LINE
  5
1F5
330
1E
100
AcDbEntity
  8
0
  6
CONTINUOUS
 62
     7
100
AcDbLine
 10
-44.4515
 20
61.1554
 30
0.0
 11
-43.8515
 21
61.7554
 31
0.0
  0
LINE
  5
1F6
330
1E
100
AcDbEntity
  8
0
  6
CONTINUOUS
 62
     7
100
AcDbLine
 10
-100.7329999999999
 20
61.1554
 30
0.0
 11
-81.13644999999998
 21
61.1554
 31
0.0
  0
LINE
  5
1F7
330
1E
100
AcDbEntity
  8
0
  6
CONTINUOUS
 62
     7
100
AcDbLine
 10
-81.13644999999998
 20
61.1554
 30
0.0
 11
-65.89045
 21
61.1554
 31
0.0
  0
LINE
  5
1F8
330
1E
100
AcDbEntity
  8
0
  6
CONTINUOUS
 62
     7
100
AcDbLine
 10
-65.89045
 20
61.1554
 30
0.0
 11
-44.4515
 21
61.1554
 31
0.0
  0
LINE
  5
1F9
330
1E
100
AcDbEntity
  8
0
  6
CONTINUOUS
 62
     7
100
AcDbLine
 10
-43.8515
 20
74.1554
 30
0.0
 11
-43.8515
 21
123.6553999999999
 31
0.0
  0
LINE
  5
1FA
330
1E
100
AcDbEntity
  8
0
  6
CONTINUOUS
 62
     7
100
AcDbLine
 10
-101.333
 20
116.1553999999999
 30
0.0
 11
-101.333
 21
123.6553999999999
 31
0.0
  0
LINE
  5
1FB
330
1E
100
AcDbEntity
  8
0
  6
CONTINUOUS
 62
     7
100
AcDbLine
 10
-218.8655999999999
 20
61.7554
 30
0.0
 11
-218.8655999999999
 21
76.6554
 31
0.0
  0
LINE
  5
1FC
330
1E
100
AcDbEntity
  8
0
  6
CONTINUOUS
 62
     7
100
AcDbLine
 10
-218.8655999999999
 20
76.6554
 30
0.0
 11
-218.7155999999998
 21
76.8054
 31
0.0
  0
LINE
  5
1FD
330
1E
100
AcDbEntity
  8
0
  6
CONTINUOUS
 62
     7
100
AcDbLine
 10
-218.7155999999998
 20
76.8054
 30
0.0
 11
-218.7155999999998
 21
116.0053999999999
 31
0.0
  0
LINE
  5
1FE
330
1E
100
AcDbEntity
  8
0
  6
CONTINUOUS
 62
     7
100
AcDbLine
 10
-218.8655999999999
 20
116.1553999999999
 30
0.0
 11
-218.7155999999998
 21
116.0053999999999
 31
0.0
  0
LINE
  5
1FF
330
1E
100
AcDbEntity
  8
0
  6
CONTINUOUS
 62
     7
100
AcDbLine
 10
-218.8655999999999
 20
123.6553999999999
 30
0.0
 11
-161.3840999999998
 21
123.6553999999999
 31
0.0
  0
LINE
  5
200
330
1E
100
AcDbEntity
  8
0
  6
CONTINUOUS
 62
     7
100
AcDbLine
 10
-161.3840999999998
 20
61.7554
 30
0.0
 11
-161.3840999999998
 21
76.6554
 31
0.0
  0
LINE
  5
201
330
1E
100
AcDbEntity
  8
0
  6
CONTINUOUS
 62
     7
100
AcDbLine
 10
-218.8655999999999
 20
61.7554
 30
0.0
 11
-218.2656
 21
61.1554
 31
0.0
  0
LINE
  5
202
330
1E
100
AcDbEntity
  8
0
  6
CONTINUOUS
 62
     7
100
AcDbLine
 10
-161.9841
 20
61.1554
 30
0.0
 11
-161.3840999999998
 21
61.7554
 31
0.0
  0
LINE
  5
203
330
1E
100
AcDbEntity
  8
0
  6
CONTINUOUS
 62
     7
100
AcDbLine
 10
-218.2656
 20
61.1554
 30
0.0
 11
-201.1690499999999
 21
61.1554
 31
0.0
  0
LINE
  5
204
330
1E
100
AcDbEntity
  8
0
  6
CONTINUOUS
 62
     7
100
AcDbLine
 10
-201.1690499999999
 20
61.1554
 30
0.0
 11
-183.4230499999999
 21
61.1554
 31
0.0
  0
LINE
  5
205
330
1E
100
AcDbEntity
  8
0
  6
CONTINUOUS
 62
     7
100
AcDbLine
 10
-183.4230499999999
 20
61.1554
 30
0.0
 11
-161.9841
 21
61.1554
 31
0.0
  0
LINE
  5
206
330
1E
100
AcDbEntity
  8
0
  6
CONTINUOUS
 62
     7
100
AcDbLine
 10
-161.3840999999998
 20
74.1554
 30
0.0
 11
-161.3840999999998
 21
123.6553999999999
 31
0.0
  0
LINE
  5
207
330
1E
100
AcDbEntity
  8
0
  6
CONTINUOUS
 62
     7
100
AcDbLine
 10
-218.8655999999999
 20
116.1553999999999
 30
0.0
 11
-218.8655999999999
 21
123.6553999999999
 31
0.0
  0
LINE
  5
208
330
1E
100
AcDbEntity
  8
0
  6
CONTINUOUS
 62
     1
100
AcDbLine
 10
-216.3695999999999
 20
63.4054
 30
0.0
 11
-216.3695999999999
 21
98.65540000000001
 31
0.0
  0
LINE
  5
209
330
1E
100
AcDbEntity
  8
0
  6
CONTINUOUS
 62
     1
100
AcDbLine
 10
-201.1690499999999
 20
65.4054
 30
0.0
 11
-183.4230499999999
 21
65.4054
 31
0.0
  0
LINE
  5
20A
330
1E
100
AcDbEntity
  8
0
  6
DASHED
 62
     1
100
AcDbLine
 10
-215.8695999999999
 20
63.4054
 30
0.0
 11
-215.8695999999999
 21
75.73895
 31
0.0
  0
LINE
  5
20B
330
1E
100
AcDbEntity
  8
0
  6
CONTINUOUS
 62
     1
100
AcDbLine
 10
-216.3695999999999
 20
65.4054
 30
0.0
 11
-201.1690499999999
 21
65.4054
 31
0.0
  0
LINE
  5
20C
330
1E
100
AcDbEntity
  8
0
  6
CONTINUOUS
 62
     1
100
AcDbLine
 10
-81.18644999999999
 20
64.4054
 30
0.0
 11
-65.94045
 21
64.4054
 31
0.0
  0
LINE
  5
20D
330
1E
100
AcDbEntity
  8
0
  6
CONTINUOUS
 62
     1
100
AcDbLine
 10
-98.883
 20
64.4054
 30
0.0
 11
-81.18644999999999
 21
64.4054
 31
0.0
  0
LINE
  5
20E
330
1E
100
AcDbEntity
  8
0
  6
CONTINUOUS
 62
     1
100
AcDbLine
 10
-98.883
 20
63.3054
 30
0.0
 11
-98.883
 21
121.1554
 31
0.0
  0
LINE
  5
20F
330
1E
100
AcDbEntity
  8
0
  6
CONTINUOUS
 62
     1
100
AcDbLine
 10
-81.18644999999999
 20
121.1554
 30
0.0
 11
-65.94045
 21
121.1554
 31
0.0
  0
LINE
  5
210
330
1E
100
AcDbEntity
  8
0
  6
CONTINUOUS
 62
     1
100
AcDbLine
 10
-98.883
 20
121.1554
 30
0.0
 11
-81.18644999999999
 21
121.1554
 31
0.0
  0
LINE
  5
211
330
1E
100
AcDbEntity
  8
0
  6
CONTINUOUS
 62
     1
100
AcDbLine
 10
-201.1690499999999
 20
80.4054
 30
0.0
 11
-183.4230499999999
 21
80.4054
 31
0.0
  0
LINE
  5
212
330
1E
100
AcDbEntity
  8
0
  6
CONTINUOUS
 62
     1
100
AcDbLine
 10
-216.3695999999999
 20
80.4054
 30
0.0
 11
-201.1690499999999
 21
80.4054
 31
0.0
  0
LINE
  5
213
330
1E
100
AcDbEntity
  8
0
  6
CONTINUOUS
 62
     1
100
AcDbLine
 10
-201.1690499999999
 20
95.4054
 30
0.0
 11
-183.4230499999999
 21
95.4054
 31
0.0
  0
LINE
  5
214
330
1E
100
AcDbEntity
  8
0
  6
CONTINUOUS
 62
     1
100
AcDbLine
 10
-216.3695999999999
 20
95.4054
 30
0.0
 11
-201.1690499999999
 21
95.4054
 31
0.0
  0
LINE
  5
215
330
1E
100
AcDbEntity
  8
0
  6
CONTINUOUS
 62
     7
100
AcDbLine
 10
-218.8655999999999
 20
36.1554
 30
0.0
 11
-161.3658499999999
 21
36.1554
 31
0.0
  0
LINE
  5
216
330
1E
100
AcDbEntity
  8
0
  6
CONTINUOUS
 62
     7
100
AcDbLine
 10
-161.3658499999999
 20
60.1554
 30
0.0
 11
-161.3658499999999
 21
35.3554
 31
0.0
  0
LINE
  5
217
330
1E
100
AcDbEntity
  8
0
  6
CONTINUOUS
 62
     7
100
AcDbLine
 10
-218.8655999999999
 20
60.1554
 30
0.0
 11
-218.8655999999999
 21
35.3554
 31
0.0
  0
LINE
  5
218
330
1E
100
AcDbEntity
  8
0
  6
CONTINUOUS
 62
     7
100
AcDbLine
 10
-162.565
 20
35.83345999999997
 30
0.0
 11
-161.3649999999998
 21
36.155
 31
0.0
  0
LINE
  5
219
330
1E
100
AcDbEntity
  8
0
  6
CONTINUOUS
 62
     7
100
AcDbLine
 10
-161.3649999999998
 20
36.155
 30
0.0
 11
-162.565
 21
36.47653
 31
0.0
  0
LINE
  5
21A
330
1E
100
AcDbEntity
  8
0
  6
CONTINUOUS
 62
     7
100
AcDbLine
 10
-217.6649999999999
 20
36.47653
 30
0.0
 11
-218.8649999999999
 21
36.155
 31
0.0
  0
LINE
  5
21B
330
1E
100
AcDbEntity
  8
0
  6
CONTINUOUS
 62
     7
100
AcDbLine
 10
-218.8649999999999
 20
36.155
 30
0.0
 11
-217.6649999999999
 21
35.83345999999997
 31
0.0
  0
TEXT
  5
21C
330
1E
100
AcDbEntity
  8
0
  6
CONTINUOUS
 62
     7
100
AcDbText
 10
-195.3157199999999
 20
36.5554
 30
0.0
 40
3.2
  1
1150
 41
0.8125
  7
BIGFONT
100
AcDbText
  0
LINE
  5
21D
330
1E
100
AcDbEntity
  8
0
  6
CONTINUOUS
 62
     7
100
AcDbLine
 10
-236.3656
 20
61.1554
 30
0.0
 11
-236.3656
 21
98.6288
 31
0.0
  0
LINE
  5
21E
330
1E
100
AcDbEntity
  8
0
  6
CONTINUOUS
 62
     7
100
AcDbLine
 10
-219.7156
 20
98.6288
 30
0.0
 11
-237.1656
 21
98.6288
 31
0.0
  0
LINE
  5
21F
330
1E
100
AcDbEntity
  8
0
  6
CONTINUOUS
 62
     7
100
AcDbLine
 10
-219.8656
 20
61.1554
 30
0.0
 11
-237.1656
 21
61.1554
 31
0.0
  0
LINE
  5
220
330
1E
100
AcDbEntity
  8
0
  6
CONTINUOUS
 62
     7
100
AcDbLine
 10
-236.04346
 20
97.428
 30
0.0
 11
-236.365
 21
98.628
 31
0.0
  0
LINE
  5
221
330
1E
100
AcDbEntity
  8
0
  6
CONTINUOUS
 62
     7
100
AcDbLine
 10
-236.365
 20
98.628
 30
0.0
 11
-236.6865299999999
 21
97.428
 31
0.0
  0
LINE
  5
222
330
1E
100
AcDbEntity
  8
0
  6
CONTINUOUS
 62
     7
100
AcDbLine
 10
-236.6865299999999
 20
62.355
 30
0.0
 11
-236.365
 21
61.155
 31
0.0
  0
LINE
  5
223
330
1E
100
AcDbEntity
  8
0
  6
CONTINUOUS
 62
     7
100
AcDbLine
 10
-236.365
 20
61.155
 30
0.0
 11
-236.04346
 21
62.355
 31
0.0
  0
TEXT
  5
224
330
1E
100
AcDbEntity
  8
0
  6
CONTINUOUS
 62
     7
100
AcDbText
 10
-236.7656
 20
75.99209999999998
 30
0.0
 40
3.2
  1
750
 50
90.0
 41
0.8125
  7
BIGFONT
100
AcDbText
  0
LINE
  5
225
330
1E
100
AcDbEntity
  8
0
  6
CONTINUOUS
 62
     7
100
AcDbLine
 10
-118.833
 20
61.1554
 30
0.0
 11
-118.833
 21
123.6553999999999
 31
0.0
  0
LINE
  5
226
330
1E
100
AcDbEntity
  8
0
  6
CONTINUOUS
 62
     7
100
AcDbLine
 10
-102.333
 20
123.6553999999999
 30
0.0
 11
-119.6329999999999
 21
123.6553999999999
 31
0.0
  0
LINE
  5
227
330
1E
100
AcDbEntity
  8
0
  6
CONTINUOUS
 62
     7
100
AcDbLine
 10
-102.333
 20
61.1554
 30
0.0
 11
-119.6329999999999
 21
61.1554
 31
0.0
  0
LINE
  5
228
330
1E
100
AcDbEntity
  8
0
  6
CONTINUOUS
 62
     7
100
AcDbLine
 10
-118.51146
 20
122.455
 30
0.0
 11
-118.833
 21
123.655
 31
0.0
  0
LINE
  5
229
330
1E
100
AcDbEntity
  8
0
  6
CONTINUOUS
 62
     7
100
AcDbLine
 10
-118.833
 20
123.655
 30
0.0
 11
-119.15453
 21
122.455
 31
0.0
  0
LINE
  5
22A
330
1E
100
AcDbEntity
  8
0
  6
CONTINUOUS
 62
     7
100
AcDbLine
 10
-119.15453
 20
62.355
 30
0.0
 11
-118.833
 21
61.155
 31
0.0
  0
LINE
  5
22B
330
1E
100
AcDbEntity
  8
0
  6
CONTINUOUS
 62
     7
100
AcDbLine
 10
-118.833
 20
61.155
 30
0.0
 11
-118.51146
 21
62.355
 31
0.0
  0
TEXT
  5
22C
330
1E
100
AcDbEntity
  8
0
  6
CONTINUOUS
 62
     7
100
AcDbText
 10
-119.2329999999999
 20
87.20539999999997
 30
0.0
 40
3.2
  1
1250
 50
90.0
 41
0.8125
  7
BIGFONT
100
AcDbText
  0
TEXT
  5
22D
330
1E
100
AcDbEntity
  8
0
  6
CONTINUOUS
 62
     7
100
AcDbText
 10
-229.4388
 20
68.53709999999999
 30
0.0
 40
3.2
  1
2×300=600
 50
90.0
  7
BIGFONT
100
AcDbText
  0
TEXT
  5
22E
330
1E
100
AcDbEntity
  8
0
  6
CONTINUOUS
 62
     7
100
AcDbText
 10
-111.7342999999999
 20
76.1946
 30
0.0
 40
3.2
  1
4×250=1000
 50
90.0
  7
BIGFONT
100
AcDbText
  0
LINE
  5
22F
330
1E
100
AcDbEntity
  8
0
  6
CONTINUOUS
 62
     7
100
AcDbLine
 10
-218.8655999999999
 20
-15.95984999999999
 30
0.0
 11
-161.3655999999999
 21
-15.95984999999999
 31
0.0
  0
LINE
  5
230
330
1E
100
AcDbEntity
  8
0
  6
CONTINUOUS
 62
     7
100
AcDbLine
 10
-161.3655999999999
 20
-30.45984999999999
 30
0.0
 11
-161.3655999999999
 21
-15.15985
 31
0.0
  0
LINE
  5
231
330
1E
100
AcDbEntity
  8
0
  6
CONTINUOUS
 62
     7
100
AcDbLine
 10
-218.8655999999999
 20
-30.45984999999999
 30
0.0
 11
-218.8655999999999
 21
-15.15985
 31
0.0
  0
LINE
  5
232
330
1E
100
AcDbEntity
  8
0
  6
CONTINUOUS
 62
     7
100
AcDbLine
 10
-162.565
 20
-16.28052999999999
 30
0.0
 11
-161.3649999999998
 21
-15.959
 31
0.0
  0
LINE
  5
233
330
1E
100
AcDbEntity
  8
0
  6
CONTINUOUS
 62
     7
100
AcDbLine
 10
-161.3649999999998
 20
-15.959
 30
0.0
 11
-162.565
 21
-15.63746
 31
0.0
  0
LINE
  5
234
330
1E
100
AcDbEntity
  8
0
  6
CONTINUOUS
 62
     7
100
AcDbLine
 10
-217.6649999999999
 20
-15.63746
 30
0.0
 11
-218.8649999999999
 21
-15.959
 31
0.0
  0
LINE
  5
235
330
1E
100
AcDbEntity
  8
0
  6
CONTINUOUS
 62
     7
100
AcDbLine
 10
-218.8649999999999
 20
-15.959
 30
0.0
 11
-217.6649999999999
 21
-16.28052999999999
 31
0.0
  0
TEXT
  5
236
330
1E
100
AcDbEntity
  8
0
  6
CONTINUOUS
 62
     7
100
AcDbText
 10
-195.3155999999999
 20
-15.55985
 30
0.0
 40
3.2
  1
1150
 41
0.8125
  7
BIGFONT
100
AcDbText
  0
LINE
  5
237
330
1E
100
AcDbEntity
  8
0
  6
CONTINUOUS
 62
     1
100
AcDbLine
 10
-183.4230499999999
 20
80.4054
 30
0.0
 11
-163.5960999999998
 21
80.4054
 31
0.0
  0
LINE
  5
238
330
1E
100
AcDbEntity
  8
0
  6
CONTINUOUS
 62
     1
100
AcDbLine
 10
-183.4230499999999
 20
95.4054
 30
0.0
 11
-163.5960999999998
 21
95.4054
 31
0.0
  0
LINE
  5
239
330
1E
100
AcDbEntity
  8
0
  6
CONTINUOUS
 62
     1
100
AcDbLine
 10
-183.4230499999999
 20
65.4054
 30
0.0
 11
-163.5756
 21
65.4054
 31
0.0
  0
LINE
  5
23A
330
1E
100
AcDbEntity
  8
0
  6
CONTINUOUS
 62
     1
100
AcDbLine
 10
-216.6155999999999
 20
-86.45985000000001
 30
0.0
 11
-191.3655999999999
 21
-86.45985000000001
 31
0.0
  0
LINE
  5
23B
330
1E
100
AcDbEntity
  8
0
  6
CONTINUOUS
 62
     1
100
AcDbLine
 10
-163.8656
 20
-61.45985
 30
0.0
 11
-163.8656
 21
-33.70985
 31
0.0
  0
LINE
  5
23C
330
1E
100
AcDbEntity
  8
0
  6
DASHED
 62
     1
100
AcDbLine
 10
-216.6155999999999
 20
-85.95985
 30
0.0
 11
-204.3309
 21
-85.95985
 31
0.0
  0
LINE
  5
23D
330
1E
100
AcDbEntity
  8
0
  6
CONTINUOUS
 62
     1
100
AcDbLine
 10
-97.08300000000001
 20
-34.20985
 30
0.0
 11
-46.333
 21
-34.20985
 31
0.0
  0
LINE
  5
23E
330
1E
100
AcDbEntity
  8
0
  6
CONTINUOUS
 62
     1
100
AcDbLine
 10
-98.58299999999999
 20
-86.45985000000001
 30
0.0
 11
-98.58299999999999
 21
-35.70985
 31
0.0
  0
LINE
  5
23F
330
1E
100
AcDbEntity
  8
0
  6
CONTINUOUS
 62
     7
100
AcDbLine
 10
-101.333
 20
-15.95984999999999
 30
0.0
 11
-43.833
 21
-15.95984999999999
 31
0.0
  0
LINE
  5
240
330
1E
100
AcDbEntity
  8
0
  6
CONTINUOUS
 62
     7
100
AcDbLine
 10
-43.833
 20
-30.45984999999999
 30
0.0
 11
-43.833
 21
-15.15985
 31
0.0
  0
LINE
  5
241
330
1E
100
AcDbEntity
  8
0
  6
CONTINUOUS
 62
     7
100
AcDbLine
 10
-101.333
 20
-30.45984999999999
 30
0.0
 11
-101.333
 21
-15.15985
 31
0.0
  0
LINE
  5
242
330
1E
100
AcDbEntity
  8
0
  6
CONTINUOUS
 62
     7
100
AcDbLine
 10
-45.033
 20
-16.28052999999999
 30
0.0
 11
-43.833
 21
-15.959
 31
0.0
  0
LINE
  5
243
330
1E
100
AcDbEntity
  8
0
  6
CONTINUOUS
 62
     7
100
AcDbLine
 10
-43.833
 20
-15.959
 30
0.0
 11
-45.033
 21
-15.63746
 31
0.0
  0
LINE
  5
244
330
1E
100
AcDbEntity
  8
0
  6
CONTINUOUS
 62
     7
100
AcDbLine
 10
-100.133
 20
-15.63746
 30
0.0
 11
-101.333
 21
-15.959
 31
0.0
  0
LINE
  5
245
330
1E
100
AcDbEntity
  8
0
  6
CONTINUOUS
 62
     7
100
AcDbLine
 10
-101.333
 20
-15.959
 30
0.0
 11
-100.133
 21
-16.28052999999999
 31
0.0
  0
TEXT
  5
246
330
1E
100
AcDbEntity
  8
0
  6
CONTINUOUS
 62
     7
100
AcDbText
 10
-77.783
 20
-15.55985
 30
0.0
 40
3.2
  1
1150
 41
0.8125
  7
BIGFONT
100
AcDbText
  0
LINE
  5
247
330
1E
100
AcDbEntity
  8
0
  6
CONTINUOUS
 62
     1
100
AcDbLine
 10
34.0
 20
64.8819
 30
0.0
 11
73.9645
 21
64.8819
 31
0.0
  0
POINT
  5
248
330
1E
100
AcDbEntity
  8
0
  6
CONTINUOUS
 62
     1
100
AcDbPoint
 10
45.0
 20
64.40085
 30
0.0
  0
POINT
  5
249
330
1E
100
AcDbEntity
  8
0
  6
CONTINUOUS
 62
     7
100
AcDbPoint
 10
55.0
 20
64.3922
 30
0.0
  0
POINT
  5
24A
330
1E
100
AcDbEntity
  8
0
  6
CONTINUOUS
 62
     1
100
AcDbPoint
 10
65.0
 20
64.3922
 30
0.0
  0
CIRCLE
  5
24B
330
1E
100
AcDbEntity
  8
0
  6
CONTINUOUS
 62
     7
100
AcDbCircle
 10
170.5
 20
107.126
 30
0.0
 40
0.75
  0
LINE
  5
24C
330
1E
100
AcDbEntity
  8
0
  6
CONTINUOUS
 62
     7
100
AcDbLine
 10
170.5
 20
105.126
 30
0.0
 11
170.5
 21
109.126
 31
0.0
  0
LINE
  5
24D
330
1E
100
AcDbEntity
  8
0
  6
CONTINUOUS
 62
     7
100
AcDbLine
 10
168.5
 20
107.126
 30
0.0
 11
172.5
 21
107.126
 31
0.0
  0
LINE
  5
24E
330
1E
100
AcDbEntity
  8
0
  6
CONTINUOUS
 62
     7
100
AcDbLine
 10
166.25
 20
96.32325000000001
 30
0.0
 11
170.5
 21
96.32325000000001
 31
0.0
  0
LINE
  5
24F
330
1E
100
AcDbEntity
  8
0
  6
CONTINUOUS
 62
     7
100
AcDbLine
 10
170.5
 20
104.4958999999999
 30
0.0
 11
170.5
 21
95.52325000000001
 31
0.0
  0
LINE
  5
250
330
1E
100
AcDbEntity
  8
0
  6
CONTINUOUS
 62
     7
100
AcDbLine
 10
166.25
 20
103.24705
 30
0.0
 11
166.25
 21
95.52325000000001
 31
0.0
  0
LINE
  5
251
330
1E
100
AcDbEntity
  8
0
  6
CONTINUOUS
 62
     7
100
AcDbLine
 10
172.9
 20
96.32325000000001
 30
0.0
 11
170.5
 21
96.32325000000001
 31
0.0
  0
LINE
  5
252
330
1E
100
AcDbEntity
  8
0
  6
CONTINUOUS
 62
     7
100
AcDbLine
 10
171.6999999999998
 20
96.64453000000001
 30
0.0
 11
170.5
 21
96.323
 31
0.0
  0
LINE
  5
253
330
1E
100
AcDbEntity
  8
0
  6
CONTINUOUS
 62
     7
100
AcDbLine
 10
170.5
 20
96.323
 30
0.0
 11
171.6999999999998
 21
96.00146
 31
0.0
  0
LINE
  5
254
330
1E
100
AcDbEntity
  8
0
  6
CONTINUOUS
 62
     7
100
AcDbLine
 10
166.25
 20
96.32325000000001
 30
0.0
 11
163.85
 21
96.32325000000001
 31
0.0
  0
LINE
  5
255
330
1E
100
AcDbEntity
  8
0
  6
CONTINUOUS
 62
     7
100
AcDbLine
 10
165.05
 20
96.00146
 30
0.0
 11
166.25
 21
96.323
 31
0.0
  0
LINE
  5
256
330
1E
100
AcDbEntity
  8
0
  6
CONTINUOUS
 62
     7
100
AcDbLine
 10
166.25
 20
96.323
 30
0.0
 11
165.05
 21
96.64453000000001
 31
0.0
  0
LINE
  5
257
330
1E
100
AcDbEntity
  8
0
  6
CONTINUOUS
 62
     7
100
AcDbLine
 10
163.85
 20
96.32325000000001
 30
0.0
 11
160.27
 21
96.32325000000001
 31
0.0
  0
TEXT
  5
258
330
1E
100
AcDbEntity
  8
0
  6
CONTINUOUS
 62
     7
100
AcDbText
 10
160.27
 20
96.72325
 30
0.0
 40
3.2
  1
85
 41
0.8125
  7
BIGFONT
100
AcDbText
  0
CIRCLE
  5
259
330
1E
100
AcDbEntity
  8
0
  6
CONTINUOUS
 62
     7
100
AcDbCircle
 10
47.30095
 20
110.39355
 30
0.0
 40
2.5
  0
TEXT
  5
25A
330
1E
100
AcDbEntity
  8
0
  6
CONTINUOUS
 62
     7
100
AcDbText
 10
45.7127
 20
108.7687999999999
 30
0.0
 40
3.2
  1
１
  7
BIGFONT
100
AcDbText
  0
TEXT
  5
25B
330
1E
100
AcDbEntity
  8
0
  6
CONTINUOUS
 62
     7
100
AcDbText
 10
50.5243
 20
108.7694
 30
0.0
 40
3.2
  1
D10
  7
BIGFONT
100
AcDbText
  0
LINE
  5
25C
330
1E
100
AcDbEntity
  8
0
  6
CONTINUOUS
 62
     7
100
AcDbLine
 10
59.87795
 20
107.89775
 30
0.0
 11
33.5
 21
107.89775
 31
0.0
  0
LINE
  5
25D
330
1E
100
AcDbEntity
  8
0
  6
CONTINUOUS
 62
     7
100
AcDbLine
 10
34.7
 20
108.21853
 30
0.0
 11
33.5
 21
107.8969999999999
 31
0.0
  0
LINE
  5
25E
330
1E
100
AcDbEntity
  8
0
  6
CONTINUOUS
 62
     7
100
AcDbLine
 10
33.5
 20
107.8969999999999
 30
0.0
 11
34.7
 21
107.57546
 31
0.0
  0
LINE
  5
25F
330
1E
100
AcDbEntity
  8
0
  6
CONTINUOUS
 62
     7
100
AcDbLine
 10
21.49999999999999
 20
74.55589999999998
 30
0.0
 11
32.14999999999999
 21
74.55589999999998
 31
0.0
  0
LINE
  5
260
330
1E
100
AcDbEntity
  8
0
  6
CONTINUOUS
 62
     7
100
AcDbLine
 10
32.14999999999999
 20
74.55589999999998
 30
0.0
 11
34.55
 21
74.55589999999998
 31
0.0
  0
LINE
  5
261
330
1E
100
AcDbEntity
  8
0
  6
CONTINUOUS
 62
     7
100
AcDbLine
 10
30.95
 20
74.23345999999998
 30
0.0
 11
32.14999999999999
 21
74.555
 31
0.0
  0
LINE
  5
262
330
1E
100
AcDbEntity
  8
0
  6
CONTINUOUS
 62
     7
100
AcDbLine
 10
32.14999999999999
 20
74.555
 30
0.0
 11
30.95
 21
74.87653
 31
0.0
  0
LINE
  5
263
330
1E
100
AcDbEntity
  8
0
  6
CONTINUOUS
 62
     7
100
AcDbLine
 10
21.5379
 20
100.2118499999999
 30
0.0
 11
32.61504999999999
 21
95.4054
 31
0.0
  0
LINE
  5
264
330
1E
100
AcDbEntity
  8
0
  6
CONTINUOUS
 62
     7
100
AcDbLine
 10
31.38616999999999
 20
95.58768999999999
 30
0.0
 11
32.615
 21
95.40499999999999
 31
0.0
  0
LINE
  5
265
330
1E
100
AcDbEntity
  8
0
  6
CONTINUOUS
 62
     7
100
AcDbLine
 10
32.615
 20
95.40499999999999
 30
0.0
 11
31.64215
 21
96.17761999999999
 31
0.0
  0
LINE
  5
266
330
1E
100
AcDbEntity
  8
0
  6
CONTINUOUS
 62
     7
100
AcDbLine
 10
-191.1527
 20
105.4054
 30
0.0
 11
-191.1527
 21
95.4054
 31
0.0
  0
LINE
  5
267
330
1E
100
AcDbEntity
  8
0
  6
CONTINUOUS
 62
     7
100
AcDbLine
 10
-191.47353
 20
96.605
 30
0.0
 11
-191.1519999999999
 21
95.40499999999999
 31
0.0
  0
LINE
  5
268
330
1E
100
AcDbEntity
  8
0
  6
CONTINUOUS
 62
     7
100
AcDbLine
 10
-191.1519999999999
 20
95.40499999999999
 30
0.0
 11
-190.83046
 21
96.605
 31
0.0
  0
CIRCLE
  5
269
330
1E
100
AcDbEntity
  8
0
  6
CONTINUOUS
 62
     7
100
AcDbCircle
 10
-36.4065
 20
99.7018
 30
0.0
 40
2.5
  0
TEXT
  5
26A
330
1E
100
AcDbEntity
  8
0
  6
CONTINUOUS
 62
     7
100
AcDbText
 10
-34.6417
 20
98.11355
 30
0.0
 40
3.2
  1
１
 50
90.0
  7
BIGFONT
100
AcDbText
  0
TEXT
  5
26B
330
1E
100
AcDbEntity
  8
0
  6
CONTINUOUS
 62
     7
100
AcDbText
 10
-34.6423
 20
102.9251499999999
 30
0.0
 40
3.2
  1
D10
 50
90.0
  7
BIGFONT
100
AcDbText
  0
LINE
  5
26C
330
1E
100
AcDbEntity
  8
0
  6
CONTINUOUS
 62
     7
100
AcDbLine
 10
-33.9107
 20
95.87415
 30
0.0
 11
-33.9107
 21
110.87415
 31
0.0
  0
LINE
  5
26D
330
1E
100
AcDbEntity
  8
0
  6
CONTINUOUS
 62
     1
100
AcDbLine
 10
-165.0961
 20
63.4054
 30
0.0
 11
-165.0961
 21
98.65540000000001
 31
0.0
  0
LINE
  5
26E
330
1E
100
AcDbEntity
  8
0
  6
CONTINUOUS
 62
     7
100
AcDbLine
 10
-101.3707499999999
 20
36.1554
 30
0.0
 11
-43.871
 21
36.1554
 31
0.0
  0
LINE
  5
26F
330
1E
100
AcDbEntity
  8
0
  6
CONTINUOUS
 62
     7
100
AcDbLine
 10
-43.871
 20
60.1554
 30
0.0
 11
-43.871
 21
35.3554
 31
0.0
  0
LINE
  5
270
330
1E
100
AcDbEntity
  8
0
  6
CONTINUOUS
 62
     7
100
AcDbLine
 10
-101.3707499999999
 20
60.1554
 30
0.0
 11
-101.3707499999999
 21
35.3554
 31
0.0
  0
LINE
  5
271
330
1E
100
AcDbEntity
  8
0
  6
CONTINUOUS
 62
     7
100
AcDbLine
 10
-45.071
 20
35.83345999999997
 30
0.0
 11
-43.871
 21
36.155
 31
0.0
  0
LINE
  5
272
330
1E
100
AcDbEntity
  8
0
  6
CONTINUOUS
 62
     7
100
AcDbLine
 10
-43.871
 20
36.155
 30
0.0
 11
-45.071
 21
36.47653
 31
0.0
  0
LINE
  5
273
330
1E
100
AcDbEntity
  8
0
  6
CONTINUOUS
 62
     7
100
AcDbLine
 10
-100.17
 20
36.47653
 30
0.0
 11
-101.37
 21
36.155
 31
0.0
  0
LINE
  5
274
330
1E
100
AcDbEntity
  8
0
  6
CONTINUOUS
 62
     7
100
AcDbLine
 10
-101.37
 20
36.155
 30
0.0
 11
-100.17
 21
35.83345999999997
 31
0.0
  0
TEXT
  5
275
330
1E
100
AcDbEntity
  8
0
  6
CONTINUOUS
 62
     7
100
AcDbText
 10
-77.82087
 20
36.5554
 30
0.0
 40
3.2
  1
1150
 41
0.8125
  7
BIGFONT
100
AcDbText
  0
LINE
  5
276
330
1E
100
AcDbEntity
  8
0
  6
CONTINUOUS
 62
     1
100
AcDbLine
 10
-47.6095
 20
63.3054
 30
0.0
 11
-47.6095
 21
121.1554
 31
0.0
  0
LINE
  5
277
330
1E
100
AcDbEntity
  8
0
  6
CONTINUOUS
 62
     1
100
AcDbLine
 10
-65.94045
 20
64.4054
 30
0.0
 11
-47.6095
 21
64.4054
 31
0.0
  0
LINE
  5
278
330
1E
100
AcDbEntity
  8
0
  6
CONTINUOUS
 62
     1
100
AcDbLine
 10
-65.94045
 20
121.1554
 30
0.0
 11
-47.6095
 21
121.1554
 31
0.0
  0
LINE
  5
279
330
1E
100
AcDbEntity
  8
0
  6
CONTINUOUS
 62
     7
100
AcDbLine
 10
-73.825
 20
89.4054
 30
0.0
 11
-73.825
 21
76.9054
 31
0.0
  0
LINE
  5
27A
330
1E
100
AcDbEntity
  8
0
  6
CONTINUOUS
 62
     7
100
AcDbLine
 10
-74.14653
 20
78.10500000000001
 30
0.0
 11
-73.825
 21
76.905
 31
0.0
  0
LINE
  5
27B
330
1E
100
AcDbEntity
  8
0
  6
CONTINUOUS
 62
     7
100
AcDbLine
 10
-73.825
 20
76.905
 30
0.0
 11
-73.50346
 21
78.10500000000001
 31
0.0
  0
LINE
  5
27C
330
1E
100
AcDbEntity
  8
0
  6
CONTINUOUS
 62
     7
100
AcDbLine
 10
-191.1256999999999
 20
95.4054
 30
0.0
 11
-191.1256999999999
 21
80.4054
 31
0.0
  0
LINE
  5
27D
330
1E
100
AcDbEntity
  8
0
  6
CONTINUOUS
 62
     7
100
AcDbLine
 10
-191.4465299999999
 20
81.605
 30
0.0
 11
-191.125
 21
80.40499999999999
 31
0.0
  0
LINE
  5
27E
330
1E
100
AcDbEntity
  8
0
  6
CONTINUOUS
 62
     7
100
AcDbLine
 10
-191.125
 20
80.40499999999999
 30
0.0
 11
-190.80346
 21
81.605
 31
0.0
  0
LINE
  5
27F
330
1E
100
AcDbEntity
  8
0
  6
CONTINUOUS
 62
     7
100
AcDbLine
 10
-191.1256999999999
 20
80.4054
 30
0.0
 11
-191.1256999999999
 21
65.4054
 31
0.0
  0
LINE
  5
280
330
1E
100
AcDbEntity
  8
0
  6
CONTINUOUS
 62
     7
100
AcDbLine
 10
-191.4465299999999
 20
66.605
 30
0.0
 11
-191.125
 21
65.405
 31
0.0
  0
LINE
  5
281
330
1E
100
AcDbEntity
  8
0
  6
CONTINUOUS
 62
     7
100
AcDbLine
 10
-191.125
 20
65.405
 30
0.0
 11
-190.80346
 21
66.605
 31
0.0
  0
LINE
  5
282
330
1E
100
AcDbEntity
  8
0
  6
CONTINUOUS
 62
     1
100
AcDbLine
 10
-193.8656
 20
-86.45985000000001
 30
0.0
 11
-193.8656
 21
-33.70985
 31
0.0
  0
LINE
  5
283
330
1E
100
AcDbEntity
  8
0
  6
CONTINUOUS
 62
     1
100
AcDbLine
 10
-216.6155999999999
 20
-56.45985
 30
0.0
 11
-163.8656
 21
-56.45985
 31
0.0
  0
LINE
  5
284
330
1E
100
AcDbEntity
  8
0
  6
CONTINUOUS
 62
     7
100
AcDbLine
 10
-206.7922999999999
 20
-98.92125
 30
0.0
 11
-206.7922999999999
 21
-85.91965
 31
0.0
  0
LINE
  5
285
330
1E
100
AcDbEntity
  8
0
  6
CONTINUOUS
 62
     7
100
AcDbLine
 10
-206.47046
 20
-87.11899999999998
 30
0.0
 11
-206.7919999999999
 21
-85.919
 31
0.0
  0
LINE
  5
286
330
1E
100
AcDbEntity
  8
0
  6
CONTINUOUS
 62
     7
100
AcDbLine
 10
-206.7919999999999
 20
-85.919
 30
0.0
 11
-207.1135299999999
 21
-87.11899999999998
 31
0.0
  0
LINE
  5
287
330
1E
100
AcDbEntity
  8
0
  6
CONTINUOUS
 62
     7
100
AcDbLine
 10
-198.38715
 20
-98.95985000000001
 30
0.0
 11
-198.38715
 21
-86.45985000000001
 31
0.0
  0
LINE
  5
288
330
1E
100
AcDbEntity
  8
0
  6
CONTINUOUS
 62
     7
100
AcDbLine
 10
-198.06546
 20
-87.659
 30
0.0
 11
-198.3869999999999
 21
-86.45900000000002
 31
0.0
  0
LINE
  5
289
330
1E
100
AcDbEntity
  8
0
  6
CONTINUOUS
 62
     7
100
AcDbLine
 10
-198.3869999999999
 20
-86.45900000000002
 30
0.0
 11
-198.70853
 21
-87.659
 31
0.0
  0
LINE
  5
28A
330
1E
100
AcDbEntity
  8
0
  6
CONTINUOUS
 62
     7
100
AcDbLine
 10
-151.4076
 20
-43.48114999999999
 30
0.0
 11
-164.3693499999999
 21
-43.48114999999999
 31
0.0
  0
LINE
  5
28B
330
1E
100
AcDbEntity
  8
0
  6
CONTINUOUS
 62
     7
100
AcDbLine
 10
-163.1689999999998
 20
-43.15945999999999
 30
0.0
 11
-164.369
 21
-43.481
 31
0.0
  0
LINE
  5
28C
330
1E
100
AcDbEntity
  8
0
  6
CONTINUOUS
 62
     7
100
AcDbLine
 10
-164.369
 20
-43.481
 30
0.0
 11
-163.1689999999998
 21
-43.80252999999998
 31
0.0
  0
ARC
  5
28D
330
1E
100
AcDbEntity
  8
0
  6
CONTINUOUS
 62
     1
100
AcDbCircle
 10
-97.08300000000001
 20
-35.70985
 30
0.0
 40
1.5
100
AcDbArc
 50
90.0
 51
180.0
  0
LINE
  5
28E
330
1E
100
AcDbEntity
  8
0
  6
CONTINUOUS
 62
     1
100
AcDbLine
 10
-88.88299999999999
 20
63.3054
 30
0.0
 11
-88.88299999999999
 21
121.1554
 31
0.0
  0
LINE
  5
28F
330
1E
100
AcDbEntity
  8
0
  6
CONTINUOUS
 62
     7
100
AcDbLine
 10
-88.88299999999999
 20
95.87415
 30
0.0
 11
-98.883
 21
95.87415
 31
0.0
  0
LINE
  5
290
330
1E
100
AcDbEntity
  8
0
  6
CONTINUOUS
 62
     7
100
AcDbLine
 10
-97.68300000000001
 20
96.19553000000001
 30
0.0
 11
-98.883
 21
95.874
 31
0.0
  0
LINE
  5
291
330
1E
100
AcDbEntity
  8
0
  6
CONTINUOUS
 62
     7
100
AcDbLine
 10
-98.883
 20
95.874
 30
0.0
 11
-97.68300000000001
 21
95.55246
 31
0.0
  0
TEXT
  5
292
330
1E
100
AcDbEntity
  8
0
  6
CONTINUOUS
 62
     7
100
AcDbText
 10
-208.1970499999999
 20
44.02879999999998
 30
0.0
 40
3.2
  1
4×200=800
  7
BIGFONT
100
AcDbText
  0
LINE
  5
293
330
1E
100
AcDbEntity
  8
0
  6
CONTINUOUS
 62
     1
100
AcDbLine
 10
-163.8656
 20
-61.45985
 30
0.0
 11
-163.8656
 21
-33.70985
 31
0.0
  0
LINE
  5
294
330
1E
100
AcDbEntity
  8
0
  6
CONTINUOUS
 62
     7
100
AcDbLine
 10
-205.8695999999999
 20
71.2231
 30
0.0
 11
-215.8695999999999
 21
71.2231
 31
0.0
  0
LINE
  5
295
330
1E
100
AcDbEntity
  8
0
  6
CONTINUOUS
 62
     7
100
AcDbLine
 10
-214.6689999999999
 20
71.54453000000002
 30
0.0
 11
-215.8689999999999
 21
71.223
 31
0.0
  0
LINE
  5
296
330
1E
100
AcDbEntity
  8
0
  6
CONTINUOUS
 62
     7
100
AcDbLine
 10
-215.8689999999999
 20
71.223
 30
0.0
 11
-214.6689999999999
 21
70.90146
 31
0.0
  0
TEXT
  5
297
330
1E
100
AcDbEntity
  8
0
  6
CONTINUOUS
 62
     7
100
AcDbText
 10
-78.75379999999998
 20
-23.05239999999999
 30
0.0
 40
3.2
  1
4×200=800
  7
BIGFONT
100
AcDbText
  0
LINE
  5
298
330
1E
100
AcDbEntity
  8
0
  6
CONTINUOUS
 62
     7
100
AcDbLine
 10
-164.3677
 20
-43.48114999999999
 30
0.0
 11
-174.3656
 21
-43.48114999999999
 31
0.0
  0
LINE
  5
299
330
1E
100
AcDbEntity
  8
0
  6
CONTINUOUS
 62
     7
100
AcDbLine
 10
-173.1649999999999
 20
-43.15945999999999
 30
0.0
 11
-174.365
 21
-43.481
 31
0.0
  0
LINE
  5
29A
330
1E
100
AcDbEntity
  8
0
  6
CONTINUOUS
 62
     7
100
AcDbLine
 10
-174.365
 20
-43.481
 30
0.0
 11
-173.1649999999999
 21
-43.80252999999998
 31
0.0
  0
TEXT
  5
29B
330
1E
100
AcDbEntity
  8
0
  6
CONTINUOUS
 62
     7
100
AcDbText
 10
-197.0409
 20
-23.1083
 30
0.0
 40
3.2
  1
4×200=800
  7
BIGFONT
100
AcDbText
  0
CIRCLE
  5
29C
330
1E
100
AcDbEntity
  8
0
  6
CONTINUOUS
 62
     7
100
AcDbCircle
 10
188.7161499999999
 20
65.1819
 30
0.0
 40
0.75
  0
LINE
  5
29D
330
1E
100
AcDbEntity
  8
0
  6
CONTINUOUS
 62
     7
100
AcDbLine
 10
188.7161499999999
 20
63.1819
 30
0.0
 11
188.7161499999999
 21
67.18189999999998
 31
0.0
  0
LINE
  5
29E
330
1E
100
AcDbEntity
  8
0
  6
CONTINUOUS
 62
     7
100
AcDbLine
 10
186.7161499999999
 20
65.1819
 30
0.0
 11
190.7161499999999
 21
65.1819
 31
0.0
  0
LINE
  5
29F
330
1E
100
AcDbEntity
  8
0
  6
CONTINUOUS
 62
     7
100
AcDbLine
 10
201.56705
 20
61.1319
 30
0.0
 11
201.56705
 21
65.1819
 31
0.0
  0
LINE
  5
2A0
330
1E
100
AcDbEntity
  8
0
  6
CONTINUOUS
 62
     7
100
AcDbLine
 10
191.29165
 20
65.1819
 30
0.0
 11
202.36705
 21
65.1819
 31
0.0
  0
LINE
  5
2A1
330
1E
100
AcDbEntity
  8
0
  6
CONTINUOUS
 62
     7
100
AcDbLine
 10
197.5347499999999
 20
61.1319
 30
0.0
 11
202.36705
 21
61.1319
 31
0.0
  0
LINE
  5
2A2
330
1E
100
AcDbEntity
  8
0
  6
CONTINUOUS
 62
     7
100
AcDbLine
 10
201.56705
 20
67.5819
 30
0.0
 11
201.56705
 21
65.1819
 31
0.0
  0
LINE
  5
2A3
330
1E
100
AcDbEntity
  8
0
  6
CONTINUOUS
 62
     7
100
AcDbLine
 10
201.24546
 20
66.381
 30
0.0
 11
201.567
 21
65.181
 31
0.0
  0
LINE
  5
2A4
330
1E
100
AcDbEntity
  8
0
  6
CONTINUOUS
 62
     7
100
AcDbLine
 10
201.567
 20
65.181
 30
0.0
 11
201.8885299999999
 21
66.381
 31
0.0
  0
LINE
  5
2A5
330
1E
100
AcDbEntity
  8
0
  6
CONTINUOUS
 62
     7
100
AcDbLine
 10
201.56705
 20
61.1319
 30
0.0
 11
201.56705
 21
58.73190000000001
 31
0.0
  0
LINE
  5
2A6
330
1E
100
AcDbEntity
  8
0
  6
CONTINUOUS
 62
     7
100
AcDbLine
 10
201.8885299999999
 20
59.931
 30
0.0
 11
201.567
 21
61.131
 31
0.0
  0
LINE
  5
2A7
330
1E
100
AcDbEntity
  8
0
  6
CONTINUOUS
 62
     7
100
AcDbLine
 10
201.567
 20
61.131
 30
0.0
 11
201.24546
 21
59.931
 31
0.0
  0
LINE
  5
2A8
330
1E
100
AcDbEntity
  8
0
  6
CONTINUOUS
 62
     7
100
AcDbLine
 10
201.56705
 20
67.5819
 30
0.0
 11
201.56705
 21
73.7619
 31
0.0
  0
TEXT
  5
2A9
330
1E
100
AcDbEntity
  8
0
  6
CONTINUOUS
 62
     7
100
AcDbText
 10
201.16705
 20
68.56189999999999
 30
0.0
 40
3.2
  1
81
 50
90.0
 41
0.8125
  7
BIGFONT
100
AcDbText
  0
LINE
  5
2AA
330
1E
100
AcDbEntity
  8
0
  6
CONTINUOUS
 62
     7
100
AcDbLine
 10
-151.4076
 20
-51.1584
 30
0.0
 11
-163.8656
 21
-51.1584
 31
0.0
  0
LINE
  5
2AB
330
1E
100
AcDbEntity
  8
0
  6
CONTINUOUS
 62
     7
100
AcDbLine
 10
-162.6649999999998
 20
-50.83645999999998
 30
0.0
 11
-163.865
 21
-51.158
 31
0.0
  0
LINE
  5
2AC
330
1E
100
AcDbEntity
  8
0
  6
CONTINUOUS
 62
     7
100
AcDbLine
 10
-163.865
 20
-51.158
 30
0.0
 11
-162.6649999999998
 21
-51.47953
 31
0.0
  0
TEXT
  5
2AD
330
1E
100
AcDbEntity
  8
0
  6
CONTINUOUS
 62
     7
100
AcDbText
 10
182.9987999999999
 20
117.8886
 30
0.0
 40
3.2
  1
4-埋め込みインサート
  7
BIGFONT
100
AcDbText
  0
TEXT
  5
2AE
330
1E
100
AcDbEntity
  8
0
  6
CONTINUOUS
 62
     7
100
AcDbText
 10
183.3436499999999
 20
113.565
 30
0.0
 40
3.2
  1
W1/2
  7
BIGFONT
100
AcDbText
  0
LINE
  5
2AF
330
1E
100
AcDbEntity
  8
0
  6
CONTINUOUS
 62
     7
100
AcDbLine
 10
181.8202
 20
117.436
 30
0.0
 11
223.75
 21
117.436
 31
0.0
  0
LINE
  5
2B0
330
1E
100
AcDbEntity
  8
0
  6
CONTINUOUS
 62
     7
100
AcDbLine
 10
181.8202
 20
117.436
 30
0.0
 11
171.0822
 21
107.5987999999999
 31
0.0
  0
LINE
  5
2B1
330
1E
100
AcDbEntity
  8
0
  6
CONTINUOUS
 62
     7
100
AcDbLine
 10
171.74962
 20
108.6456899999999
 30
0.0
 11
171.082
 21
107.5979999999999
 31
0.0
  0
LINE
  5
2B2
330
1E
100
AcDbEntity
  8
0
  6
CONTINUOUS
 62
     7
100
AcDbLine
 10
171.082
 20
107.5979999999999
 30
0.0
 11
172.18403
 21
108.17151
 31
0.0
  0
CIRCLE
  5
2B3
330
1E
100
AcDbEntity
  8
0
  6
CONTINUOUS
 62
     7
100
AcDbCircle
 10
-93.7662
 20
-96.3917
 30
0.0
 40
2.5
  0
TEXT
  5
2B4
330
1E
100
AcDbEntity
  8
0
  6
CONTINUOUS
 62
     7
100
AcDbText
 10
-95.32415
 20
-97.98560000000001
 30
0.0
 40
3.2
  1
２
  7
BIGFONT
100
AcDbText
  0
TEXT
  5
2B5
330
1E
100
AcDbEntity
  8
0
  6
CONTINUOUS
 62
     7
100
AcDbText
 10
-90.5264
 20
-98.0549
 30
0.0
 40
3.2
  1
D10
  7
BIGFONT
100
AcDbText
  0
LINE
  5
2B6
330
1E
100
AcDbEntity
  8
0
  6
CONTINUOUS
 62
     7
100
AcDbLine
 10
-96.3274
 20
-98.92125
 30
0.0
 11
-81.3274
 21
-98.92125
 31
0.0
  0
CIRCLE
  5
2B7
330
1E
100
AcDbEntity
  8
0
  6
CONTINUOUS
 62
     7
100
AcDbCircle
 10
-36.44025
 20
-47.93285
 30
0.0
 40
2.5
  0
TEXT
  5
2B8
330
1E
100
AcDbEntity
  8
0
  6
CONTINUOUS
 62
     7
100
AcDbText
 10
-34.84635
 20
-49.4908
 30
0.0
 40
3.2
  1
２
 50
90.0
  7
BIGFONT
100
AcDbText
  0
TEXT
  5
2B9
330
1E
100
AcDbEntity
  8
0
  6
CONTINUOUS
 62
     7
100
AcDbText
 10
-34.77705
 20
-44.69305
 30
0.0
 40
3.2
  1
D10
 50
90.0
  7
BIGFONT
100
AcDbText
  0
LINE
  5
2BA
330
1E
100
AcDbEntity
  8
0
  6
CONTINUOUS
 62
     7
100
AcDbLine
 10
-33.9107
 20
-51.49405
 30
0.0
 11
-33.9107
 21
-36.49405
 31
0.0
  0
POINT
  5
2BB
330
1E
100
AcDbEntity
  8
0
  6
CONTINUOUS
 62
     1
100
AcDbPoint
 10
34.5331
 20
63.79005
 30
0.0
  0
LINE
  5
2BC
330
1E
100
AcDbEntity
  8
0
  6
CONTINUOUS
 62
     7
100
AcDbLine
 10
-73.825
 20
133.6319
 30
0.0
 11
-73.825
 21
121.1554
 31
0.0
  0
LINE
  5
2BD
330
1E
100
AcDbEntity
  8
0
  6
CONTINUOUS
 62
     7
100
AcDbLine
 10
-74.14653
 20
122.355
 30
0.0
 11
-73.825
 21
121.155
 31
0.0
  0
LINE
  5
2BE
330
1E
100
AcDbEntity
  8
0
  6
CONTINUOUS
 62
     7
100
AcDbLine
 10
-73.825
 20
121.155
 30
0.0
 11
-73.50346
 21
122.355
 31
0.0
  0
TEXT
  5
2BF
330
1E
100
AcDbEntity
  8
3
  6
CONTINUOUS
 62
     7
100
AcDbText
 10
244.207
 20
-156.4149999999998
 30
0.0
 40
3.799999999999998
  1
ＫＬ－３１０３
 41
0.7
  7
BIGFONT
100
AcDbText
  0
TEXT
  5
2C0
330
1E
100
AcDbEntity
  8
1
  6
CONTINUOUS
 62
     7
100
AcDbText
 10
-99.32168
 20
-177.6085399999999
 30
0.0
 40
3.2
  1
Ｌ
  7
BIGFONT
100
AcDbText
  0
TEXT
  5
2C1
330
1E
100
AcDbEntity
  8
1
  6
CONTINUOUS
 62
     7
100
AcDbText
 10
-96.31192
 20
-177.43246
 30
0.0
 40
2.2
  1
１
 41
1.1363636
  7
BIGFONT
100
AcDbText
  0
LINE
  5
2C2
330
1E
100
AcDbEntity
  8
1
  6
CONTINUOUS
 62
     1
100
AcDbLine
 10
-105.1961799999999
 20
-170.22568
 30
0.0
 11
-88.59618000000002
 21
-170.22568
 31
0.0
  0
LINE
  5
2C3
330
1E
100
AcDbEntity
  8
1
  6
CONTINUOUS
 62
     7
100
AcDbLine
 10
-105.1961799999999
 20
-178.22538
 30
0.0
 11
-88.59618000000002
 21
-178.22538
 31
0.0
  0
LINE
  5
2C4
330
1E
100
AcDbEntity
  8
1
  6
CONTINUOUS
 62
     7
100
AcDbLine
 10
-88.59618000000002
 20
-171.22568
 30
0.0
 11
-88.59618000000002
 21
-179.02538
 31
0.0
  0
LINE
  5
2C5
330
1E
100
AcDbEntity
  8
1
  6
CONTINUOUS
 62
     7
100
AcDbLine
 10
-105.1961799999999
 20
-171.22568
 30
0.0
 11
-105.1961799999999
 21
-179.02538
 31
0.0
  0
LINE
  5
2C6
330
1E
100
AcDbEntity
  8
1
  6
CONTINUOUS
 62
     7
100
AcDbLine
 10
-89.79600000000003
 20
-178.54653
 30
0.0
 11
-88.596
 21
-178.2249999999999
 31
0.0
  0
LINE
  5
2C7
330
1E
100
AcDbEntity
  8
1
  6
CONTINUOUS
 62
     7
100
AcDbLine
 10
-88.596
 20
-178.2249999999999
 30
0.0
 11
-89.79600000000003
 21
-177.9034599999999
 31
0.0
  0
LINE
  5
2C8
330
1E
100
AcDbEntity
  8
1
  6
CONTINUOUS
 62
     7
100
AcDbLine
 10
-103.9959999999999
 20
-177.9034599999999
 30
0.0
 11
-105.196
 21
-178.2249999999999
 31
0.0
  0
LINE
  5
2C9
330
1E
100
AcDbEntity
  8
1
  6
CONTINUOUS
 62
     7
100
AcDbLine
 10
-105.196
 20
-178.2249999999999
 30
0.0
 11
-103.9959999999999
 21
-178.54653
 31
0.0
  0
CIRCLE
  5
2CA
330
1E
100
AcDbEntity
  8
1
  6
CONTINUOUS
 62
     7
100
AcDbCircle
 10
-96.77414
 20
-161.58312
 30
0.0
 40
2.497799999999998
  0
TEXT
  5
2CB
330
1E
100
AcDbEntity
  8
1
  6
CONTINUOUS
 62
     7
100
AcDbText
 10
-98.47718
 20
-163.4285
 30
0.0
 40
3.2
  1
７
  7
BIGFONT
100
AcDbText
  0
LINE
  5
2CC
330
1E
100
AcDbEntity
  8
1
  6
CONTINUOUS
 62
     7
100
AcDbLine
 10
-101.97164
 20
-164.0506799999999
 30
0.0
 11
-91.44781999999999
 21
-164.0506799999999
 31
0.0
  0
TEXT
  5
2CD
330
1E
100
AcDbEntity
  8
1
  6
CONTINUOUS
 62
     7
100
AcDbText
 10
-196.3604108762038
 20
-135.9211399999999
 30
0.0
 40
4.5
  1
鉄筋加工図
  7
BIGFONT
100
AcDbText
  0
LINE
  5
2CE
330
1E
100
AcDbEntity
  8
1
  6
CONTINUOUS
 62
     7
100
AcDbLine
 10
-201.4893999999999
 20
-136.72824
 30
0.0
 11
-165.20558
 21
-136.72824
 31
0.0
  0
LINE
  5
2CF
330
1E
100
AcDbEntity
  8
1
  6
CONTINUOUS
 62
     7
100
AcDbLine
 10
-173.2055799999999
 20
-136.72824
 30
0.0
 11
-172.49698
 21
-136.72824
 31
0.0
  0
LINE
  5
2D0
330
1E
100
AcDbEntity
  8
1
  6
CONTINUOUS
 62
     1
100
AcDbLine
 10
-234.3003399999999
 20
-170.22568
 30
0.0
 11
-224.97632
 21
-170.22568
 31
0.0
  0
LINE
  5
2D1
330
1E
100
AcDbEntity
  8
1
  6
CONTINUOUS
 62
     7
100
AcDbLine
 10
-234.3003399999999
 20
-178.19304
 30
0.0
 11
-224.97632
 21
-178.19304
 31
0.0
  0
LINE
  5
2D2
330
1E
100
AcDbEntity
  8
1
  6
CONTINUOUS
 62
     7
100
AcDbLine
 10
-224.97632
 20
-171.22568
 30
0.0
 11
-224.97632
 21
-178.9930399999999
 31
0.0
  0
LINE
  5
2D3
330
1E
100
AcDbEntity
  8
1
  6
CONTINUOUS
 62
     7
100
AcDbLine
 10
-234.3003399999999
 20
-170.5500999999999
 30
0.0
 11
-234.3003399999999
 21
-178.9930399999999
 31
0.0
  0
LINE
  5
2D4
330
1E
100
AcDbEntity
  8
1
  6
CONTINUOUS
 62
     7
100
AcDbLine
 10
-226.1759999999999
 20
-178.51453
 30
0.0
 11
-224.976
 21
-178.1929999999999
 31
0.0
  0
LINE
  5
2D5
330
1E
100
AcDbEntity
  8
1
  6
CONTINUOUS
 62
     7
100
AcDbLine
 10
-224.976
 20
-178.1929999999999
 30
0.0
 11
-226.1759999999999
 21
-177.87146
 31
0.0
  0
LINE
  5
2D6
330
1E
100
AcDbEntity
  8
1
  6
CONTINUOUS
 62
     7
100
AcDbLine
 10
-233.0999999999999
 20
-177.87146
 30
0.0
 11
-234.2999999999999
 21
-178.1929999999999
 31
0.0
  0
LINE
  5
2D7
330
1E
100
AcDbEntity
  8
1
  6
CONTINUOUS
 62
     7
100
AcDbLine
 10
-234.2999999999999
 20
-178.1929999999999
 30
0.0
 11
-233.0999999999999
 21
-178.51453
 31
0.0
  0
LINE
  5
2D8
330
1E
100
AcDbEntity
  8
1
  6
CONTINUOUS
 62
     1
100
AcDbLine
 10
-203.80034
 20
-170.22568
 30
0.0
 11
-169.8003399999999
 21
-170.22568
 31
0.0
  0
LINE
  5
2D9
330
1E
100
AcDbEntity
  8
1
  6
CONTINUOUS
 62
     7
100
AcDbLine
 10
-203.80034
 20
-178.19526
 30
0.0
 11
-169.8003399999999
 21
-178.19526
 31
0.0
  0
LINE
  5
2DA
330
1E
100
AcDbEntity
  8
1
  6
CONTINUOUS
 62
     7
100
AcDbLine
 10
-169.8003399999999
 20
-171.22568
 30
0.0
 11
-169.8003399999999
 21
-178.99526
 31
0.0
  0
LINE
  5
2DB
330
1E
100
AcDbEntity
  8
1
  6
CONTINUOUS
 62
     7
100
AcDbLine
 10
-203.80034
 20
-170.5500999999999
 30
0.0
 11
-203.80034
 21
-178.99526
 31
0.0
  0
LINE
  5
2DC
330
1E
100
AcDbEntity
  8
1
  6
CONTINUOUS
 62
     7
100
AcDbLine
 10
-171.0
 20
-178.51653
 30
0.0
 11
-169.8
 21
-178.1949999999999
 31
0.0
  0
LINE
  5
2DD
330
1E
100
AcDbEntity
  8
1
  6
CONTINUOUS
 62
     7
100
AcDbLine
 10
-169.8
 20
-178.1949999999999
 30
0.0
 11
-171.0
 21
-177.87346
 31
0.0
  0
LINE
  5
2DE
330
1E
100
AcDbEntity
  8
1
  6
CONTINUOUS
 62
     7
100
AcDbLine
 10
-202.5999999999999
 20
-177.87346
 30
0.0
 11
-203.8
 21
-178.1949999999999
 31
0.0
  0
LINE
  5
2DF
330
1E
100
AcDbEntity
  8
1
  6
CONTINUOUS
 62
     7
100
AcDbLine
 10
-203.8
 20
-178.1949999999999
 30
0.0
 11
-202.5999999999999
 21
-178.51653
 31
0.0
  0
LINE
  5
2E0
330
1E
100
AcDbEntity
  8
1
  6
CONTINUOUS
 62
     1
100
AcDbLine
 10
-148.6952999999999
 20
-170.22568
 30
0.0
 11
-121.2952999999999
 21
-170.22568
 31
0.0
  0
LINE
  5
2E1
330
1E
100
AcDbEntity
  8
1
  6
CONTINUOUS
 62
     1
100
AcDbLine
 10
-149.2952999999999
 20
-169.62568
 30
0.0
 11
-149.2952999999999
 21
-145.22568
 31
0.0
  0
ARC
  5
2E2
330
1E
100
AcDbEntity
  8
1
  6
CONTINUOUS
 62
     1
100
AcDbCircle
 10
-148.6952999999999
 20
-169.62568
 30
0.0
 40
0.6
100
AcDbArc
 50
180.0
 51
270.0
  0
LINE
  5
2E3
330
1E
100
AcDbEntity
  8
1
  6
CONTINUOUS
 62
     7
100
AcDbLine
 10
-148.79696
 20
-178.19526
 30
0.0
 11
-121.2952999999999
 21
-178.19526
 31
0.0
  0
LINE
  5
2E4
330
1E
100
AcDbEntity
  8
1
  6
CONTINUOUS
 62
     7
100
AcDbLine
 10
-121.2952999999999
 20
-171.22568
 30
0.0
 11
-121.2952999999999
 21
-178.99526
 31
0.0
  0
LINE
  5
2E5
330
1E
100
AcDbEntity
  8
1
  6
CONTINUOUS
 62
     7
100
AcDbLine
 10
-148.79696
 20
-170.6079799999999
 30
0.0
 11
-148.79696
 21
-178.99526
 31
0.0
  0
LINE
  5
2E6
330
1E
100
AcDbEntity
  8
1
  6
CONTINUOUS
 62
     7
100
AcDbLine
 10
-122.4949999999999
 20
-178.51653
 30
0.0
 11
-121.2949999999999
 21
-178.1949999999999
 31
0.0
  0
LINE
  5
2E7
330
1E
100
AcDbEntity
  8
1
  6
CONTINUOUS
 62
     7
100
AcDbLine
 10
-121.2949999999999
 20
-178.1949999999999
 30
0.0
 11
-122.4949999999999
 21
-177.87346
 31
0.0
  0
LINE
  5
2E8
330
1E
100
AcDbEntity
  8
1
  6
CONTINUOUS
 62
     7
100
AcDbLine
 10
-147.596
 20
-177.87346
 30
0.0
 11
-148.7959999999999
 21
-178.1949999999999
 31
0.0
  0
LINE
  5
2E9
330
1E
100
AcDbEntity
  8
1
  6
CONTINUOUS
 62
     7
100
AcDbLine
 10
-148.7959999999999
 20
-178.1949999999999
 30
0.0
 11
-147.596
 21
-178.51653
 31
0.0
  0
LINE
  5
2EA
330
1E
100
AcDbEntity
  8
1
  6
CONTINUOUS
 62
     7
100
AcDbLine
 10
-157.3722199999999
 20
-169.62568
 30
0.0
 11
-157.3722199999999
 21
-145.22568
 31
0.0
  0
LINE
  5
2EB
330
1E
100
AcDbEntity
  8
1
  6
CONTINUOUS
 62
     7
100
AcDbLine
 10
-150.37222
 20
-145.22568
 30
0.0
 11
-158.1722199999999
 21
-145.22568
 31
0.0
  0
LINE
  5
2EC
330
1E
100
AcDbEntity
  8
1
  6
CONTINUOUS
 62
     7
100
AcDbLine
 10
-150.37222
 20
-169.62568
 30
0.0
 11
-158.1722199999999
 21
-169.62568
 31
0.0
  0
LINE
  5
2ED
330
1E
100
AcDbEntity
  8
1
  6
CONTINUOUS
 62
     7
100
AcDbLine
 10
-157.05046
 20
-146.425
 30
0.0
 11
-157.372
 21
-145.225
 31
0.0
  0
LINE
  5
2EE
330
1E
100
AcDbEntity
  8
1
  6
CONTINUOUS
 62
     7
100
AcDbLine
 10
-157.372
 20
-145.225
 30
0.0
 11
-157.69353
 21
-146.425
 31
0.0
  0
LINE
  5
2EF
330
1E
100
AcDbEntity
  8
1
  6
CONTINUOUS
 62
     7
100
AcDbLine
 10
-157.69353
 20
-168.425
 30
0.0
 11
-157.372
 21
-169.625
 31
0.0
  0
LINE
  5
2F0
330
1E
100
AcDbEntity
  8
1
  6
CONTINUOUS
 62
     7
100
AcDbLine
 10
-157.372
 20
-169.625
 30
0.0
 11
-157.05046
 21
-168.425
 31
0.0
  0
ARC
  5
2F1
330
1E
100
AcDbEntity
  8
1
  6
CONTINUOUS
 62
     7
100
AcDbCircle
 10
-148.79696
 20
-169.62568
 30
0.0
 40
8.57526
100
AcDbArc
 50
191.5780499999999
 51
238.71324
  0
ARC
  5
2F2
330
1E
100
AcDbEntity
  8
1
  6
CONTINUOUS
 62
     7
100
AcDbCircle
 10
-148.79696
 20
-169.62568
 30
0.0
 40
8.57526
100
AcDbArc
 50
238.71324
 51
246.3633899999999
  0
LINE
  5
2F3
330
1E
100
AcDbEntity
  8
1
  6
CONTINUOUS
 62
     7
100
AcDbLine
 10
-148.79696
 20
-177.3784
 30
0.0
 11
-148.79696
 21
-175.59518
 31
0.0
  0
ARC
  5
2F4
330
1E
100
AcDbEntity
  8
1
  6
CONTINUOUS
 62
     7
100
AcDbCircle
 10
-148.79696
 20
-169.62568
 30
0.0
 40
8.57526
100
AcDbArc
 50
246.3633899999999
 51
247.8281799999999
  0
ARC
  5
2F5
330
1E
100
AcDbEntity
  8
1
  6
CONTINUOUS
 62
     7
100
AcDbCircle
 10
-148.79696
 20
-169.62568
 30
0.0
 40
8.57526
100
AcDbArc
 50
247.8281799999999
 51
258.01527
  0
LINE
  5
2F6
330
1E
100
AcDbEntity
  8
1
  6
CONTINUOUS
 62
     7
100
AcDbLine
 10
-157.2136199999999
 20
-171.2672799999999
 30
0.0
 11
-157.3722199999999
 21
-169.62568
 31
0.0
  0
LINE
  5
2F7
330
1E
100
AcDbEntity
  8
1
  6
CONTINUOUS
 62
     7
100
AcDbLine
 10
-156.93655
 20
-170.78851
 30
0.0
 11
-157.372
 21
-169.625
 31
0.0
  0
LINE
  5
2F8
330
1E
100
AcDbEntity
  8
1
  6
CONTINUOUS
 62
     7
100
AcDbLine
 10
-157.372
 20
-169.625
 30
0.0
 11
-157.57665
 21
-170.8503499999999
 31
0.0
  0
LINE
  5
2F9
330
1E
100
AcDbEntity
  8
1
  6
CONTINUOUS
 62
     7
100
AcDbLine
 10
-150.50936
 20
-178.02822
 30
0.0
 11
-148.79696
 21
-178.2009399999999
 31
0.0
  0
LINE
  5
2FA
330
1E
100
AcDbEntity
  8
1
  6
CONTINUOUS
 62
     7
100
AcDbLine
 10
-150.02221
 20
-178.39948
 30
0.0
 11
-148.7959999999999
 21
-178.2
 31
0.0
  0
LINE
  5
2FB
330
1E
100
AcDbEntity
  8
1
  6
CONTINUOUS
 62
     7
100
AcDbLine
 10
-148.7959999999999
 20
-178.2
 30
0.0
 11
-149.95767
 21
-177.75965
 31
0.0
  0
ARC
  5
2FC
330
1E
100
AcDbEntity
  8
1
  6
CONTINUOUS
 62
     7
100
AcDbCircle
 10
-148.79696
 20
-169.62568
 30
0.0
 40
8.57526
100
AcDbArc
 50
258.01527
 51
258.41701
  0
LINE
  5
2FD
330
1E
100
AcDbEntity
  8
1
  6
CONTINUOUS
 62
     7
100
AcDbLine
 10
-148.79696
 20
-178.02348
 30
0.0
 11
-148.79696
 21
-177.3784
 31
0.0
  0
LINE
  5
2FE
330
1E
100
AcDbEntity
  8
1
  6
CONTINUOUS
 62
     7
100
AcDbLine
 10
-157.3722199999999
 20
-169.62568
 30
0.0
 11
-157.3722199999999
 21
-165.2703199999999
 31
0.0
  0
ARC
  5
2FF
330
1E
100
AcDbEntity
  8
1
  6
CONTINUOUS
 62
     7
100
AcDbCircle
 10
-148.79696
 20
-169.62568
 30
0.0
 40
8.57526
100
AcDbArc
 50
191.0231699999999
 51
191.5780499999999
  0
LINE
  5
300
330
1E
100
AcDbEntity
  8
1
  6
CONTINUOUS
 62
     7
100
AcDbLine
 10
-148.79696
 20
-171.9418399999999
 30
0.0
 11
-148.79696
 21
-169.62568
 31
0.0
  0
LINE
  5
301
330
1E
100
AcDbEntity
  8
1
  6
CONTINUOUS
 62
     7
100
AcDbLine
 10
-151.3545399999999
 20
-169.62568
 30
0.0
 11
-148.79696
 21
-169.62568
 31
0.0
  0
LINE
  5
302
330
1E
100
AcDbEntity
  8
1
  6
CONTINUOUS
 62
     1
100
AcDbLine
 10
-91.44974000000001
 20
-143.8186199999998
 30
0.0
 11
-88.62132
 21
-140.9901999999999
 31
0.0
  0
LINE
  5
303
330
1E
100
AcDbEntity
  8
1
  6
CONTINUOUS
 62
     1
100
AcDbLine
 10
-101.44972
 20
-143.8186199999998
 30
0.0
 11
-91.44974000000001
 21
-143.8186199999998
 31
0.0
  0
LINE
  5
304
330
1E
100
AcDbEntity
  8
1
  6
CONTINUOUS
 62
     1
100
AcDbLine
 10
-104.27816
 20
-140.9901999999999
 30
0.0
 11
-101.44972
 21
-143.8186199999998
 31
0.0
  0
LINE
  5
305
330
1E
100
AcDbEntity
  8
1
  6
CONTINUOUS
 62
     7
100
AcDbLine
 10
-109.9350199999999
 20
-146.64706
 30
0.0
 11
-107.10659
 21
-149.4754899999998
 31
0.0
  0
LINE
  5
306
330
1E
100
AcDbEntity
  8
1
  6
CONTINUOUS
 62
     7
100
AcDbLine
 10
-102.1568199999999
 20
-144.52572
 30
0.0
 11
-107.6722699999999
 21
-150.0411699999999
 31
0.0
  0
LINE
  5
307
330
1E
100
AcDbEntity
  8
1
  6
CONTINUOUS
 62
     7
100
AcDbLine
 10
-104.98526
 20
-141.6973
 30
0.0
 11
-110.5007
 21
-147.2127399999999
 31
0.0
  0
LINE
  5
308
330
1E
100
AcDbEntity
  8
1
  6
CONTINUOUS
 62
     7
100
AcDbLine
 10
-108.18189
 20
-148.85383
 30
0.0
 11
-107.1059999999999
 21
-149.4749999999999
 31
0.0
  0
LINE
  5
309
330
1E
100
AcDbEntity
  8
1
  6
CONTINUOUS
 62
     7
100
AcDbLine
 10
-107.1059999999999
 20
-149.4749999999999
 30
0.0
 11
-107.72716
 21
-148.3991
 31
0.0
  0
LINE
  5
30A
330
1E
100
AcDbEntity
  8
1
  6
CONTINUOUS
 62
     7
100
AcDbLine
 10
-108.8591
 20
-147.26816
 30
0.0
 11
-109.935
 21
-146.6469999999999
 31
0.0
  0
LINE
  5
30B
330
1E
100
AcDbEntity
  8
1
  6
CONTINUOUS
 62
     7
100
AcDbLine
 10
-109.935
 20
-146.6469999999999
 30
0.0
 11
-109.31383
 21
-147.7228899999999
 31
0.0
  0
LINE
  5
30C
330
1E
100
AcDbEntity
  8
1
  6
CONTINUOUS
 62
     7
100
AcDbLine
 10
-85.8144
 20
-149.45396
 30
0.0
 11
-82.98598
 21
-146.62554
 31
0.0
  0
LINE
  5
30D
330
1E
100
AcDbEntity
  8
1
  6
CONTINUOUS
 62
     7
100
AcDbLine
 10
-87.91420999999997
 20
-141.6973
 30
0.0
 11
-82.42029
 21
-147.19122
 31
0.0
  0
LINE
  5
30E
330
1E
100
AcDbEntity
  8
1
  6
CONTINUOUS
 62
     7
100
AcDbLine
 10
-90.74263
 20
-144.52572
 30
0.0
 11
-85.24871
 21
-150.0196399999999
 31
0.0
  0
LINE
  5
30F
330
1E
100
AcDbEntity
  8
1
  6
CONTINUOUS
 62
     7
100
AcDbLine
 10
-83.60616
 20
-147.7008899999999
 30
0.0
 11
-82.985
 21
-146.625
 31
0.0
  0
LINE
  5
310
330
1E
100
AcDbEntity
  8
1
  6
CONTINUOUS
 62
     7
100
AcDbLine
 10
-82.985
 20
-146.625
 30
0.0
 11
-84.06088999999999
 21
-147.24616
 31
0.0
  0
LINE
  5
311
330
1E
100
AcDbEntity
  8
1
  6
CONTINUOUS
 62
     7
100
AcDbLine
 10
-85.19282999999999
 20
-148.3771
 30
0.0
 11
-85.814
 21
-149.453
 31
0.0
  0
LINE
  5
312
330
1E
100
AcDbEntity
  8
1
  6
CONTINUOUS
 62
     7
100
AcDbLine
 10
-85.814
 20
-149.453
 30
0.0
 11
-84.7381
 21
-148.8318299999999
 31
0.0
  0
LINE
  5
313
330
1E
100
AcDbEntity
  8
1
  6
CONTINUOUS
 62
     7
100
AcDbLine
 10
-101.44972
 20
-151.8186399999999
 30
0.0
 11
-91.44974000000001
 21
-151.8186399999999
 31
0.0
  0
LINE
  5
314
330
1E
100
AcDbEntity
  8
1
  6
CONTINUOUS
 62
     7
100
AcDbLine
 10
-91.44974000000001
 20
-144.8186199999998
 30
0.0
 11
-91.44974000000001
 21
-152.61864
 31
0.0
  0
LINE
  5
315
330
1E
100
AcDbEntity
  8
1
  6
CONTINUOUS
 62
     7
100
AcDbLine
 10
-101.44972
 20
-144.8186199999998
 30
0.0
 11
-101.44972
 21
-152.61864
 31
0.0
  0
LINE
  5
316
330
1E
100
AcDbEntity
  8
1
  6
CONTINUOUS
 62
     7
100
AcDbLine
 10
-92.649
 20
-152.13953
 30
0.0
 11
-91.44899999999999
 21
-151.8179999999999
 31
0.0
  0
LINE
  5
317
330
1E
100
AcDbEntity
  8
1
  6
CONTINUOUS
 62
     7
100
AcDbLine
 10
-91.44899999999999
 20
-151.8179999999999
 30
0.0
 11
-92.649
 21
-151.49646
 31
0.0
  0
LINE
  5
318
330
1E
100
AcDbEntity
  8
1
  6
CONTINUOUS
 62
     7
100
AcDbLine
 10
-100.2489999999999
 20
-151.49646
 30
0.0
 11
-101.4489999999999
 21
-151.8179999999999
 31
0.0
  0
LINE
  5
319
330
1E
100
AcDbEntity
  8
1
  6
CONTINUOUS
 62
     7
100
AcDbLine
 10
-101.4489999999999
 20
-151.8179999999999
 30
0.0
 11
-100.2489999999999
 21
-152.13953
 31
0.0
  0
TEXT
  5
31A
330
1E
100
AcDbEntity
  8
1
  6
CONTINUOUS
 62
     7
100
AcDbText
 10
-233.9748799999999
 20
-169.9282399999999
 30
0.0
 40
3.2
  1
Ｒ
 50
2.0
  7
BIGFONT
100
AcDbText
  0
TEXT
  5
31B
330
1E
100
AcDbEntity
  8
1
  6
CONTINUOUS
 62
     7
100
AcDbText
 10
-148.4715
 20
-170.0038199999999
 30
0.0
 40
3.2
  1
Ｒ
 50
2.0
  7
BIGFONT
100
AcDbText
  0
TEXT
  5
31C
330
1E
100
AcDbEntity
  8
1
  6
CONTINUOUS
 62
     7
100
AcDbText
 10
-189.2769
 20
-177.5564199999999
 30
0.0
 40
3.2
  1
Ｌ
  7
BIGFONT
100
AcDbText
  0
TEXT
  5
31D
330
1E
100
AcDbEntity
  8
1
  6
CONTINUOUS
 62
     7
100
AcDbText
 10
-186.2671399999999
 20
-177.38034
 30
0.0
 40
2.2
  1
１
 41
1.1363636
  7
BIGFONT
100
AcDbText
  0
TEXT
  5
31E
330
1E
100
AcDbEntity
  8
1
  6
CONTINUOUS
 62
     7
100
AcDbText
 10
-232.1170799999999
 20
-177.5927
 30
0.0
 40
3.2
  1
Ｌ
  7
BIGFONT
100
AcDbText
  0
TEXT
  5
31F
330
1E
100
AcDbEntity
  8
1
  6
CONTINUOUS
 62
     7
100
AcDbText
 10
-229.1862399999998
 20
-177.42398
 30
0.0
 40
2.2
  1
３
 41
1.1363636
  7
BIGFONT
100
AcDbText
  0
TEXT
  5
320
330
1E
100
AcDbEntity
  8
1
  6
CONTINUOUS
 62
     7
100
AcDbText
 10
-156.27476
 20
-173.23146
 30
0.0
 40
3.2
  1
Ｌ
 50
315.0
  7
BIGFONT
100
AcDbText
  0
TEXT
  5
321
330
1E
100
AcDbEntity
  8
1
  6
CONTINUOUS
 62
     7
100
AcDbText
 10
-154.07324
 20
-175.1961399999999
 30
0.0
 40
2.2
  1
２
 50
315.0
 41
1.1363636
  7
BIGFONT
100
AcDbText
  0
TEXT
  5
322
330
1E
100
AcDbEntity
  8
1
  6
CONTINUOUS
 62
     7
100
AcDbText
 10
-137.23336
 20
-177.5784199999999
 30
0.0
 40
3.2
  1
Ｌ
  7
BIGFONT
100
AcDbText
  0
TEXT
  5
323
330
1E
100
AcDbEntity
  8
1
  6
CONTINUOUS
 62
     7
100
AcDbText
 10
-134.2235999999997
 20
-177.4023399999999
 30
0.0
 40
2.2
  1
１
 41
1.1363636
  7
BIGFONT
100
AcDbText
  0
TEXT
  5
324
330
1E
100
AcDbEntity
  8
1
  6
CONTINUOUS
 62
     7
100
AcDbText
 10
-157.8186
 20
-160.5283
 30
0.0
 40
3.2
  1
Ｌ
 50
90.0
  7
BIGFONT
100
AcDbText
  0
TEXT
  5
325
330
1E
100
AcDbEntity
  8
1
  6
CONTINUOUS
 62
     7
100
AcDbText
 10
-157.9873199999999
 20
-157.59746
 30
0.0
 40
2.2
  1
３
 50
90.0
 41
1.1363636
  7
BIGFONT
100
AcDbText
  0
TEXT
  5
326
330
1E
100
AcDbEntity
  8
1
  6
CONTINUOUS
 62
     7
100
AcDbText
 10
-99.36292000000001
 20
-151.35606
 30
0.0
 40
3.2
  1
Ｌ
  7
BIGFONT
100
AcDbText
  0
TEXT
  5
327
330
1E
100
AcDbEntity
  8
1
  6
CONTINUOUS
 62
     7
100
AcDbText
 10
-96.41697999999999
 20
-151.1885799999999
 30
0.0
 40
2.2
  1
２
 41
1.1363636
  7
BIGFONT
100
AcDbText
  0
TEXT
  5
328
330
1E
100
AcDbEntity
  8
1
  6
CONTINUOUS
 62
     7
100
AcDbText
 10
-83.18828000000001
 20
-152.55478
 30
0.0
 40
3.2
  1
Ｌ
 50
45.0
  7
BIGFONT
100
AcDbText
  0
TEXT
  5
329
330
1E
100
AcDbEntity
  8
1
  6
CONTINUOUS
 62
     7
100
AcDbText
 10
-81.18456
 20
-150.30206
 30
0.0
 40
2.2
  1
１
 50
45.0
 41
1.1363636
  7
BIGFONT
100
AcDbText
  0
LINE
  5
32A
330
1E
100
AcDbEntity
  8
1
  6
CONTINUOUS
 62
     1
100
AcDbLine
 10
-234.79868
 20
-169.62568
 30
0.0
 11
-234.79868
 21
-136.32568
 31
0.0
  0
ARC
  5
32B
330
1E
100
AcDbEntity
  8
1
  6
CONTINUOUS
 62
     1
100
AcDbCircle
 10
-234.1986799999999
 20
-169.62568
 30
0.0
 40
0.6
100
AcDbArc
 50
180.0
 51
270.0
  0
LINE
  5
32C
330
1E
100
AcDbEntity
  8
1
  6
CONTINUOUS
 62
     7
100
AcDbLine
 10
-242.8755999999999
 20
-169.62568
 30
0.0
 11
-242.8755999999999
 21
-136.32568
 31
0.0
  0
LINE
  5
32D
330
1E
100
AcDbEntity
  8
1
  6
CONTINUOUS
 62
     7
100
AcDbLine
 10
-235.8756
 20
-136.32568
 30
0.0
 11
-243.6755999999999
 21
-136.32568
 31
0.0
  0
LINE
  5
32E
330
1E
100
AcDbEntity
  8
1
  6
CONTINUOUS
 62
     7
100
AcDbLine
 10
-235.8756
 20
-169.62568
 30
0.0
 11
-243.6755999999999
 21
-169.62568
 31
0.0
  0
LINE
  5
32F
330
1E
100
AcDbEntity
  8
1
  6
CONTINUOUS
 62
     7
100
AcDbLine
 10
-242.55346
 20
-137.525
 30
0.0
 11
-242.8749999999999
 21
-136.3249999999997
 31
0.0
  0
LINE
  5
330
330
1E
100
AcDbEntity
  8
1
  6
CONTINUOUS
 62
     7
100
AcDbLine
 10
-242.8749999999999
 20
-136.3249999999997
 30
0.0
 11
-243.1965299999998
 21
-137.525
 31
0.0
  0
LINE
  5
331
330
1E
100
AcDbEntity
  8
1
  6
CONTINUOUS
 62
     7
100
AcDbLine
 10
-243.1965299999998
 20
-168.425
 30
0.0
 11
-242.8749999999999
 21
-169.625
 31
0.0
  0
LINE
  5
332
330
1E
100
AcDbEntity
  8
1
  6
CONTINUOUS
 62
     7
100
AcDbLine
 10
-242.8749999999999
 20
-169.625
 30
0.0
 11
-242.55346
 21
-168.425
 31
0.0
  0
ARC
  5
333
330
1E
100
AcDbEntity
  8
1
  6
CONTINUOUS
 62
     7
100
AcDbCircle
 10
-234.3003399999999
 20
-169.62568
 30
0.0
 40
8.57526
100
AcDbArc
 50
191.5780499999999
 51
238.71324
  0
ARC
  5
334
330
1E
100
AcDbEntity
  8
1
  6
CONTINUOUS
 62
     7
100
AcDbCircle
 10
-234.3003399999999
 20
-169.62568
 30
0.0
 40
8.57526
100
AcDbArc
 50
238.71324
 51
246.3633899999999
  0
ARC
  5
335
330
1E
100
AcDbEntity
  8
1
  6
CONTINUOUS
 62
     7
100
AcDbCircle
 10
-234.3003399999999
 20
-169.62568
 30
0.0
 40
8.57526
100
AcDbArc
 50
246.3633899999999
 51
247.8281799999999
  0
ARC
  5
336
330
1E
100
AcDbEntity
  8
1
  6
CONTINUOUS
 62
     7
100
AcDbCircle
 10
-234.3003399999999
 20
-169.62568
 30
0.0
 40
8.57526
100
AcDbArc
 50
247.8281799999999
 51
258.01527
  0
LINE
  5
337
330
1E
100
AcDbEntity
  8
1
  6
CONTINUOUS
 62
     7
100
AcDbLine
 10
-242.717
 20
-171.2672799999999
 30
0.0
 11
-242.8755999999999
 21
-169.62568
 31
0.0
  0
LINE
  5
338
330
1E
100
AcDbEntity
  8
1
  6
CONTINUOUS
 62
     7
100
AcDbLine
 10
-242.43955
 20
-170.78851
 30
0.0
 11
-242.8749999999999
 21
-169.625
 31
0.0
  0
LINE
  5
339
330
1E
100
AcDbEntity
  8
1
  6
CONTINUOUS
 62
     7
100
AcDbLine
 10
-242.8749999999999
 20
-169.625
 30
0.0
 11
-243.07965
 21
-170.8503499999999
 31
0.0
  0
LINE
  5
33A
330
1E
100
AcDbEntity
  8
1
  6
CONTINUOUS
 62
     7
100
AcDbLine
 10
-236.0127399999999
 20
-178.02822
 30
0.0
 11
-234.3003399999999
 21
-178.2009399999999
 31
0.0
  0
LINE
  5
33B
330
1E
100
AcDbEntity
  8
1
  6
CONTINUOUS
 62
     7
100
AcDbLine
 10
-235.52621
 20
-178.39948
 30
0.0
 11
-234.2999999999999
 21
-178.2
 31
0.0
  0
LINE
  5
33C
330
1E
100
AcDbEntity
  8
1
  6
CONTINUOUS
 62
     7
100
AcDbLine
 10
-234.2999999999999
 20
-178.2
 30
0.0
 11
-235.46167
 21
-177.75965
 31
0.0
  0
ARC
  5
33D
330
1E
100
AcDbEntity
  8
1
  6
CONTINUOUS
 62
     7
100
AcDbCircle
 10
-234.3003399999999
 20
-169.62568
 30
0.0
 40
8.57526
100
AcDbArc
 50
258.01527
 51
258.41701
  0
LINE
  5
33E
330
1E
100
AcDbEntity
  8
1
  6
CONTINUOUS
 62
     7
100
AcDbLine
 10
-242.8755999999999
 20
-169.62568
 30
0.0
 11
-242.8755999999999
 21
-165.2703199999999
 31
0.0
  0
ARC
  5
33F
330
1E
100
AcDbEntity
  8
1
  6
CONTINUOUS
 62
     7
100
AcDbCircle
 10
-234.3003399999999
 20
-169.62568
 30
0.0
 40
8.57526
100
AcDbArc
 50
191.0231699999999
 51
191.5780499999999
  0
LINE
  5
340
330
1E
100
AcDbEntity
  8
1
  6
CONTINUOUS
 62
     7
100
AcDbLine
 10
-236.85792
 20
-169.62568
 30
0.0
 11
-234.3003399999999
 21
-169.62568
 31
0.0
  0
TEXT
  5
341
330
1E
100
AcDbEntity
  8
1
  6
CONTINUOUS
 62
     7
100
AcDbText
 10
-241.7781399999999
 20
-173.23146
 30
0.0
 40
3.2
  1
Ｌ
 50
315.0
  7
BIGFONT
100
AcDbText
  0
TEXT
  5
342
330
1E
100
AcDbEntity
  8
1
  6
CONTINUOUS
 62
     7
100
AcDbText
 10
-239.57662
 20
-175.1961399999999
 30
0.0
 40
2.2
  1
２
 50
315.0
 41
1.1363636
  7
BIGFONT
100
AcDbText
  0
LINE
  5
343
330
1E
100
AcDbEntity
  8
1
  6
CONTINUOUS
 62
     7
100
AcDbLine
 10
-234.3003399999999
 20
-171.9523399999999
 30
0.0
 11
-234.3003399999999
 21
-169.62568
 31
0.0
  0
TEXT
  5
344
330
1E
100
AcDbEntity
  8
1
  6
CONTINUOUS
 62
     7
100
AcDbText
 10
-203.47488
 20
-169.9282399999999
 30
0.0
 40
3.2
  1
Ｒ
 50
2.0
  7
BIGFONT
100
AcDbText
  0
LINE
  5
345
330
1E
100
AcDbEntity
  8
1
  6
CONTINUOUS
 62
     1
100
AcDbLine
 10
-204.29868
 20
-169.62568
 30
0.0
 11
-204.29868
 21
-162.60468
 31
0.0
  0
ARC
  5
346
330
1E
100
AcDbEntity
  8
1
  6
CONTINUOUS
 62
     1
100
AcDbCircle
 10
-203.69868
 20
-169.62568
 30
0.0
 40
0.6
100
AcDbArc
 50
180.0
 51
270.0
  0
LINE
  5
347
330
1E
100
AcDbEntity
  8
1
  6
CONTINUOUS
 62
     7
100
AcDbLine
 10
-212.3755999999999
 20
-169.62568
 30
0.0
 11
-212.3755999999999
 21
-162.60468
 31
0.0
  0
LINE
  5
348
330
1E
100
AcDbEntity
  8
1
  6
CONTINUOUS
 62
     7
100
AcDbLine
 10
-205.3755999999999
 20
-162.60468
 30
0.0
 11
-213.1756
 21
-162.60468
 31
0.0
  0
LINE
  5
349
330
1E
100
AcDbEntity
  8
1
  6
CONTINUOUS
 62
     7
100
AcDbLine
 10
-205.3755999999999
 20
-169.62568
 30
0.0
 11
-213.1756
 21
-169.62568
 31
0.0
  0
LINE
  5
34A
330
1E
100
AcDbEntity
  8
1
  6
CONTINUOUS
 62
     7
100
AcDbLine
 10
-212.05346
 20
-163.804
 30
0.0
 11
-212.375
 21
-162.6039999999998
 31
0.0
  0
LINE
  5
34B
330
1E
100
AcDbEntity
  8
1
  6
CONTINUOUS
 62
     7
100
AcDbLine
 10
-212.375
 20
-162.6039999999998
 30
0.0
 11
-212.6965299999999
 21
-163.804
 31
0.0
  0
LINE
  5
34C
330
1E
100
AcDbEntity
  8
1
  6
CONTINUOUS
 62
     7
100
AcDbLine
 10
-212.6965299999999
 20
-168.425
 30
0.0
 11
-212.375
 21
-169.625
 31
0.0
  0
LINE
  5
34D
330
1E
100
AcDbEntity
  8
1
  6
CONTINUOUS
 62
     7
100
AcDbLine
 10
-212.375
 20
-169.625
 30
0.0
 11
-212.05346
 21
-168.425
 31
0.0
  0
ARC
  5
34E
330
1E
100
AcDbEntity
  8
1
  6
CONTINUOUS
 62
     7
100
AcDbCircle
 10
-203.80034
 20
-169.62568
 30
0.0
 40
8.57526
100
AcDbArc
 50
191.5780499999999
 51
238.71324
  0
ARC
  5
34F
330
1E
100
AcDbEntity
  8
1
  6
CONTINUOUS
 62
     7
100
AcDbCircle
 10
-203.80034
 20
-169.62568
 30
0.0
 40
8.57526
100
AcDbArc
 50
238.71324
 51
246.3633899999999
  0
ARC
  5
350
330
1E
100
AcDbEntity
  8
1
  6
CONTINUOUS
 62
     7
100
AcDbCircle
 10
-203.80034
 20
-169.62568
 30
0.0
 40
8.57526
100
AcDbArc
 50
246.3633899999999
 51
247.8281799999999
  0
ARC
  5
351
330
1E
100
AcDbEntity
  8
1
  6
CONTINUOUS
 62
     7
100
AcDbCircle
 10
-203.80034
 20
-169.62568
 30
0.0
 40
8.57526
100
AcDbArc
 50
247.8281799999999
 51
258.01527
  0
LINE
  5
352
330
1E
100
AcDbEntity
  8
1
  6
CONTINUOUS
 62
     7
100
AcDbLine
 10
-212.217
 20
-171.2672799999999
 30
0.0
 11
-212.3755999999999
 21
-169.62568
 31
0.0
  0
LINE
  5
353
330
1E
100
AcDbEntity
  8
1
  6
CONTINUOUS
 62
     7
100
AcDbLine
 10
-211.9395499999999
 20
-170.78851
 30
0.0
 11
-212.375
 21
-169.625
 31
0.0
  0
LINE
  5
354
330
1E
100
AcDbEntity
  8
1
  6
CONTINUOUS
 62
     7
100
AcDbLine
 10
-212.375
 20
-169.625
 30
0.0
 11
-212.5796499999999
 21
-170.8503499999999
 31
0.0
  0
LINE
  5
355
330
1E
100
AcDbEntity
  8
1
  6
CONTINUOUS
 62
     7
100
AcDbLine
 10
-205.5127399999999
 20
-178.02822
 30
0.0
 11
-203.80034
 21
-178.2009399999999
 31
0.0
  0
LINE
  5
356
330
1E
100
AcDbEntity
  8
1
  6
CONTINUOUS
 62
     7
100
AcDbLine
 10
-205.02621
 20
-178.39948
 30
0.0
 11
-203.8
 21
-178.2
 31
0.0
  0
LINE
  5
357
330
1E
100
AcDbEntity
  8
1
  6
CONTINUOUS
 62
     7
100
AcDbLine
 10
-203.8
 20
-178.2
 30
0.0
 11
-204.96167
 21
-177.75965
 31
0.0
  0
ARC
  5
358
330
1E
100
AcDbEntity
  8
1
  6
CONTINUOUS
 62
     7
100
AcDbCircle
 10
-203.80034
 20
-169.62568
 30
0.0
 40
8.57526
100
AcDbArc
 50
258.01527
 51
258.41701
  0
LINE
  5
359
330
1E
100
AcDbEntity
  8
1
  6
CONTINUOUS
 62
     7
100
AcDbLine
 10
-212.3755999999999
 20
-169.62568
 30
0.0
 11
-212.3755999999999
 21
-165.2703199999999
 31
0.0
  0
ARC
  5
35A
330
1E
100
AcDbEntity
  8
1
  6
CONTINUOUS
 62
     7
100
AcDbCircle
 10
-203.80034
 20
-169.62568
 30
0.0
 40
8.57526
100
AcDbArc
 50
191.0231699999999
 51
191.5780499999999
  0
LINE
  5
35B
330
1E
100
AcDbEntity
  8
1
  6
CONTINUOUS
 62
     7
100
AcDbLine
 10
-206.3579199999999
 20
-169.62568
 30
0.0
 11
-203.80034
 21
-169.62568
 31
0.0
  0
TEXT
  5
35C
330
1E
100
AcDbEntity
  8
1
  6
CONTINUOUS
 62
     7
100
AcDbText
 10
-211.2781399999999
 20
-173.23146
 30
0.0
 40
3.2
  1
Ｌ
 50
315.0
  7
BIGFONT
100
AcDbText
  0
TEXT
  5
35D
330
1E
100
AcDbEntity
  8
1
  6
CONTINUOUS
 62
     7
100
AcDbText
 10
-209.07662
 20
-175.1961399999999
 30
0.0
 40
2.2
  1
２
 50
315.0
 41
1.1363636
  7
BIGFONT
100
AcDbText
  0
TEXT
  5
35E
330
1E
100
AcDbEntity
  8
1
  6
CONTINUOUS
 62
     7
100
AcDbText
 10
-212.8219799999999
 20
-168.8178
 30
0.0
 40
3.2
  1
Ｌ
 50
90.0
  7
BIGFONT
100
AcDbText
  0
TEXT
  5
35F
330
1E
100
AcDbEntity
  8
1
  6
CONTINUOUS
 62
     7
100
AcDbText
 10
-212.9907
 20
-165.88696
 30
0.0
 40
2.2
  1
３
 50
90.0
 41
1.1363636
  7
BIGFONT
100
AcDbText
  0
LINE
  5
360
330
1E
100
AcDbEntity
  8
1
  6
CONTINUOUS
 62
     7
100
AcDbLine
 10
-203.80034
 20
-171.9523399999999
 30
0.0
 11
-203.80034
 21
-169.62568
 31
0.0
  0
TEXT
  5
361
330
1E
100
AcDbEntity
  8
1
  6
CONTINUOUS
 62
     7
100
AcDbText
 10
-113.32376
 20
-148.9863399999999
 30
0.0
 40
3.2
  1
Ｌ
 50
315.0
  7
BIGFONT
100
AcDbText
  0
TEXT
  5
362
330
1E
100
AcDbEntity
  8
1
  6
CONTINUOUS
 62
     7
100
AcDbText
 10
-111.1320399999997
 20
-150.93946
 30
0.0
 40
2.2
  1
３
 50
315.0
 41
1.1363636
  7
BIGFONT
100
AcDbText
  0
LINE
  5
363
330
1E
100
AcDbEntity
  8
1
  6
CONTINUOUS
 62
     1
100
AcDbLine
 10
-60.05475999999998
 20
-170.22568
 30
0.0
 11
-32.65475999999999
 21
-170.22568
 31
0.0
  0
LINE
  5
364
330
1E
100
AcDbEntity
  8
1
  6
CONTINUOUS
 62
     1
100
AcDbLine
 10
-60.65476
 20
-169.62568
 30
0.0
 11
-60.65476
 21
-145.22568
 31
0.0
  0
ARC
  5
365
330
1E
100
AcDbEntity
  8
1
  6
CONTINUOUS
 62
     1
100
AcDbCircle
 10
-60.05475999999998
 20
-169.62568
 30
0.0
 40
0.6
100
AcDbArc
 50
180.0
 51
270.0
  0
LINE
  5
366
330
1E
100
AcDbEntity
  8
1
  6
CONTINUOUS
 62
     7
100
AcDbLine
 10
-60.15641999999999
 20
-178.19526
 30
0.0
 11
-32.65475999999999
 21
-178.19526
 31
0.0
  0
LINE
  5
367
330
1E
100
AcDbEntity
  8
1
  6
CONTINUOUS
 62
     7
100
AcDbLine
 10
-32.65475999999999
 20
-171.22568
 30
0.0
 11
-32.65475999999999
 21
-178.99526
 31
0.0
  0
LINE
  5
368
330
1E
100
AcDbEntity
  8
1
  6
CONTINUOUS
 62
     7
100
AcDbLine
 10
-60.15641999999999
 20
-170.6079799999999
 30
0.0
 11
-60.15641999999999
 21
-178.99526
 31
0.0
  0
LINE
  5
369
330
1E
100
AcDbEntity
  8
1
  6
CONTINUOUS
 62
     7
100
AcDbLine
 10
-33.854
 20
-178.51653
 30
0.0
 11
-32.654
 21
-178.1949999999999
 31
0.0
  0
LINE
  5
36A
330
1E
100
AcDbEntity
  8
1
  6
CONTINUOUS
 62
     7
100
AcDbLine
 10
-32.654
 20
-178.1949999999999
 30
0.0
 11
-33.854
 21
-177.87346
 31
0.0
  0
LINE
  5
36B
330
1E
100
AcDbEntity
  8
1
  6
CONTINUOUS
 62
     7
100
AcDbLine
 10
-58.956
 20
-177.87346
 30
0.0
 11
-60.156
 21
-178.1949999999999
 31
0.0
  0
LINE
  5
36C
330
1E
100
AcDbEntity
  8
1
  6
CONTINUOUS
 62
     7
100
AcDbLine
 10
-60.156
 20
-178.1949999999999
 30
0.0
 11
-58.956
 21
-178.51653
 31
0.0
  0
LINE
  5
36D
330
1E
100
AcDbEntity
  8
1
  6
CONTINUOUS
 62
     7
100
AcDbLine
 10
-68.73168000000001
 20
-169.62568
 30
0.0
 11
-68.73168000000001
 21
-145.22568
 31
0.0
  0
LINE
  5
36E
330
1E
100
AcDbEntity
  8
1
  6
CONTINUOUS
 62
     7
100
AcDbLine
 10
-61.73168
 20
-145.22568
 30
0.0
 11
-69.53168000000001
 21
-145.22568
 31
0.0
  0
LINE
  5
36F
330
1E
100
AcDbEntity
  8
1
  6
CONTINUOUS
 62
     7
100
AcDbLine
 10
-61.73168
 20
-169.62568
 30
0.0
 11
-69.53168000000001
 21
-169.62568
 31
0.0
  0
LINE
  5
370
330
1E
100
AcDbEntity
  8
1
  6
CONTINUOUS
 62
     7
100
AcDbLine
 10
-68.40945999999999
 20
-146.425
 30
0.0
 11
-68.73099999999999
 21
-145.225
 31
0.0
  0
LINE
  5
371
330
1E
100
AcDbEntity
  8
1
  6
CONTINUOUS
 62
     7
100
AcDbLine
 10
-68.73099999999999
 20
-145.225
 30
0.0
 11
-69.05253
 21
-146.425
 31
0.0
  0
LINE
  5
372
330
1E
100
AcDbEntity
  8
1
  6
CONTINUOUS
 62
     7
100
AcDbLine
 10
-69.05253
 20
-168.425
 30
0.0
 11
-68.73099999999999
 21
-169.625
 31
0.0
  0
LINE
  5
373
330
1E
100
AcDbEntity
  8
1
  6
CONTINUOUS
 62
     7
100
AcDbLine
 10
-68.73099999999999
 20
-169.625
 30
0.0
 11
-68.40945999999999
 21
-168.425
 31
0.0
  0
ARC
  5
374
330
1E
100
AcDbEntity
  8
1
  6
CONTINUOUS
 62
     7
100
AcDbCircle
 10
-60.15641999999999
 20
-169.62568
 30
0.0
 40
8.57526
100
AcDbArc
 50
191.5780499999999
 51
238.71324
  0
ARC
  5
375
330
1E
100
AcDbEntity
  8
1
  6
CONTINUOUS
 62
     7
100
AcDbCircle
 10
-60.15641999999999
 20
-169.62568
 30
0.0
 40
8.57526
100
AcDbArc
 50
238.71324
 51
246.3633899999999
  0
LINE
  5
376
330
1E
100
AcDbEntity
  8
1
  6
CONTINUOUS
 62
     7
100
AcDbLine
 10
-60.15641999999999
 20
-177.3784
 30
0.0
 11
-60.15641999999999
 21
-175.59518
 31
0.0
  0
ARC
  5
377
330
1E
100
AcDbEntity
  8
1
  6
CONTINUOUS
 62
     7
100
AcDbCircle
 10
-60.15641999999999
 20
-169.62568
 30
0.0
 40
8.57526
100
AcDbArc
 50
246.3633899999999
 51
247.8281799999999
  0
ARC
  5
378
330
1E
100
AcDbEntity
  8
1
  6
CONTINUOUS
 62
     7
100
AcDbCircle
 10
-60.15641999999999
 20
-169.62568
 30
0.0
 40
8.57526
100
AcDbArc
 50
247.8281799999999
 51
258.01527
  0
LINE
  5
379
330
1E
100
AcDbEntity
  8
1
  6
CONTINUOUS
 62
     7
100
AcDbLine
 10
-68.57308
 20
-171.2672799999999
 30
0.0
 11
-68.73168000000001
 21
-169.62568
 31
0.0
  0
LINE
  5
37A
330
1E
100
AcDbEntity
  8
1
  6
CONTINUOUS
 62
     7
100
AcDbLine
 10
-68.73168000000001
 20
-169.62568
 30
0.0
 11
-68.96246999999999
 21
-167.2367999999998
 31
0.0
  0
LINE
  5
37B
330
1E
100
AcDbEntity
  8
1
  6
CONTINUOUS
 62
     7
100
AcDbLine
 10
-68.29555
 20
-170.78851
 30
0.0
 11
-68.73099999999999
 21
-169.625
 31
0.0
  0
LINE
  5
37C
330
1E
100
AcDbEntity
  8
1
  6
CONTINUOUS
 62
     7
100
AcDbLine
 10
-68.73099999999999
 20
-169.625
 30
0.0
 11
-68.93564999999999
 21
-170.8503499999999
 31
0.0
  0
LINE
  5
37D
330
1E
100
AcDbEntity
  8
1
  6
CONTINUOUS
 62
     7
100
AcDbLine
 10
-61.86881999999999
 20
-178.02822
 30
0.0
 11
-60.15641999999999
 21
-178.2009399999999
 31
0.0
  0
LINE
  5
37E
330
1E
100
AcDbEntity
  8
1
  6
CONTINUOUS
 62
     7
100
AcDbLine
 10
-61.38221
 20
-178.39948
 30
0.0
 11
-60.156
 21
-178.2
 31
0.0
  0
LINE
  5
37F
330
1E
100
AcDbEntity
  8
1
  6
CONTINUOUS
 62
     7
100
AcDbLine
 10
-60.156
 20
-178.2
 30
0.0
 11
-61.31766999999999
 21
-177.75965
 31
0.0
  0
ARC
  5
380
330
1E
100
AcDbEntity
  8
1
  6
CONTINUOUS
 62
     7
100
AcDbCircle
 10
-60.15641999999999
 20
-169.62568
 30
0.0
 40
8.57526
100
AcDbArc
 50
258.01527
 51
258.41701
  0
LINE
  5
381
330
1E
100
AcDbEntity
  8
1
  6
CONTINUOUS
 62
     7
100
AcDbLine
 10
-60.15641999999999
 20
-178.02348
 30
0.0
 11
-60.15641999999999
 21
-177.3784
 31
0.0
  0
LINE
  5
382
330
1E
100
AcDbEntity
  8
1
  6
CONTINUOUS
 62
     7
100
AcDbLine
 10
-68.73168000000001
 20
-169.62568
 30
0.0
 11
-68.73168000000001
 21
-165.2703199999999
 31
0.0
  0
ARC
  5
383
330
1E
100
AcDbEntity
  8
1
  6
CONTINUOUS
 62
     7
100
AcDbCircle
 10
-60.15641999999999
 20
-169.62568
 30
0.0
 40
8.57526
100
AcDbArc
 50
191.0231699999999
 51
191.5780499999999
  0
LINE
  5
384
330
1E
100
AcDbEntity
  8
1
  6
CONTINUOUS
 62
     7
100
AcDbLine
 10
-60.15641999999999
 20
-171.9418399999999
 30
0.0
 11
-60.15641999999999
 21
-169.62568
 31
0.0
  0
LINE
  5
385
330
1E
100
AcDbEntity
  8
1
  6
CONTINUOUS
 62
     7
100
AcDbLine
 10
-62.71399999999999
 20
-169.62568
 30
0.0
 11
-60.15641999999999
 21
-169.62568
 31
0.0
  0
TEXT
  5
386
330
1E
100
AcDbEntity
  8
1
  6
CONTINUOUS
 62
     7
100
AcDbText
 10
-59.83095999999999
 20
-170.0038199999999
 30
0.0
 40
3.2
  1
Ｒ
 50
2.0
  7
BIGFONT
100
AcDbText
  0
TEXT
  5
387
330
1E
100
AcDbEntity
  8
1
  6
CONTINUOUS
 62
     7
100
AcDbText
 10
-67.63422
 20
-173.23146
 30
0.0
 40
3.2
  1
Ｌ
 50
315.0
  7
BIGFONT
100
AcDbText
  0
TEXT
  5
388
330
1E
100
AcDbEntity
  8
1
  6
CONTINUOUS
 62
     7
100
AcDbText
 10
-65.43269999999999
 20
-175.1961399999999
 30
0.0
 40
2.2
  1
２
 50
315.0
 41
1.1363636
  7
BIGFONT
100
AcDbText
  0
TEXT
  5
389
330
1E
100
AcDbEntity
  8
1
  6
CONTINUOUS
 62
     7
100
AcDbText
 10
-48.59282
 20
-177.5784199999999
 30
0.0
 40
3.2
  1
Ｌ
  7
BIGFONT
100
AcDbText
  0
TEXT
  5
38A
330
1E
100
AcDbEntity
  8
1
  6
CONTINUOUS
 62
     7
100
AcDbText
 10
-45.58305999999999
 20
-177.4023399999999
 30
0.0
 40
2.2
  1
１
 41
1.1363636
  7
BIGFONT
100
AcDbText
  0
TEXT
  5
38B
330
1E
100
AcDbEntity
  8
1
  6
CONTINUOUS
 62
     7
100
AcDbText
 10
-69.17806
 20
-160.5283
 30
0.0
 40
3.2
  1
Ｌ
 50
90.0
  7
BIGFONT
100
AcDbText
  0
TEXT
  5
38C
330
1E
100
AcDbEntity
  8
1
  6
CONTINUOUS
 62
     7
100
AcDbText
 10
-69.34678000000001
 20
-157.59746
 30
0.0
 40
2.2
  1
３
 50
90.0
 41
1.1363636
  7
BIGFONT
100
AcDbText
  0
CIRCLE
  5
38D
330
1E
100
AcDbEntity
  8
1
  6
CONTINUOUS
 62
     7
100
AcDbCircle
 10
-225.0415999999999
 20
-155.1335799999999
 30
0.0
 40
2.497799999999998
  0
TEXT
  5
38E
330
1E
100
AcDbEntity
  8
1
  6
CONTINUOUS
 62
     7
100
AcDbText
 10
-226.57484
 20
-156.93296
 30
0.0
 40
3.2
  1
１
  7
BIGFONT
100
AcDbText
  0
LINE
  5
38F
330
1E
100
AcDbEntity
  8
1
  6
CONTINUOUS
 62
     7
100
AcDbLine
 10
-229.89316
 20
-157.65174
 30
0.0
 11
-219.3560799999999
 21
-157.65174
 31
0.0
  0
LINE
  5
390
330
1E
100
AcDbEntity
  8
1
  6
CONTINUOUS
 62
     7
100
AcDbLine
 10
-52.3064
 20
-158.90466
 30
0.0
 11
-39.73245999999999
 21
-158.90466
 31
0.0
  0
CIRCLE
  5
391
330
1E
100
AcDbEntity
  8
1
  6
CONTINUOUS
 62
     7
100
AcDbCircle
 10
-189.3571999999999
 20
-160.4847
 30
0.0
 40
2.497799999999998
  0
CIRCLE
  5
392
330
1E
100
AcDbEntity
  8
1
  6
CONTINUOUS
 62
     7
100
AcDbCircle
 10
-137.6644399999999
 20
-157.9627999999999
 30
0.0
 40
2.497799999999998
  0
CIRCLE
  5
393
330
1E
100
AcDbEntity
  8
1
  6
CONTINUOUS
 62
     7
100
AcDbCircle
 10
-96.69964
 20
-135.18666
 30
0.0
 40
2.497799999999998
  0
CIRCLE
  5
394
330
1E
100
AcDbEntity
  8
1
  6
CONTINUOUS
 62
     7
100
AcDbCircle
 10
-48.52289999999999
 20
-156.3971399999998
 30
0.0
 40
2.497799999999998
  0
CIRCLE
  5
395
330
1E
100
AcDbEntity
  8
1
  6
CONTINUOUS
 62
     7
100
AcDbCircle
 10
-43.5282
 20
-156.34726
 30
0.0
 40
2.497799999999998
  0
TEXT
  5
396
330
1E
100
AcDbEntity
  8
1
  6
CONTINUOUS
 62
     7
100
AcDbText
 10
-190.8891
 20
-162.2700199999998
 30
0.0
 40
3.2
  1
２
  7
BIGFONT
100
AcDbText
  0
TEXT
  5
397
330
1E
100
AcDbEntity
  8
1
  6
CONTINUOUS
 62
     7
100
AcDbText
 10
-139.1972
 20
-159.7784199999999
 30
0.0
 40
3.2
  1
３
  7
BIGFONT
100
AcDbText
  0
TEXT
  5
398
330
1E
100
AcDbEntity
  8
1
  6
CONTINUOUS
 62
     7
100
AcDbText
 10
-98.3115
 20
-136.99036
 30
0.0
 40
3.2
  1
４
  7
BIGFONT
100
AcDbText
  0
TEXT
  5
399
330
1E
100
AcDbEntity
  8
1
  6
CONTINUOUS
 62
     7
100
AcDbText
 10
-50.02494
 20
-158.22848
 30
0.0
 40
3.2
  1
５
  7
BIGFONT
100
AcDbText
  0
TEXT
  5
39A
330
1E
100
AcDbEntity
  8
1
  6
CONTINUOUS
 62
     7
100
AcDbText
 10
-45.1282
 20
-158.1740199999998
 30
0.0
 40
3.2
  1
６
  7
BIGFONT
100
AcDbText
  0
LINE
  5
39B
330
1E
100
AcDbEntity
  8
1
  6
CONTINUOUS
 62
     7
100
AcDbLine
 10
-101.8824799999999
 20
-137.68446
 30
0.0
 11
-91.74262
 21
-137.68446
 31
0.0
  0
LINE
  5
39C
330
1E
100
AcDbEntity
  8
1
  6
CONTINUOUS
 62
     7
100
AcDbLine
 10
-194.29654
 20
-162.98196
 30
0.0
 11
-183.75946
 21
-162.98196
 31
0.0
  0
LINE
  5
39D
330
1E
100
AcDbEntity
  8
1
  6
CONTINUOUS
 62
     7
100
AcDbLine
 10
-142.55186
 20
-160.4605999999999
 30
0.0
 11
-132.0147799999999
 21
-160.4605999999999
 31
0.0
  0
TEXT
  5
39E
330
1E
100
AcDbEntity
  8
1
  6
CONTINUOUS
 62
     7
100
AcDbText
 10
-243.2744
 20
-156.00158
 30
0.0
 40
3.2
  1
Ｌ
 50
90.0
  7
BIGFONT
100
AcDbText
  0
TEXT
  5
39F
330
1E
100
AcDbEntity
  8
1
  6
CONTINUOUS
 62
     7
100
AcDbText
 10
-243.4504799999999
 20
-152.99182
 30
0.0
 40
2.2
  1
１
 50
90.0
 41
1.1363636
  7
BIGFONT
100
AcDbText
  0
LINE
  5
3A0
330
1E
100
AcDbEntity
  8
0
  6
CONTINUOUS
 62
     7
100
AcDbLine
 10
223.75
 20
-76.45985
 30
0.0
 11
223.75
 21
-31.45985
 31
0.0
  0
LINE
  5
3A1
330
1E
100
AcDbEntity
  8
0
  6
CONTINUOUS
 62
     7
100
AcDbLine
 10
218.7964
 20
-96.5089
 30
0.0
 11
231.2985799999999
 21
-84.01106999999997
 31
0.0
  0
LINE
  5
3A2
330
1E
100
AcDbEntity
  8
0
  6
CONTINUOUS
 62
     7
100
AcDbLine
 10
224.4569799999999
 20
-77.16708
 30
0.0
 11
231.86417
 21
-84.57684999999996
 31
0.0
  0
LINE
  5
3A3
330
1E
100
AcDbEntity
  8
0
  6
CONTINUOUS
 62
     7
100
AcDbLine
 10
211.9569799999999
 20
-89.66708
 30
0.0
 11
219.36198
 21
-97.07468
 31
0.0
  0
LINE
  5
3A4
330
1E
100
AcDbEntity
  8
0
  6
CONTINUOUS
 62
     7
100
AcDbLine
 10
230.6766399999999
 20
-85.08678000000001
 30
0.0
 11
231.298
 21
-84.01099999999997
 31
0.0
  0
LINE
  5
3A5
330
1E
100
AcDbEntity
  8
0
  6
CONTINUOUS
 62
     7
100
AcDbLine
 10
231.298
 20
-84.01099999999997
 30
0.0
 11
230.222
 21
-84.63196999999999
 31
0.0
  0
LINE
  5
3A6
330
1E
100
AcDbEntity
  8
0
  6
CONTINUOUS
 62
     7
100
AcDbLine
 10
219.41735
 20
-95.43221
 30
0.0
 11
218.7959999999999
 21
-96.508
 31
0.0
  0
LINE
  5
3A7
330
1E
100
AcDbEntity
  8
0
  6
CONTINUOUS
 62
     7
100
AcDbLine
 10
218.7959999999999
 20
-96.508
 30
0.0
 11
219.8719899999999
 21
-95.88702000000001
 31
0.0
  0
TEXT
  5
3A8
330
1E
100
AcDbEntity
  8
0
  6
CONTINUOUS
 62
     7
100
AcDbText
 10
222.1903799999999
 20
-92.55050999999999
 30
0.0
 40
3.2
  1
354
 50
44.99
 41
0.8125
  7
BIGFONT
100
AcDbText
  0
LINE
  5
3A9
330
1E
100
AcDbEntity
  8
0
  6
CONTINUOUS
 62
     7
100
AcDbLine
 10
-101.333
 20
-88.95985000000001
 30
0.0
 11
-56.333
 21
-88.95985000000001
 31
0.0
  0
LINE
  5
3AA
330
1E
100
AcDbEntity
  8
0
  6
CONTINUOUS
 62
     7
100
AcDbLine
 10
-43.833
 20
-76.45985
 30
0.0
 11
-43.833
 21
-31.45985
 31
0.0
  0
LINE
  5
3AB
330
1E
100
AcDbEntity
  8
0
  6
CONTINUOUS
 62
     7
100
AcDbLine
 10
-218.8655999999999
 20
-88.95985000000001
 30
0.0
 11
-173.8655999999999
 21
-88.95985000000001
 31
0.0
  0
LINE
  5
3AC
330
1E
100
AcDbEntity
  8
0
  6
CONTINUOUS
 62
     7
100
AcDbLine
 10
-161.3655999999999
 20
-76.45985
 30
0.0
 11
-161.3655999999999
 21
-31.45985
 31
0.0
  0
LINE
  5
3AD
330
1E
100
AcDbEntity
  8
0
  6
HIDDEN
 62
     7
100
AcDbLine
 10
166.25
 20
108.0068999999999
 30
0.0
 11
172.25
 21
108.0068999999999
 31
0.0
  0
CIRCLE
  5
3AE
330
1E
100
AcDbEntity
  8
0
  6
CONTINUOUS
 62
     7
100
AcDbCircle
 10
19.0413
 20
103.5905
 30
0.0
 40
2.5
  0
TEXT
  5
3AF
330
1E
100
AcDbEntity
  8
0
  6
CONTINUOUS
 62
     7
100
AcDbText
 10
20.6768
 20
102.07405
 30
0.0
 40
3.2
  1
６
 50
90.0
  7
BIGFONT
100
AcDbText
  0
TEXT
  5
3B0
330
1E
100
AcDbEntity
  8
0
  6
CONTINUOUS
 62
     7
100
AcDbText
 10
20.66625
 20
106.7932
 30
0.0
 40
3.2
  1
D10
 50
90.0
  7
BIGFONT
100
AcDbText
  0
LINE
  5
3B1
330
1E
100
AcDbEntity
  8
0
  6
CONTINUOUS
 62
     7
100
AcDbLine
 10
21.5379
 20
100.2421999999999
 30
0.0
 11
21.5379
 21
115.2422
 31
0.0
  0
CIRCLE
  5
3B2
330
1E
100
AcDbEntity
  8
0
  6
CONTINUOUS
 62
     7
100
AcDbCircle
 10
19.02544999999999
 20
77.5137
 30
0.0
 40
2.5
  0
TEXT
  5
3B3
330
1E
100
AcDbEntity
  8
0
  6
CONTINUOUS
 62
     7
100
AcDbText
 10
20.66365
 20
75.95945
 30
0.0
 40
3.2
  1
３
 50
90.0
  7
BIGFONT
100
AcDbText
  0
TEXT
  5
3B4
330
1E
100
AcDbEntity
  8
0
  6
CONTINUOUS
 62
     7
100
AcDbText
 10
20.65119999999998
 20
81.10689999999998
 30
0.0
 40
3.2
  1
D10
 50
90.0
  7
BIGFONT
100
AcDbText
  0
LINE
  5
3B5
330
1E
100
AcDbEntity
  8
0
  6
CONTINUOUS
 62
     7
100
AcDbLine
 10
21.52285
 20
74.55589999999998
 30
0.0
 11
21.52285
 21
89.55589999999999
 31
0.0
  0
CIRCLE
  5
3B6
330
1E
100
AcDbEntity
  8
0
  6
CONTINUOUS
 62
     7
100
AcDbCircle
 10
61.80165
 20
76.4741
 30
0.0
 40
2.5
  0
TEXT
  5
3B7
330
1E
100
AcDbEntity
  8
0
  6
CONTINUOUS
 62
     7
100
AcDbText
 10
60.2437
 20
74.8802
 30
0.0
 40
3.2
  1
２
  7
BIGFONT
100
AcDbText
  0
CIRCLE
  5
3B8
330
1E
100
AcDbEntity
  8
0
  6
CONTINUOUS
 62
     7
100
AcDbCircle
 10
56.6582
 20
53.72575
 30
0.0
 40
2.5
  0
TEXT
  5
3B9
330
1E
100
AcDbEntity
  8
0
  6
CONTINUOUS
 62
     7
100
AcDbText
 10
55.10394999999999
 20
51.98755
 30
0.0
 40
3.2
  1
３
  7
BIGFONT
100
AcDbText
  0
TEXT
  5
3BA
330
1E
100
AcDbEntity
  8
0
  6
CONTINUOUS
 62
     7
100
AcDbText
 10
60.2514
 20
52.1
 30
0.0
 40
3.2
  1
D10
  7
BIGFONT
100
AcDbText
  0
LINE
  5
3BB
330
1E
100
AcDbEntity
  8
0
  6
CONTINUOUS
 62
     7
100
AcDbLine
 10
53.4504
 20
51.22835
 30
0.0
 11
68.4504
 21
51.22835
 31
0.0
  0
LINE
  5
3BC
330
1E
100
AcDbEntity
  8
0
  6
CONTINUOUS
 62
     7
100
AcDbLine
 10
59.0049
 20
73.94079999999998
 30
0.0
 11
54.9968
 21
64.38455000000001
 31
0.0
  0
LINE
  5
3BD
330
1E
100
AcDbEntity
  8
0
  6
CONTINUOUS
 62
     7
100
AcDbLine
 10
55.16361999999999
 20
65.61497
 30
0.0
 11
54.996
 21
64.384
 31
0.0
  0
LINE
  5
3BE
330
1E
100
AcDbEntity
  8
0
  6
CONTINUOUS
 62
     7
100
AcDbLine
 10
54.996
 20
64.384
 30
0.0
 11
55.75664
 21
65.36624
 31
0.0
  0
LINE
  5
3BF
330
1E
100
AcDbEntity
  8
0
  6
CONTINUOUS
 62
     7
100
AcDbLine
 10
59.0049
 20
73.94079999999998
 30
0.0
 11
50.3234
 21
64.83454999999999
 31
0.0
  0
LINE
  5
3C0
330
1E
100
AcDbEntity
  8
0
  6
CONTINUOUS
 62
     7
100
AcDbLine
 10
50.9183
 20
65.92440999999999
 30
0.0
 11
50.323
 21
64.834
 31
0.0
  0
LINE
  5
3C1
330
1E
100
AcDbEntity
  8
0
  6
CONTINUOUS
 62
     7
100
AcDbLine
 10
50.323
 20
64.834
 30
0.0
 11
51.38374999999999
 21
65.48066999999999
 31
0.0
  0
LINE
  5
3C2
330
1E
100
AcDbEntity
  8
0
  6
CONTINUOUS
 62
     7
100
AcDbLine
 10
53.4455
 20
51.248
 30
0.0
 11
50.43600000000001
 21
63.3549
 31
0.0
  0
LINE
  5
3C3
330
1E
100
AcDbEntity
  8
0
  6
CONTINUOUS
 62
     7
100
AcDbLine
 10
51.03752
 20
62.26700000000001
 30
0.0
 11
50.43600000000001
 21
63.35399999999999
 31
0.0
  0
LINE
  5
3C4
330
1E
100
AcDbEntity
  8
0
  6
CONTINUOUS
 62
     7
100
AcDbLine
 10
50.43600000000001
 20
63.35399999999999
 30
0.0
 11
50.41344
 21
62.11186999999998
 31
0.0
  0
LINE
  5
3C5
330
1E
100
AcDbEntity
  8
0
  6
CONTINUOUS
 62
     7
100
AcDbLine
 10
53.4455
 20
51.248
 30
0.0
 11
44.99045
 21
63.7974
 31
0.0
  0
LINE
  5
3C6
330
1E
100
AcDbEntity
  8
0
  6
CONTINUOUS
 62
     7
100
AcDbLine
 10
45.92716
 20
62.98146
 30
0.0
 11
44.99
 21
63.79699999999999
 31
0.0
  0
LINE
  5
3C7
330
1E
100
AcDbEntity
  8
0
  6
CONTINUOUS
 62
     7
100
AcDbLine
 10
44.99
 20
63.79699999999999
 30
0.0
 11
45.39384
 21
62.62213
 31
0.0
  0
TEXT
  5
3C8
330
1E
100
AcDbEntity
  8
0
  6
CONTINUOUS
 62
     7
100
AcDbText
 10
65.60915
 20
74.70395
 30
0.0
 40
3.2
  1
D10
  7
BIGFONT
100
AcDbText
  0
LINE
  5
3C9
330
1E
100
AcDbEntity
  8
0
  6
CONTINUOUS
 62
     7
100
AcDbLine
 10
59.0049
 20
73.94079999999998
 30
0.0
 11
74.00490000000002
 21
73.94079999999998
 31
0.0
  0
CIRCLE
  5
3CA
330
1E
100
AcDbEntity
  8
0
  6
CONTINUOUS
 62
     7
100
AcDbCircle
 10
-70.78435
 20
136.1082
 30
0.0
 40
2.5
  0
TEXT
  5
3CB
330
1E
100
AcDbEntity
  8
0
  6
CONTINUOUS
 62
     7
100
AcDbText
 10
-72.27275
 20
134.37575
 30
0.0
 40
3.2
  1
５
  7
BIGFONT
100
AcDbText
  0
TEXT
  5
3CC
330
1E
100
AcDbEntity
  8
0
  6
CONTINUOUS
 62
     7
100
AcDbText
 10
-67.73050000000001
 20
134.4241
 30
0.0
 40
3.2
  1
D10
  7
BIGFONT
100
AcDbText
  0
LINE
  5
3CD
330
1E
100
AcDbEntity
  8
0
  6
CONTINUOUS
 62
     7
100
AcDbLine
 10
-73.77500000000002
 20
133.6319
 30
0.0
 11
-58.775
 21
133.6319
 31
0.0
  0
CIRCLE
  5
3CE
330
1E
100
AcDbEntity
  8
0
  6
CONTINUOUS
 62
     7
100
AcDbCircle
 10
-195.21245
 20
-96.48215
 30
0.0
 40
2.5
  0
CIRCLE
  5
3CF
330
1E
100
AcDbEntity
  8
0
  6
CONTINUOUS
 62
     7
100
AcDbCircle
 10
-219.36135
 20
-96.42279999999999
 30
0.0
 40
2.5
  0
CIRCLE
  5
3D0
330
1E
100
AcDbEntity
  8
0
  6
CONTINUOUS
 62
     7
100
AcDbCircle
 10
-111.3509999999999
 20
-58.18439999999998
 30
0.0
 40
2.5
  0
TEXT
  5
3D1
330
1E
100
AcDbEntity
  8
0
  6
CONTINUOUS
 62
     7
100
AcDbText
 10
-196.7666999999999
 20
-98.22034999999999
 30
0.0
 40
3.2
  1
３
  7
BIGFONT
100
AcDbText
  0
TEXT
  5
3D2
330
1E
100
AcDbEntity
  8
0
  6
CONTINUOUS
 62
     7
100
AcDbText
 10
-221.0098
 20
-98.13290000000002
 30
0.0
 40
3.2
  1
４
  7
BIGFONT
100
AcDbText
  0
TEXT
  5
3D3
330
1E
100
AcDbEntity
  8
0
  6
CONTINUOUS
 62
     7
100
AcDbText
 10
-109.6154999999999
 20
-59.70085
 30
0.0
 40
3.2
  1
６
 50
90.0
  7
BIGFONT
100
AcDbText
  0
TEXT
  5
3D4
330
1E
100
AcDbEntity
  8
0
  6
CONTINUOUS
 62
     7
100
AcDbText
 10
-41.13935
 20
-88.64535
 30
0.0
 40
3.2
  1
７
 50
45.0
  7
BIGFONT
100
AcDbText
  0
CIRCLE
  5
3D5
330
1E
100
AcDbEntity
  8
0
  6
CONTINUOUS
 62
     7
100
AcDbCircle
 10
-41.31755
 20
-86.25474999999999
 30
0.0
 40
2.5
  0
TEXT
  5
3D6
330
1E
100
AcDbEntity
  8
0
  6
CONTINUOUS
 62
     7
100
AcDbText
 10
-191.9361499999999
 20
-98.09350000000002
 30
0.0
 40
3.2
  1
D10
  7
BIGFONT
100
AcDbText
  0
LINE
  5
3D7
330
1E
100
AcDbEntity
  8
0
  6
CONTINUOUS
 62
     7
100
AcDbLine
 10
-198.38715
 20
-98.95985000000001
 30
0.0
 11
-183.3871499999999
 21
-98.95985000000001
 31
0.0
  0
TEXT
  5
3D8
330
1E
100
AcDbEntity
  8
0
  6
CONTINUOUS
 62
     7
100
AcDbText
 10
-216.1413
 20
-98.0549
 30
0.0
 40
3.2
  1
D10
  7
BIGFONT
100
AcDbText
  0
LINE
  5
3D9
330
1E
100
AcDbEntity
  8
0
  6
CONTINUOUS
 62
     7
100
AcDbLine
 10
-221.7923
 20
-98.92125
 30
0.0
 11
-206.7922999999999
 21
-98.92125
 31
0.0
  0
TEXT
  5
3DA
330
1E
100
AcDbEntity
  8
0
  6
CONTINUOUS
 62
     7
100
AcDbText
 10
-109.7288
 20
-54.92785
 30
0.0
 40
3.2
  1
D10
 50
90.0
  7
BIGFONT
100
AcDbText
  0
LINE
  5
3DB
330
1E
100
AcDbEntity
  8
0
  6
CONTINUOUS
 62
     7
100
AcDbLine
 10
-108.8624499999999
 20
-61.47885
 30
0.0
 11
-108.8624499999999
 21
-46.47885
 31
0.0
  0
TEXT
  5
3DC
330
1E
100
AcDbEntity
  8
0
  6
CONTINUOUS
 62
     7
100
AcDbText
 10
-37.7404
 20
-85.24585
 30
0.0
 40
3.2
  1
D10
 50
45.0
  7
BIGFONT
100
AcDbText
  0
LINE
  5
3DD
330
1E
100
AcDbEntity
  8
0
  6
CONTINUOUS
 62
     7
100
AcDbLine
 10
-41.95375
 20
-90.45205000000001
 30
0.0
 11
-31.34714999999999
 21
-79.84545
 31
0.0
  0
CIRCLE
  5
3DE
330
1E
100
AcDbEntity
  8
0
  6
CONTINUOUS
 62
     7
100
AcDbCircle
 10
-188.30825
 20
107.89395
 30
0.0
 40
2.5
  0
TEXT
  5
3DF
330
1E
100
AcDbEntity
  8
0
  6
CONTINUOUS
 62
     7
100
AcDbText
 10
-189.8246999999999
 20
106.1584499999999
 30
0.0
 40
3.2
  1
６
  7
BIGFONT
100
AcDbText
  0
TEXT
  5
3E0
330
1E
100
AcDbEntity
  8
0
  6
CONTINUOUS
 62
     7
100
AcDbText
 10
-185.0517
 20
106.2717499999999
 30
0.0
 40
3.2
  1
D10
  7
BIGFONT
100
AcDbText
  0
LINE
  5
3E1
330
1E
100
AcDbEntity
  8
0
  6
CONTINUOUS
 62
     7
100
AcDbLine
 10
-191.1527
 20
105.4054
 30
0.0
 11
-176.1527
 21
105.4054
 31
0.0
  0
CIRCLE
  5
3E2
330
1E
100
AcDbEntity
  8
0
  6
CONTINUOUS
 62
     7
100
AcDbCircle
 10
-153.8485
 20
90.67449999999999
 30
0.0
 40
2.5
  0
CIRCLE
  5
3E3
330
1E
100
AcDbEntity
  8
0
  6
CONTINUOUS
 62
     7
100
AcDbCircle
 10
-153.85605
 20
58.8616
 30
0.0
 40
2.5
  0
TEXT
  5
3E4
330
1E
100
AcDbEntity
  8
0
  6
CONTINUOUS
 62
     7
100
AcDbText
 10
-152.1103
 20
89.12024999999998
 30
0.0
 40
3.2
  1
３
 50
90.0
  7
BIGFONT
100
AcDbText
  0
TEXT
  5
3E5
330
1E
100
AcDbEntity
  8
0
  6
CONTINUOUS
 62
     7
100
AcDbText
 10
-152.1459499999999
 20
57.21315
 30
0.0
 40
3.2
  1
４
 50
90.0
  7
BIGFONT
100
AcDbText
  0
TEXT
  5
3E6
330
1E
100
AcDbEntity
  8
0
  6
CONTINUOUS
 62
     7
100
AcDbText
 10
-152.23715
 20
93.9508
 30
0.0
 40
3.2
  1
D10
 50
90.0
  7
BIGFONT
100
AcDbText
  0
LINE
  5
3E7
330
1E
100
AcDbEntity
  8
0
  6
CONTINUOUS
 62
     7
100
AcDbLine
 10
-151.3708
 20
87.54980000000001
 30
0.0
 11
-151.3708
 21
102.5498
 31
0.0
  0
TEXT
  5
3E8
330
1E
100
AcDbEntity
  8
0
  6
CONTINUOUS
 62
     7
100
AcDbText
 10
-152.2239499999999
 20
62.08165000000001
 30
0.0
 40
3.2
  1
D10
 50
90.0
  7
BIGFONT
100
AcDbText
  0
LINE
  5
3E9
330
1E
100
AcDbEntity
  8
0
  6
CONTINUOUS
 62
     7
100
AcDbLine
 10
-151.3576
 20
56.23065
 30
0.0
 11
-151.3576
 21
71.23065
 31
0.0
  0
CIRCLE
  5
3EA
330
1E
100
AcDbEntity
  8
0
  6
CONTINUOUS
 62
     7
100
AcDbCircle
 10
-153.8853
 20
-63.2337
 30
0.0
 40
2.5
  0
CIRCLE
  5
3EB
330
1E
100
AcDbEntity
  8
0
  6
CONTINUOUS
 62
     7
100
AcDbCircle
 10
-153.9060499999999
 20
-40.0002
 30
0.0
 40
2.5
  0
TEXT
  5
3EC
330
1E
100
AcDbEntity
  8
0
  6
CONTINUOUS
 62
     7
100
AcDbText
 10
-152.1471
 20
-64.78794999999999
 30
0.0
 40
3.2
  1
３
 50
90.0
  7
BIGFONT
100
AcDbText
  0
TEXT
  5
3ED
330
1E
100
AcDbEntity
  8
0
  6
CONTINUOUS
 62
     7
100
AcDbText
 10
-152.19595
 20
-41.64865
 30
0.0
 40
3.2
  1
４
 50
90.0
  7
BIGFONT
100
AcDbText
  0
TEXT
  5
3EE
330
1E
100
AcDbEntity
  8
0
  6
CONTINUOUS
 62
     7
100
AcDbText
 10
-152.27395
 20
-59.9574
 30
0.0
 40
3.2
  1
D10
 50
90.0
  7
BIGFONT
100
AcDbText
  0
LINE
  5
3EF
330
1E
100
AcDbEntity
  8
0
  6
CONTINUOUS
 62
     7
100
AcDbLine
 10
-151.4076
 20
-66.1584
 30
0.0
 11
-151.4076
 21
-51.1584
 31
0.0
  0
TEXT
  5
3F0
330
1E
100
AcDbEntity
  8
0
  6
CONTINUOUS
 62
     7
100
AcDbText
 10
-152.27395
 20
-36.78015
 30
0.0
 40
3.2
  1
D10
 50
90.0
  7
BIGFONT
100
AcDbText
  0
LINE
  5
3F1
330
1E
100
AcDbEntity
  8
0
  6
CONTINUOUS
 62
     7
100
AcDbLine
 10
-151.4076
 20
-43.48114999999999
 30
0.0
 11
-151.4076
 21
-28.48114999999999
 31
0.0
  0
LINE
  5
3F2
330
1E
100
AcDbEntity
  8
0
  6
CONTINUOUS
 62
     1
100
AcDbLine
 10
-46.333
 20
-75.42435000000001
 30
0.0
 11
-46.333
 21
-34.20985
 31
0.0
  0
LINE
  5
3F3
330
1E
100
AcDbEntity
  8
0
  6
CONTINUOUS
 62
     7
100
AcDbLine
 10
-98.58299999999999
 20
-86.45985000000001
 30
0.0
 11
-57.3685
 21
-86.45985000000001
 31
0.0
  0
LINE
  5
3F4
330
1E
100
AcDbEntity
  8
0
  6
CONTINUOUS
 62
     1
100
AcDbLine
 10
-57.3685
 20
-86.45985000000001
 30
0.0
 11
-46.333
 21
-75.42435000000001
 31
0.0
  0
LINE
  5
3F5
330
1E
100
AcDbEntity
  8
0
  6
CONTINUOUS
 62
     7
100
AcDbLine
 10
-41.95375
 20
-90.45205000000001
 30
0.0
 11
-51.7056
 21
-80.7585
 31
0.0
  0
LINE
  5
3F6
330
1E
100
AcDbEntity
  8
0
  6
CONTINUOUS
 62
     7
100
AcDbLine
 10
-50.62725
 20
-81.37593
 30
0.0
 11
-51.705
 21
-80.75799999999999
 31
0.0
  0
LINE
  5
3F7
330
1E
100
AcDbEntity
  8
0
  6
CONTINUOUS
 62
     7
100
AcDbLine
 10
-51.705
 20
-80.75799999999999
 30
0.0
 11
-51.08061
 21
-81.83201999999999
 31
0.0
  0
LINE
  5
3F8
330
1E
100
AcDbEntity
  8
0
  6
CONTINUOUS
 62
     1
100
AcDbLine
 10
-98.58299999999999
 20
-86.45985000000001
 30
0.0
 11
-57.3685
 21
-86.45985000000001
 31
0.0
  0
LINE
  5
3F9
330
1E
100
AcDbEntity
  8
0
  6
CONTINUOUS
 62
     1
100
AcDbLine
 10
-173.8655999999999
 20
-61.45985
 30
0.0
 11
-173.8655999999999
 21
-33.70985
 31
0.0
  0
LINE
  5
3FA
330
1E
100
AcDbEntity
  8
0
  6
CONTINUOUS
 62
     1
100
AcDbLine
 10
-173.8655999999999
 20
-61.45985
 30
0.0
 11
-173.8655999999999
 21
-33.70985
 31
0.0
  0
LINE
  5
3FB
330
1E
100
AcDbEntity
  8
0
  6
CONTINUOUS
 62
     1
100
AcDbLine
 10
-183.8656
 20
-61.45985
 30
0.0
 11
-183.8656
 21
-33.70985
 31
0.0
  0
LINE
  5
3FC
330
1E
100
AcDbEntity
  8
0
  6
DASHED
 62
     1
100
AcDbLine
 10
-184.3656
 20
-45.99454999999998
 30
0.0
 11
-184.3656
 21
-33.70985
 31
0.0
  0
LINE
  5
3FD
330
1E
100
AcDbEntity
  8
0
  6
CONTINUOUS
 62
     1
100
AcDbLine
 10
-183.8656
 20
-61.45985
 30
0.0
 11
-183.8656
 21
-33.70985
 31
0.0
  0
LINE
  5
3FE
330
1E
100
AcDbEntity
  8
0
  6
CONTINUOUS
 62
     1
100
AcDbLine
 10
-216.6155999999999
 20
-76.45985
 30
0.0
 11
-191.3655999999999
 21
-76.45985
 31
0.0
  0
LINE
  5
3FF
330
1E
100
AcDbEntity
  8
0
  6
DASHED
 62
     1
100
AcDbLine
 10
-216.6155999999999
 20
-75.95985
 30
0.0
 11
-204.3309
 21
-75.95985
 31
0.0
  0
LINE
  5
400
330
1E
100
AcDbEntity
  8
0
  6
CONTINUOUS
 62
     1
100
AcDbLine
 10
-216.6155999999999
 20
-66.45985
 30
0.0
 11
-191.3655999999999
 21
-66.45985
 31
0.0
  0
LINE
  5
401
330
1E
100
AcDbEntity
  8
0
  6
DASHED
 62
     1
100
AcDbLine
 10
-216.6155999999999
 20
-65.95985
 30
0.0
 11
-204.3309
 21
-65.95985
 31
0.0
  0
LINE
  5
402
330
1E
100
AcDbEntity
  8
0
  6
CONTINUOUS
 62
     1
100
AcDbLine
 10
-216.6155999999999
 20
-46.45985
 30
0.0
 11
-163.8656
 21
-46.45985
 31
0.0
  0
LINE
  5
403
330
1E
100
AcDbEntity
  8
0
  6
CONTINUOUS
 62
     1
100
AcDbLine
 10
-203.8656
 20
-86.45985000000001
 30
0.0
 11
-203.8656
 21
-33.70985
 31
0.0
  0
LINE
  5
404
330
1E
100
AcDbEntity
  8
0
  6
CONTINUOUS
 62
     1
100
AcDbLine
 10
-215.1155999999999
 20
-86.45985000000001
 30
0.0
 11
-215.1155999999999
 21
-33.70985
 31
0.0
  0
LINE
  5
405
330
1E
100
AcDbEntity
  8
0
  6
CONTINUOUS
 62
     1
100
AcDbLine
 10
-216.6155999999999
 20
-35.20985
 30
0.0
 11
-163.8656
 21
-35.20985
 31
0.0
  0
LINE
  5
406
330
1E
100
AcDbEntity
  8
0
  6
CONTINUOUS
 62
     7
100
AcDbLine
 10
-174.3677
 20
-43.48114999999999
 30
0.0
 11
-184.3656
 21
-43.48114999999999
 31
0.0
  0
LINE
  5
407
330
1E
100
AcDbEntity
  8
0
  6
CONTINUOUS
 62
     7
100
AcDbLine
 10
-183.1649999999999
 20
-43.15945999999999
 30
0.0
 11
-184.365
 21
-43.481
 31
0.0
  0
LINE
  5
408
330
1E
100
AcDbEntity
  8
0
  6
CONTINUOUS
 62
     7
100
AcDbLine
 10
-184.365
 20
-43.481
 30
0.0
 11
-183.1649999999999
 21
-43.80252999999998
 31
0.0
  0
LINE
  5
409
330
1E
100
AcDbEntity
  8
0
  6
CONTINUOUS
 62
     7
100
AcDbLine
 10
-206.7922999999999
 20
-75.95985
 30
0.0
 11
-206.7922999999999
 21
-65.95985
 31
0.0
  0
LINE
  5
40A
330
1E
100
AcDbEntity
  8
0
  6
CONTINUOUS
 62
     7
100
AcDbLine
 10
-206.47046
 20
-67.15900000000001
 30
0.0
 11
-206.7919999999999
 21
-65.959
 31
0.0
  0
LINE
  5
40B
330
1E
100
AcDbEntity
  8
0
  6
CONTINUOUS
 62
     7
100
AcDbLine
 10
-206.7919999999999
 20
-65.959
 30
0.0
 11
-207.1135299999999
 21
-67.15900000000001
 31
0.0
  0
LINE
  5
40C
330
1E
100
AcDbEntity
  8
0
  6
CONTINUOUS
 62
     7
100
AcDbLine
 10
-206.7922999999999
 20
-85.97355
 30
0.0
 11
-206.7922999999999
 21
-75.94039999999998
 31
0.0
  0
LINE
  5
40D
330
1E
100
AcDbEntity
  8
0
  6
CONTINUOUS
 62
     7
100
AcDbLine
 10
-206.47046
 20
-77.14
 30
0.0
 11
-206.7919999999999
 21
-75.94
 31
0.0
  0
LINE
  5
40E
330
1E
100
AcDbEntity
  8
0
  6
CONTINUOUS
 62
     7
100
AcDbLine
 10
-206.7919999999999
 20
-75.94
 30
0.0
 11
-207.1135299999999
 21
-77.14
 31
0.0
  0
LINE
  5
40F
330
1E
100
AcDbEntity
  8
0
  6
CONTINUOUS
 62
     7
100
AcDbLine
 10
-198.38715
 20
-86.47524999999998
 30
0.0
 11
-198.38715
 21
-76.45985
 31
0.0
  0
LINE
  5
410
330
1E
100
AcDbEntity
  8
0
  6
CONTINUOUS
 62
     7
100
AcDbLine
 10
-198.06546
 20
-77.65900000000002
 30
0.0
 11
-198.3869999999999
 21
-76.45900000000001
 31
0.0
  0
LINE
  5
411
330
1E
100
AcDbEntity
  8
0
  6
CONTINUOUS
 62
     7
100
AcDbLine
 10
-198.3869999999999
 20
-76.45900000000001
 30
0.0
 11
-198.70853
 21
-77.65900000000002
 31
0.0
  0
LINE
  5
412
330
1E
100
AcDbEntity
  8
0
  6
CONTINUOUS
 62
     7
100
AcDbLine
 10
-198.38715
 20
-76.47525
 30
0.0
 11
-198.38715
 21
-66.45985
 31
0.0
  0
LINE
  5
413
330
1E
100
AcDbEntity
  8
0
  6
CONTINUOUS
 62
     7
100
AcDbLine
 10
-198.06546
 20
-67.65900000000001
 30
0.0
 11
-198.3869999999999
 21
-66.45900000000001
 31
0.0
  0
LINE
  5
414
330
1E
100
AcDbEntity
  8
0
  6
CONTINUOUS
 62
     7
100
AcDbLine
 10
-198.3869999999999
 20
-66.45900000000001
 30
0.0
 11
-198.70853
 21
-67.65900000000001
 31
0.0
  0
LINE
  5
415
330
1E
100
AcDbEntity
  8
0
  6
CONTINUOUS
 62
     7
100
AcDbLine
 10
-198.38715
 20
-66.47525
 30
0.0
 11
-198.38715
 21
-56.45985
 31
0.0
  0
LINE
  5
416
330
1E
100
AcDbEntity
  8
0
  6
CONTINUOUS
 62
     7
100
AcDbLine
 10
-198.06546
 20
-57.659
 30
0.0
 11
-198.3869999999999
 21
-56.45900000000001
 31
0.0
  0
LINE
  5
417
330
1E
100
AcDbEntity
  8
0
  6
CONTINUOUS
 62
     7
100
AcDbLine
 10
-198.3869999999999
 20
-56.45900000000001
 30
0.0
 11
-198.70853
 21
-57.659
 31
0.0
  0
LINE
  5
418
330
1E
100
AcDbEntity
  8
0
  6
CONTINUOUS
 62
     7
100
AcDbLine
 10
-198.38715
 20
-56.47525
 30
0.0
 11
-198.38715
 21
-46.45985
 31
0.0
  0
LINE
  5
419
330
1E
100
AcDbEntity
  8
0
  6
CONTINUOUS
 62
     7
100
AcDbLine
 10
-198.06546
 20
-47.659
 30
0.0
 11
-198.3869999999999
 21
-46.459
 31
0.0
  0
LINE
  5
41A
330
1E
100
AcDbEntity
  8
0
  6
CONTINUOUS
 62
     7
100
AcDbLine
 10
-198.3869999999999
 20
-46.459
 30
0.0
 11
-198.70853
 21
-47.659
 31
0.0
  0
LINE
  5
41B
330
1E
100
AcDbEntity
  8
0
  6
CONTINUOUS
 62
     7
100
AcDbLine
 10
-193.8656
 20
-51.1584
 30
0.0
 11
-203.8656
 21
-51.1584
 31
0.0
  0
LINE
  5
41C
330
1E
100
AcDbEntity
  8
0
  6
CONTINUOUS
 62
     7
100
AcDbLine
 10
-202.665
 20
-50.83645999999998
 30
0.0
 11
-203.865
 21
-51.158
 31
0.0
  0
LINE
  5
41D
330
1E
100
AcDbEntity
  8
0
  6
CONTINUOUS
 62
     7
100
AcDbLine
 10
-203.865
 20
-51.158
 30
0.0
 11
-202.665
 21
-51.47953
 31
0.0
  0
LINE
  5
41E
330
1E
100
AcDbEntity
  8
0
  6
CONTINUOUS
 62
     7
100
AcDbLine
 10
-183.8656
 20
-51.1584
 30
0.0
 11
-193.8656
 21
-51.1584
 31
0.0
  0
LINE
  5
41F
330
1E
100
AcDbEntity
  8
0
  6
CONTINUOUS
 62
     7
100
AcDbLine
 10
-192.665
 20
-50.83645999999998
 30
0.0
 11
-193.865
 21
-51.158
 31
0.0
  0
LINE
  5
420
330
1E
100
AcDbEntity
  8
0
  6
CONTINUOUS
 62
     7
100
AcDbLine
 10
-193.865
 20
-51.158
 30
0.0
 11
-192.665
 21
-51.47953
 31
0.0
  0
LINE
  5
421
330
1E
100
AcDbEntity
  8
0
  6
CONTINUOUS
 62
     7
100
AcDbLine
 10
-173.8655999999999
 20
-51.1584
 30
0.0
 11
-183.8656
 21
-51.1584
 31
0.0
  0
LINE
  5
422
330
1E
100
AcDbEntity
  8
0
  6
CONTINUOUS
 62
     7
100
AcDbLine
 10
-182.6649999999999
 20
-50.83645999999998
 30
0.0
 11
-183.865
 21
-51.158
 31
0.0
  0
LINE
  5
423
330
1E
100
AcDbEntity
  8
0
  6
CONTINUOUS
 62
     7
100
AcDbLine
 10
-183.865
 20
-51.158
 30
0.0
 11
-182.6649999999999
 21
-51.47953
 31
0.0
  0
LINE
  5
424
330
1E
100
AcDbEntity
  8
0
  6
CONTINUOUS
 62
     7
100
AcDbLine
 10
-163.8656
 20
-51.1584
 30
0.0
 11
-173.8655999999999
 21
-51.1584
 31
0.0
  0
LINE
  5
425
330
1E
100
AcDbEntity
  8
0
  6
CONTINUOUS
 62
     7
100
AcDbLine
 10
-172.665
 20
-50.83645999999998
 30
0.0
 11
-173.8649999999999
 21
-51.158
 31
0.0
  0
LINE
  5
426
330
1E
100
AcDbEntity
  8
0
  6
CONTINUOUS
 62
     7
100
AcDbLine
 10
-173.8649999999999
 20
-51.158
 30
0.0
 11
-172.665
 21
-51.47953
 31
0.0
  0
LINE
  5
427
330
1E
100
AcDbEntity
  8
0
  6
CONTINUOUS
 62
     1
100
AcDbLine
 10
-206.3695999999999
 20
63.4054
 30
0.0
 11
-206.3695999999999
 21
98.65540000000001
 31
0.0
  0
LINE
  5
428
330
1E
100
AcDbEntity
  8
0
  6
DASHED
 62
     1
100
AcDbLine
 10
-205.8695999999999
 20
63.4054
 30
0.0
 11
-205.8695999999999
 21
75.73895
 31
0.0
  0
LINE
  5
429
330
1E
100
AcDbEntity
  8
0
  6
CONTINUOUS
 62
     1
100
AcDbLine
 10
-196.3695999999999
 20
63.4054
 30
0.0
 11
-196.3695999999999
 21
98.65540000000001
 31
0.0
  0
LINE
  5
42A
330
1E
100
AcDbEntity
  8
0
  6
DASHED
 62
     1
100
AcDbLine
 10
-195.8695999999999
 20
63.4054
 30
0.0
 11
-195.8695999999999
 21
75.73895
 31
0.0
  0
LINE
  5
42B
330
1E
100
AcDbEntity
  8
0
  6
CONTINUOUS
 62
     1
100
AcDbLine
 10
-186.3696
 20
63.4054
 30
0.0
 11
-186.3696
 21
98.65540000000001
 31
0.0
  0
LINE
  5
42C
330
1E
100
AcDbEntity
  8
0
  6
DASHED
 62
     1
100
AcDbLine
 10
-185.8695999999999
 20
63.4054
 30
0.0
 11
-185.8695999999999
 21
75.73895
 31
0.0
  0
LINE
  5
42D
330
1E
100
AcDbEntity
  8
0
  6
CONTINUOUS
 62
     1
100
AcDbLine
 10
-176.3695999999999
 20
63.4054
 30
0.0
 11
-176.3695999999999
 21
98.65540000000001
 31
0.0
  0
LINE
  5
42E
330
1E
100
AcDbEntity
  8
0
  6
CONTINUOUS
 62
     7
100
AcDbLine
 10
-195.8695999999999
 20
71.2231
 30
0.0
 11
-205.8695999999999
 21
71.2231
 31
0.0
  0
LINE
  5
42F
330
1E
100
AcDbEntity
  8
0
  6
CONTINUOUS
 62
     7
100
AcDbLine
 10
-204.669
 20
71.54453000000002
 30
0.0
 11
-205.8689999999999
 21
71.223
 31
0.0
  0
LINE
  5
430
330
1E
100
AcDbEntity
  8
0
  6
CONTINUOUS
 62
     7
100
AcDbLine
 10
-205.8689999999999
 20
71.223
 30
0.0
 11
-204.669
 21
70.90146
 31
0.0
  0
LINE
  5
431
330
1E
100
AcDbEntity
  8
0
  6
CONTINUOUS
 62
     7
100
AcDbLine
 10
-185.8695999999999
 20
71.2231
 30
0.0
 11
-195.8695999999999
 21
71.2231
 31
0.0
  0
LINE
  5
432
330
1E
100
AcDbEntity
  8
0
  6
CONTINUOUS
 62
     7
100
AcDbLine
 10
-194.669
 20
71.54453000000002
 30
0.0
 11
-195.8689999999999
 21
71.223
 31
0.0
  0
LINE
  5
433
330
1E
100
AcDbEntity
  8
0
  6
CONTINUOUS
 62
     7
100
AcDbLine
 10
-195.8689999999999
 20
71.223
 30
0.0
 11
-194.669
 21
70.90146
 31
0.0
  0
LINE
  5
434
330
1E
100
AcDbEntity
  8
0
  6
CONTINUOUS
 62
     7
100
AcDbLine
 10
-151.3576
 20
71.23065
 30
0.0
 11
-185.8695999999999
 21
71.2631
 31
0.0
  0
LINE
  5
435
330
1E
100
AcDbEntity
  8
0
  6
CONTINUOUS
 62
     7
100
AcDbLine
 10
-184.6686899999999
 20
71.58341
 30
0.0
 11
-185.8689999999999
 21
71.263
 31
0.0
  0
LINE
  5
436
330
1E
100
AcDbEntity
  8
0
  6
CONTINUOUS
 62
     7
100
AcDbLine
 10
-185.8689999999999
 20
71.263
 30
0.0
 11
-184.6692999999999
 21
70.94033
 31
0.0
  0
LINE
  5
437
330
1E
100
AcDbEntity
  8
0
  6
CONTINUOUS
 62
     7
100
AcDbLine
 10
-206.3695999999999
 20
87.54980000000001
 30
0.0
 11
-216.3695999999999
 21
87.54980000000001
 31
0.0
  0
LINE
  5
438
330
1E
100
AcDbEntity
  8
0
  6
CONTINUOUS
 62
     7
100
AcDbLine
 10
-215.169
 20
87.87053
 30
0.0
 11
-216.3689999999999
 21
87.54900000000002
 31
0.0
  0
LINE
  5
439
330
1E
100
AcDbEntity
  8
0
  6
CONTINUOUS
 62
     7
100
AcDbLine
 10
-216.3689999999999
 20
87.54900000000002
 30
0.0
 11
-215.169
 21
87.22745999999999
 31
0.0
  0
LINE
  5
43A
330
1E
100
AcDbEntity
  8
0
  6
CONTINUOUS
 62
     7
100
AcDbLine
 10
-196.3695999999999
 20
87.54980000000001
 30
0.0
 11
-206.3695999999999
 21
87.54980000000001
 31
0.0
  0
LINE
  5
43B
330
1E
100
AcDbEntity
  8
0
  6
CONTINUOUS
 62
     7
100
AcDbLine
 10
-205.169
 20
87.87053
 30
0.0
 11
-206.369
 21
87.54900000000002
 31
0.0
  0
LINE
  5
43C
330
1E
100
AcDbEntity
  8
0
  6
CONTINUOUS
 62
     7
100
AcDbLine
 10
-206.369
 20
87.54900000000002
 30
0.0
 11
-205.169
 21
87.22745999999999
 31
0.0
  0
LINE
  5
43D
330
1E
100
AcDbEntity
  8
0
  6
CONTINUOUS
 62
     7
100
AcDbLine
 10
-186.3696
 20
87.54980000000001
 30
0.0
 11
-196.3695999999999
 21
87.54980000000001
 31
0.0
  0
LINE
  5
43E
330
1E
100
AcDbEntity
  8
0
  6
CONTINUOUS
 62
     7
100
AcDbLine
 10
-195.169
 20
87.87053
 30
0.0
 11
-196.3689999999999
 21
87.54900000000002
 31
0.0
  0
LINE
  5
43F
330
1E
100
AcDbEntity
  8
0
  6
CONTINUOUS
 62
     7
100
AcDbLine
 10
-196.3689999999999
 20
87.54900000000002
 30
0.0
 11
-195.169
 21
87.22745999999999
 31
0.0
  0
LINE
  5
440
330
1E
100
AcDbEntity
  8
0
  6
CONTINUOUS
 62
     7
100
AcDbLine
 10
-176.3695999999999
 20
87.54980000000001
 30
0.0
 11
-186.3696
 21
87.54980000000001
 31
0.0
  0
LINE
  5
441
330
1E
100
AcDbEntity
  8
0
  6
CONTINUOUS
 62
     7
100
AcDbLine
 10
-185.1689999999999
 20
87.87053
 30
0.0
 11
-186.369
 21
87.54900000000002
 31
0.0
  0
LINE
  5
442
330
1E
100
AcDbEntity
  8
0
  6
CONTINUOUS
 62
     7
100
AcDbLine
 10
-186.369
 20
87.54900000000002
 30
0.0
 11
-185.1689999999999
 21
87.22745999999999
 31
0.0
  0
LINE
  5
443
330
1E
100
AcDbEntity
  8
0
  6
CONTINUOUS
 62
     7
100
AcDbLine
 10
-228.8656
 20
61.1554
 30
0.0
 11
-228.8656
 21
65.3993
 31
0.0
  0
LINE
  5
444
330
1E
100
AcDbEntity
  8
0
  6
CONTINUOUS
 62
     7
100
AcDbLine
 10
-219.8656
 20
65.3993
 30
0.0
 11
-229.6656
 21
65.3993
 31
0.0
  0
LINE
  5
445
330
1E
100
AcDbEntity
  8
0
  6
CONTINUOUS
 62
     7
100
AcDbLine
 10
-226.8102499999999
 20
61.1554
 30
0.0
 11
-229.6656
 21
61.1554
 31
0.0
  0
LINE
  5
446
330
1E
100
AcDbEntity
  8
0
  6
CONTINUOUS
 62
     7
100
AcDbLine
 10
-228.54346
 20
64.199
 30
0.0
 11
-228.865
 21
65.399
 31
0.0
  0
LINE
  5
447
330
1E
100
AcDbEntity
  8
0
  6
CONTINUOUS
 62
     7
100
AcDbLine
 10
-228.865
 20
65.399
 30
0.0
 11
-229.1865299999999
 21
64.199
 31
0.0
  0
LINE
  5
448
330
1E
100
AcDbEntity
  8
0
  6
CONTINUOUS
 62
     7
100
AcDbLine
 10
-229.1865299999999
 20
62.355
 30
0.0
 11
-228.865
 21
61.155
 31
0.0
  0
LINE
  5
449
330
1E
100
AcDbEntity
  8
0
  6
CONTINUOUS
 62
     7
100
AcDbLine
 10
-228.865
 20
61.155
 30
0.0
 11
-228.54346
 21
62.355
 31
0.0
  0
TEXT
  5
44A
330
1E
100
AcDbEntity
  8
0
  6
CONTINUOUS
 62
     7
100
AcDbText
 10
-229.2656
 20
60.93735
 30
0.0
 40
3.2
  1
85
 50
90.0
 41
0.8125
  7
BIGFONT
100
AcDbText
  0
LINE
  5
44B
330
1E
100
AcDbEntity
  8
0
  6
CONTINUOUS
 62
     7
100
AcDbLine
 10
-228.8656
 20
65.3993
 30
0.0
 11
-228.8656
 21
95.38590000000001
 31
0.0
  0
LINE
  5
44C
330
1E
100
AcDbEntity
  8
0
  6
CONTINUOUS
 62
     7
100
AcDbLine
 10
-219.7156
 20
95.38590000000001
 30
0.0
 11
-229.6656
 21
95.38590000000001
 31
0.0
  0
LINE
  5
44D
330
1E
100
AcDbEntity
  8
0
  6
CONTINUOUS
 62
     7
100
AcDbLine
 10
-228.54346
 20
94.18499999999999
 30
0.0
 11
-228.865
 21
95.385
 31
0.0
  0
LINE
  5
44E
330
1E
100
AcDbEntity
  8
0
  6
CONTINUOUS
 62
     7
100
AcDbLine
 10
-228.865
 20
95.385
 30
0.0
 11
-229.1865299999999
 21
94.18499999999999
 31
0.0
  0
LINE
  5
44F
330
1E
100
AcDbEntity
  8
0
  6
CONTINUOUS
 62
     7
100
AcDbLine
 10
-229.1865299999999
 20
66.59899999999999
 30
0.0
 11
-228.865
 21
65.399
 31
0.0
  0
LINE
  5
450
330
1E
100
AcDbEntity
  8
0
  6
CONTINUOUS
 62
     7
100
AcDbLine
 10
-228.865
 20
65.399
 30
0.0
 11
-228.54346
 21
66.59899999999999
 31
0.0
  0
LINE
  5
451
330
1E
100
AcDbEntity
  8
0
  6
CONTINUOUS
 62
     1
100
AcDbLine
 10
-78.883
 20
63.3054
 30
0.0
 11
-78.883
 21
121.1554
 31
0.0
  0
LINE
  5
452
330
1E
100
AcDbEntity
  8
0
  6
CONTINUOUS
 62
     1
100
AcDbLine
 10
-68.883
 20
63.3054
 30
0.0
 11
-68.883
 21
121.1554
 31
0.0
  0
LINE
  5
453
330
1E
100
AcDbEntity
  8
0
  6
CONTINUOUS
 62
     1
100
AcDbLine
 10
-58.883
 20
63.3054
 30
0.0
 11
-58.883
 21
121.1554
 31
0.0
  0
LINE
  5
454
330
1E
100
AcDbEntity
  8
0
  6
CONTINUOUS
 62
     7
100
AcDbLine
 10
-78.883
 20
95.87415
 30
0.0
 11
-88.88299999999999
 21
95.87415
 31
0.0
  0
LINE
  5
455
330
1E
100
AcDbEntity
  8
0
  6
CONTINUOUS
 62
     7
100
AcDbLine
 10
-87.68300000000001
 20
96.19553000000001
 30
0.0
 11
-88.88299999999999
 21
95.874
 31
0.0
  0
LINE
  5
456
330
1E
100
AcDbEntity
  8
0
  6
CONTINUOUS
 62
     7
100
AcDbLine
 10
-88.88299999999999
 20
95.874
 30
0.0
 11
-87.68300000000001
 21
95.55246
 31
0.0
  0
LINE
  5
457
330
1E
100
AcDbEntity
  8
0
  6
CONTINUOUS
 62
     7
100
AcDbLine
 10
-68.883
 20
95.87415
 30
0.0
 11
-78.883
 21
95.87415
 31
0.0
  0
LINE
  5
458
330
1E
100
AcDbEntity
  8
0
  6
CONTINUOUS
 62
     7
100
AcDbLine
 10
-78.883
 20
95.87415
 30
0.0
 11
-81.28300000000001
 21
95.87415
 31
0.0
  0
LINE
  5
459
330
1E
100
AcDbEntity
  8
0
  6
CONTINUOUS
 62
     7
100
AcDbLine
 10
-77.683
 20
96.19553000000001
 30
0.0
 11
-78.883
 21
95.874
 31
0.0
  0
LINE
  5
45A
330
1E
100
AcDbEntity
  8
0
  6
CONTINUOUS
 62
     7
100
AcDbLine
 10
-78.883
 20
95.874
 30
0.0
 11
-77.683
 21
95.55246
 31
0.0
  0
LINE
  5
45B
330
1E
100
AcDbEntity
  8
0
  6
CONTINUOUS
 62
     7
100
AcDbLine
 10
-58.883
 20
95.87415
 30
0.0
 11
-68.883
 21
95.87415
 31
0.0
  0
LINE
  5
45C
330
1E
100
AcDbEntity
  8
0
  6
CONTINUOUS
 62
     7
100
AcDbLine
 10
-67.683
 20
96.19553000000001
 30
0.0
 11
-68.883
 21
95.874
 31
0.0
  0
LINE
  5
45D
330
1E
100
AcDbEntity
  8
0
  6
CONTINUOUS
 62
     7
100
AcDbLine
 10
-68.883
 20
95.874
 30
0.0
 11
-67.683
 21
95.55246
 31
0.0
  0
LINE
  5
45E
330
1E
100
AcDbEntity
  8
0
  6
CONTINUOUS
 62
     7
100
AcDbLine
 10
-73.825
 20
101.9054
 30
0.0
 11
-73.825
 21
89.4054
 31
0.0
  0
LINE
  5
45F
330
1E
100
AcDbEntity
  8
0
  6
CONTINUOUS
 62
     7
100
AcDbLine
 10
-74.14653
 20
90.60500000000001
 30
0.0
 11
-73.825
 21
89.405
 31
0.0
  0
LINE
  5
460
330
1E
100
AcDbEntity
  8
0
  6
CONTINUOUS
 62
     7
100
AcDbLine
 10
-73.825
 20
89.405
 30
0.0
 11
-73.50346
 21
90.60500000000001
 31
0.0
  0
LINE
  5
461
330
1E
100
AcDbEntity
  8
0
  6
CONTINUOUS
 62
     7
100
AcDbLine
 10
-73.825
 20
114.4054
 30
0.0
 11
-73.825
 21
101.9054
 31
0.0
  0
LINE
  5
462
330
1E
100
AcDbEntity
  8
0
  6
CONTINUOUS
 62
     7
100
AcDbLine
 10
-74.14653
 20
103.105
 30
0.0
 11
-73.825
 21
101.905
 31
0.0
  0
LINE
  5
463
330
1E
100
AcDbEntity
  8
0
  6
CONTINUOUS
 62
     7
100
AcDbLine
 10
-73.825
 20
101.905
 30
0.0
 11
-73.50346
 21
103.105
 31
0.0
  0
LINE
  5
464
330
1E
100
AcDbEntity
  8
0
  6
CONTINUOUS
 62
     1
100
AcDbLine
 10
-81.18644999999999
 20
76.9054
 30
0.0
 11
-65.94045
 21
76.9054
 31
0.0
  0
LINE
  5
465
330
1E
100
AcDbEntity
  8
0
  6
CONTINUOUS
 62
     1
100
AcDbLine
 10
-98.883
 20
76.9054
 30
0.0
 11
-81.18644999999999
 21
76.9054
 31
0.0
  0
LINE
  5
466
330
1E
100
AcDbEntity
  8
0
  6
CONTINUOUS
 62
     1
100
AcDbLine
 10
-65.94045
 20
76.9054
 30
0.0
 11
-47.6095
 21
76.9054
 31
0.0
  0
LINE
  5
467
330
1E
100
AcDbEntity
  8
0
  6
CONTINUOUS
 62
     1
100
AcDbLine
 10
-81.18644999999999
 20
89.4054
 30
0.0
 11
-65.94045
 21
89.4054
 31
0.0
  0
LINE
  5
468
330
1E
100
AcDbEntity
  8
0
  6
CONTINUOUS
 62
     1
100
AcDbLine
 10
-98.883
 20
89.4054
 30
0.0
 11
-81.18644999999999
 21
89.4054
 31
0.0
  0
LINE
  5
469
330
1E
100
AcDbEntity
  8
0
  6
CONTINUOUS
 62
     1
100
AcDbLine
 10
-65.94045
 20
89.4054
 30
0.0
 11
-47.6095
 21
89.4054
 31
0.0
  0
LINE
  5
46A
330
1E
100
AcDbEntity
  8
0
  6
CONTINUOUS
 62
     1
100
AcDbLine
 10
-81.18644999999999
 20
101.9054
 30
0.0
 11
-65.94045
 21
101.9054
 31
0.0
  0
LINE
  5
46B
330
1E
100
AcDbEntity
  8
0
  6
CONTINUOUS
 62
     1
100
AcDbLine
 10
-98.883
 20
101.9054
 30
0.0
 11
-81.18644999999999
 21
101.9054
 31
0.0
  0
LINE
  5
46C
330
1E
100
AcDbEntity
  8
0
  6
CONTINUOUS
 62
     1
100
AcDbLine
 10
-65.94045
 20
101.9054
 30
0.0
 11
-47.6095
 21
101.9054
 31
0.0
  0
LINE
  5
46D
330
1E
100
AcDbEntity
  8
0
  6
CONTINUOUS
 62
     1
100
AcDbLine
 10
-81.18644999999999
 20
114.4054
 30
0.0
 11
-65.94045
 21
114.4054
 31
0.0
  0
LINE
  5
46E
330
1E
100
AcDbEntity
  8
0
  6
CONTINUOUS
 62
     1
100
AcDbLine
 10
-98.883
 20
114.4054
 30
0.0
 11
-81.18644999999999
 21
114.4054
 31
0.0
  0
LINE
  5
46F
330
1E
100
AcDbEntity
  8
0
  6
CONTINUOUS
 62
     1
100
AcDbLine
 10
-65.94045
 20
114.4054
 30
0.0
 11
-47.6095
 21
114.4054
 31
0.0
  0
POINT
  5
470
330
1E
100
AcDbEntity
  8
0
  6
CONTINUOUS
 62
     1
100
AcDbPoint
 10
33.95
 20
114.3819
 30
0.0
  0
POINT
  5
471
330
1E
100
AcDbEntity
  8
0
  6
CONTINUOUS
 62
     1
100
AcDbPoint
 10
33.95
 20
101.8819
 30
0.0
  0
POINT
  5
472
330
1E
100
AcDbEntity
  8
0
  6
CONTINUOUS
 62
     1
100
AcDbPoint
 10
33.95
 20
89.3819
 30
0.0
  0
POINT
  5
473
330
1E
100
AcDbEntity
  8
0
  6
CONTINUOUS
 62
     1
100
AcDbPoint
 10
33.95
 20
76.8819
 30
0.0
  0
POINT
  5
474
330
1E
100
AcDbEntity
  8
0
  6
CONTINUOUS
 62
     1
100
AcDbPoint
 10
32.61504999999999
 20
80.4054
 30
0.0
  0
LINE
  5
475
330
1E
100
AcDbEntity
  8
0
  6
CONTINUOUS
 62
     7
100
AcDbLine
 10
-33.9107
 20
-51.49405
 30
0.0
 11
-46.333
 21
-51.49405
 31
0.0
  0
LINE
  5
476
330
1E
100
AcDbEntity
  8
0
  6
CONTINUOUS
 62
     7
100
AcDbLine
 10
-45.133
 20
-51.17246
 30
0.0
 11
-46.333
 21
-51.49399999999999
 31
0.0
  0
LINE
  5
477
330
1E
100
AcDbEntity
  8
0
  6
CONTINUOUS
 62
     7
100
AcDbLine
 10
-46.333
 20
-51.49399999999999
 30
0.0
 11
-45.133
 21
-51.81553
 31
0.0
  0
CIRCLE
  5
478
330
1E
100
AcDbEntity
  8
0
  6
CONTINUOUS
 62
     7
100
AcDbCircle
 10
44.12639999999998
 20
136.1430499999999
 30
0.0
 40
2.5
  0
TEXT
  5
479
330
1E
100
AcDbEntity
  8
0
  6
CONTINUOUS
 62
     7
100
AcDbText
 10
42.63799999999998
 20
134.4105999999999
 30
0.0
 40
3.2
  1
５
  7
BIGFONT
100
AcDbText
  0
TEXT
  5
47A
330
1E
100
AcDbEntity
  8
0
  6
CONTINUOUS
 62
     7
100
AcDbText
 10
47.38294999999999
 20
134.5055
 30
0.0
 40
3.2
  1
D10
  7
BIGFONT
100
AcDbText
  0
LINE
  5
47B
330
1E
100
AcDbEntity
  8
0
  6
CONTINUOUS
 62
     7
100
AcDbLine
 10
41.08195
 20
133.6391499999999
 30
0.0
 11
56.08195
 21
133.6391499999999
 31
0.0
  0
LINE
  5
47C
330
1E
100
AcDbEntity
  8
0
  6
CONTINUOUS
 62
     7
100
AcDbLine
 10
41.08195
 20
133.6391499999999
 30
0.0
 11
33.95
 21
121.1319
 31
0.0
  0
LINE
  5
47D
330
1E
100
AcDbEntity
  8
0
  6
CONTINUOUS
 62
     7
100
AcDbLine
 10
34.26509999999999
 20
122.3327
 30
0.0
 11
33.95
 21
121.131
 31
0.0
  0
LINE
  5
47E
330
1E
100
AcDbEntity
  8
0
  6
CONTINUOUS
 62
     7
100
AcDbLine
 10
33.95
 20
121.131
 30
0.0
 11
34.82372999999999
 21
122.0141499999999
 31
0.0
  0
TEXT
  5
47F
330
1E
100
AcDbEntity
  8
0
  6
CONTINUOUS
 62
     7
100
AcDbText
 10
-108.54255
 20
-23.0521
 30
0.0
 40
3.2
  1
55
  7
BIGFONT
100
AcDbText
  0
TEXT
  5
480
330
1E
100
AcDbEntity
  8
0
  6
CONTINUOUS
 62
     7
100
AcDbText
 10
-100.9218
 20
-23.0421
 30
0.0
 40
3.2
  1
20
  7
BIGFONT
100
AcDbText
  0
LINE
  5
481
330
1E
100
AcDbEntity
  8
0
  6
CONTINUOUS
 62
     1
100
AcDbLine
 10
-97.583
 20
-86.45985000000001
 30
0.0
 11
-97.583
 21
-34.29565
 31
0.0
  0
LINE
  5
482
330
1E
100
AcDbEntity
  8
0
  6
CONTINUOUS
 62
     1
100
AcDbLine
 10
-98.49720000000001
 20
-35.20985
 30
0.0
 11
-46.333
 21
-35.20985
 31
0.0
  0
LINE
  5
483
330
1E
100
AcDbEntity
  8
0
  6
CONTINUOUS
 62
     7
100
AcDbLine
 10
-81.3274
 20
-98.92125
 30
0.0
 11
-81.3274
 21
-86.45985000000001
 31
0.0
  0
LINE
  5
484
330
1E
100
AcDbEntity
  8
0
  6
CONTINUOUS
 62
     7
100
AcDbLine
 10
-81.00545999999999
 20
-87.659
 30
0.0
 11
-81.32699999999998
 21
-86.45900000000002
 31
0.0
  0
LINE
  5
485
330
1E
100
AcDbEntity
  8
0
  6
CONTINUOUS
 62
     7
100
AcDbLine
 10
-81.32699999999998
 20
-86.45900000000002
 30
0.0
 11
-81.64853
 21
-87.659
 31
0.0
  0
LINE
  5
486
330
1E
100
AcDbEntity
  8
0
  6
CONTINUOUS
 62
     7
100
AcDbLine
 10
-108.8624499999999
 20
-61.47885
 30
0.0
 11
-98.58299999999999
 21
-61.47885
 31
0.0
  0
LINE
  5
487
330
1E
100
AcDbEntity
  8
0
  6
CONTINUOUS
 62
     7
100
AcDbLine
 10
-99.783
 20
-61.79953000000001
 30
0.0
 11
-98.58299999999999
 21
-61.478
 31
0.0
  0
LINE
  5
488
330
1E
100
AcDbEntity
  8
0
  6
CONTINUOUS
 62
     7
100
AcDbLine
 10
-98.58299999999999
 20
-61.478
 30
0.0
 11
-99.783
 21
-61.15645999999999
 31
0.0
  0
LINE
  5
489
330
1E
100
AcDbEntity
  8
0
  6
CONTINUOUS
 62
     7
100
AcDbLine
 10
-98.6048
 20
-30.52659999999999
 30
0.0
 11
-98.6048
 21
-22.677
 31
0.0
  0
POINT
  5
48A
330
1E
100
AcDbEntity
  8
0
  6
CONTINUOUS
 62
     7
100
AcDbPoint
 10
-98.6048
 20
-23.45985
 30
0.0
  0
LINE
  5
48B
330
1E
100
AcDbEntity
  8
0
  6
CONTINUOUS
 62
     7
100
AcDbLine
 10
-108.3466999999999
 20
-23.45985
 30
0.0
 11
-101.333
 21
-23.45985
 31
0.0
  0
LINE
  5
48C
330
1E
100
AcDbEntity
  8
0
  6
CONTINUOUS
 62
     7
100
AcDbLine
 10
-102.5329999999998
 20
-23.78052999999999
 30
0.0
 11
-101.333
 21
-23.45899999999998
 31
0.0
  0
LINE
  5
48D
330
1E
100
AcDbEntity
  8
0
  6
CONTINUOUS
 62
     7
100
AcDbLine
 10
-101.333
 20
-23.45899999999998
 30
0.0
 11
-102.5329999999998
 21
-23.13746
 31
0.0
  0
LINE
  5
48E
330
1E
100
AcDbEntity
  8
0
  6
CONTINUOUS
 62
     7
100
AcDbLine
 10
-101.333
 20
-23.45985
 30
0.0
 11
-97.44880000000001
 21
-23.45985
 31
0.0
  0
TEXT
  5
48F
330
1E
100
AcDbEntity
  8
0
  6
CONTINUOUS
 62
     7
100
AcDbText
 10
-90.7022
 20
44.02879999999998
 30
0.0
 40
3.2
  1
4×200=800
  7
BIGFONT
100
AcDbText
  0
LINE
  5
490
330
1E
100
AcDbEntity
  8
0
  6
CONTINUOUS
 62
     7
100
AcDbLine
 10
-33.9107
 20
95.87415
 30
0.0
 11
-47.62125
 21
95.87415
 31
0.0
  0
LINE
  5
491
330
1E
100
AcDbEntity
  8
0
  6
CONTINUOUS
 62
     7
100
AcDbLine
 10
-46.42100000000001
 20
96.19553000000001
 30
0.0
 11
-47.621
 21
95.874
 31
0.0
  0
LINE
  5
492
330
1E
100
AcDbEntity
  8
0
  6
CONTINUOUS
 62
     7
100
AcDbLine
 10
-47.621
 20
95.874
 30
0.0
 11
-46.42100000000001
 21
95.55246
 31
0.0
  0
POINT
  5
493
330
1E
100
AcDbEntity
  8
0
  6
CONTINUOUS
 62
     1
100
AcDbPoint
 10
55.0
 20
63.78325
 30
0.0
  0
LINE
  5
494
330
1E
100
AcDbEntity
  8
0
  6
DASHED
 62
     1
100
AcDbLine
 10
-216.6155999999999
 20
-55.95985
 30
0.0
 11
-204.3309
 21
-55.95985
 31
0.0
  0
LINE
  5
495
330
1E
100
AcDbEntity
  8
0
  6
CONTINUOUS
 62
     7
100
AcDbLine
 10
-206.7922999999999
 20
-65.95985
 30
0.0
 11
-206.7922999999999
 21
-55.95985
 31
0.0
  0
LINE
  5
496
330
1E
100
AcDbEntity
  8
0
  6
CONTINUOUS
 62
     7
100
AcDbLine
 10
-206.47046
 20
-57.159
 30
0.0
 11
-206.7919999999999
 21
-55.959
 31
0.0
  0
LINE
  5
497
330
1E
100
AcDbEntity
  8
0
  6
CONTINUOUS
 62
     7
100
AcDbLine
 10
-206.7919999999999
 20
-55.959
 30
0.0
 11
-207.1135299999999
 21
-57.159
 31
0.0
  0
LINE
  5
498
330
1E
100
AcDbEntity
  8
0
  6
CONTINUOUS
 62
     7
100
AcDbLine
 10
-184.3677
 20
-43.48114999999999
 30
0.0
 11
-194.3656
 21
-43.48114999999999
 31
0.0
  0
LINE
  5
499
330
1E
100
AcDbEntity
  8
0
  6
CONTINUOUS
 62
     7
100
AcDbLine
 10
-193.1649999999999
 20
-43.15945999999999
 30
0.0
 11
-194.365
 21
-43.481
 31
0.0
  0
LINE
  5
49A
330
1E
100
AcDbEntity
  8
0
  6
CONTINUOUS
 62
     7
100
AcDbLine
 10
-194.365
 20
-43.481
 30
0.0
 11
-193.1649999999999
 21
-43.80252999999998
 31
0.0
  0
LINE
  5
49B
330
1E
100
AcDbEntity
  8
0
  6
CONTINUOUS
 62
     1
100
AcDbLine
 10
-81.18644999999999
 20
63.9054
 30
0.0
 11
-65.94045
 21
63.9054
 31
0.0
  0
LINE
  5
49C
330
1E
100
AcDbEntity
  8
0
  6
CONTINUOUS
 62
     1
100
AcDbLine
 10
-98.883
 20
63.9054
 30
0.0
 11
-81.18644999999999
 21
63.9054
 31
0.0
  0
LINE
  5
49D
330
1E
100
AcDbEntity
  8
0
  6
CONTINUOUS
 62
     1
100
AcDbLine
 10
-65.94045
 20
63.9054
 30
0.0
 11
-47.6095
 21
63.9054
 31
0.0
  0
LINE
  5
49E
330
1E
100
AcDbEntity
  8
0
  6
CONTINUOUS
 62
     7
100
AcDbLine
 10
-112.1534
 20
63.90489999999999
 30
0.0
 11
-102.29645
 21
63.90489999999999
 31
0.0
  0
POINT
  5
49F
330
1E
100
AcDbEntity
  8
0
  6
CONTINUOUS
 62
     7
100
AcDbPoint
 10
-111.3329999999999
 20
63.90489999999999
 30
0.0
  0
LINE
  5
4A0
330
1E
100
AcDbEntity
  8
0
  6
CONTINUOUS
 62
     7
100
AcDbLine
 10
-111.3329999999999
 20
57.28575
 30
0.0
 11
-111.3329999999999
 21
69.20305
 31
0.0
  0
TEXT
  5
4A1
330
1E
100
AcDbEntity
  8
0
  6
CONTINUOUS
 62
     7
100
AcDbText
 10
-111.7383999999999
 20
53.7875
 30
0.0
 40
3.2
  1
55
 50
90.0
  7
BIGFONT
100
AcDbText
  0
LINE
  5
4A2
330
1E
100
AcDbEntity
  8
0
  6
CONTINUOUS
 62
     7
100
AcDbLine
 10
-111.3329999999999
 20
54.30675
 30
0.0
 11
-111.3329999999999
 21
61.14650000000001
 31
0.0
  0
LINE
  5
4A3
330
1E
100
AcDbEntity
  8
0
  6
CONTINUOUS
 62
     7
100
AcDbLine
 10
-111.3329999999999
 20
61.14650000000001
 30
0.0
 11
-111.3329999999999
 21
63.5465
 31
0.0
  0
LINE
  5
4A4
330
1E
100
AcDbEntity
  8
0
  6
CONTINUOUS
 62
     7
100
AcDbLine
 10
-111.01146
 20
59.94600000000001
 30
0.0
 11
-111.3329999999999
 21
61.146
 31
0.0
  0
LINE
  5
4A5
330
1E
100
AcDbEntity
  8
0
  6
CONTINUOUS
 62
     7
100
AcDbLine
 10
-111.3329999999999
 20
61.146
 30
0.0
 11
-111.65453
 21
59.94600000000001
 31
0.0
  0
CIRCLE
  5
4A6
330
1E
100
AcDbEntity
  8
0
  6
CONTINUOUS
 62
     7
100
AcDbCircle
 10
-80.5752
 20
53.72575
 30
0.0
 40
2.5
  0
TEXT
  5
4A7
330
1E
100
AcDbEntity
  8
0
  6
CONTINUOUS
 62
     7
100
AcDbText
 10
-82.12945000000003
 20
51.98755
 30
0.0
 40
3.2
  1
３
  7
BIGFONT
100
AcDbText
  0
TEXT
  5
4A8
330
1E
100
AcDbEntity
  8
0
  6
CONTINUOUS
 62
     7
100
AcDbText
 10
-76.98199999999999
 20
52.1
 30
0.0
 40
3.2
  1
D10
  7
BIGFONT
100
AcDbText
  0
LINE
  5
4A9
330
1E
100
AcDbEntity
  8
0
  6
CONTINUOUS
 62
     7
100
AcDbLine
 10
-83.88299999999999
 20
51.22835
 30
0.0
 11
-68.883
 21
51.22835
 31
0.0
  0
LINE
  5
4AA
330
1E
100
AcDbEntity
  8
0
  6
CONTINUOUS
 62
     7
100
AcDbLine
 10
-83.88299999999999
 20
51.22835
 30
0.0
 11
-83.88299999999999
 21
63.9054
 31
0.0
  0
LINE
  5
4AB
330
1E
100
AcDbEntity
  8
0
  6
CONTINUOUS
 62
     7
100
AcDbLine
 10
-83.56146
 20
62.705
 30
0.0
 11
-83.88299999999999
 21
63.905
 31
0.0
  0
LINE
  5
4AC
330
1E
100
AcDbEntity
  8
0
  6
CONTINUOUS
 62
     7
100
AcDbLine
 10
-83.88299999999999
 20
63.905
 30
0.0
 11
-84.20453
 21
62.705
 31
0.0
  0
LINE
  5
4AD
330
1E
100
AcDbEntity
  8
0
  6
CONTINUOUS
 62
     1
100
AcDbLine
 10
-210.1156
 20
-86.45985000000001
 30
0.0
 11
-210.1156
 21
-33.70985
 31
0.0
  0
LINE
  5
4AE
330
1E
100
AcDbEntity
  8
0
  6
CONTINUOUS
 62
     1
100
AcDbLine
 10
-216.6155999999999
 20
-40.20985
 30
0.0
 11
-163.8656
 21
-40.20985
 31
0.0
  0
LINE
  5
4AF
330
1E
100
AcDbEntity
  8
0
  6
CONTINUOUS
 62
     7
100
AcDbLine
 10
-198.38715
 20
-40.20985
 30
0.0
 11
-198.38715
 21
-35.20985
 31
0.0
  0
LINE
  5
4B0
330
1E
100
AcDbEntity
  8
0
  6
CONTINUOUS
 62
     7
100
AcDbLine
 10
-198.06546
 20
-36.409
 30
0.0
 11
-198.3869999999999
 21
-35.209
 31
0.0
  0
LINE
  5
4B1
330
1E
100
AcDbEntity
  8
0
  6
CONTINUOUS
 62
     7
100
AcDbLine
 10
-198.3869999999999
 20
-35.209
 30
0.0
 11
-198.70853
 21
-36.409
 31
0.0
  0
LINE
  5
4B2
330
1E
100
AcDbEntity
  8
0
  6
CONTINUOUS
 62
     7
100
AcDbLine
 10
-198.38715
 20
-46.5204
 30
0.0
 11
-198.38715
 21
-40.2099
 31
0.0
  0
LINE
  5
4B3
330
1E
100
AcDbEntity
  8
0
  6
CONTINUOUS
 62
     7
100
AcDbLine
 10
-198.06546
 20
-41.409
 30
0.0
 11
-198.3869999999999
 21
-40.209
 31
0.0
  0
LINE
  5
4B4
330
1E
100
AcDbEntity
  8
0
  6
CONTINUOUS
 62
     7
100
AcDbLine
 10
-198.3869999999999
 20
-40.209
 30
0.0
 11
-198.70853
 21
-41.409
 31
0.0
  0
LINE
  5
4B5
330
1E
100
AcDbEntity
  8
0
  6
CONTINUOUS
 62
     7
100
AcDbLine
 10
-210.1156
 20
-51.1584
 30
0.0
 11
-215.1155999999999
 21
-51.1584
 31
0.0
  0
LINE
  5
4B6
330
1E
100
AcDbEntity
  8
0
  6
CONTINUOUS
 62
     7
100
AcDbLine
 10
-213.9149999999999
 20
-50.83645999999998
 30
0.0
 11
-215.115
 21
-51.158
 31
0.0
  0
LINE
  5
4B7
330
1E
100
AcDbEntity
  8
0
  6
CONTINUOUS
 62
     7
100
AcDbLine
 10
-215.115
 20
-51.158
 30
0.0
 11
-213.9149999999999
 21
-51.47953
 31
0.0
  0
LINE
  5
4B8
330
1E
100
AcDbEntity
  8
0
  6
CONTINUOUS
 62
     7
100
AcDbLine
 10
-203.7517999999999
 20
-51.1584
 30
0.0
 11
-210.1262999999999
 21
-51.1584
 31
0.0
  0
LINE
  5
4B9
330
1E
100
AcDbEntity
  8
0
  6
CONTINUOUS
 62
     7
100
AcDbLine
 10
-208.9259999999999
 20
-50.83645999999998
 30
0.0
 11
-210.1259999999999
 21
-51.158
 31
0.0
  0
LINE
  5
4BA
330
1E
100
AcDbEntity
  8
0
  6
CONTINUOUS
 62
     7
100
AcDbLine
 10
-210.1259999999999
 20
-51.158
 30
0.0
 11
-208.9259999999999
 21
-51.47953
 31
0.0
  0
LINE
  5
4BB
330
1E
100
AcDbEntity
  8
0
  6
CONTINUOUS
 62
     7
100
AcDbLine
 10
-215.1048499999999
 20
-23.45985
 30
0.0
 11
-210.1033
 21
-23.45985
 31
0.0
  0
LINE
  5
4BC
330
1E
100
AcDbEntity
  8
0
  6
CONTINUOUS
 62
     7
100
AcDbLine
 10
-210.1033
 20
-30.45984999999999
 30
0.0
 11
-210.1033
 21
-22.65985
 31
0.0
  0
LINE
  5
4BD
330
1E
100
AcDbEntity
  8
0
  6
CONTINUOUS
 62
     7
100
AcDbLine
 10
-215.1048499999999
 20
-30.45984999999999
 30
0.0
 11
-215.1048499999999
 21
-22.65985
 31
0.0
  0
LINE
  5
4BE
330
1E
100
AcDbEntity
  8
0
  6
CONTINUOUS
 62
     7
100
AcDbLine
 10
-211.303
 20
-23.78052999999999
 30
0.0
 11
-210.1029999999999
 21
-23.45899999999998
 31
0.0
  0
LINE
  5
4BF
330
1E
100
AcDbEntity
  8
0
  6
CONTINUOUS
 62
     7
100
AcDbLine
 10
-210.1029999999999
 20
-23.45899999999998
 30
0.0
 11
-211.303
 21
-23.13746
 31
0.0
  0
LINE
  5
4C0
330
1E
100
AcDbEntity
  8
0
  6
CONTINUOUS
 62
     7
100
AcDbLine
 10
-213.904
 20
-23.13746
 30
0.0
 11
-215.104
 21
-23.45899999999998
 31
0.0
  0
LINE
  5
4C1
330
1E
100
AcDbEntity
  8
0
  6
CONTINUOUS
 62
     7
100
AcDbLine
 10
-215.104
 20
-23.45899999999998
 30
0.0
 11
-213.904
 21
-23.78052999999999
 31
0.0
  0
TEXT
  5
4C2
330
1E
100
AcDbEntity
  8
0
  6
CONTINUOUS
 62
     7
100
AcDbText
 10
-216.50407
 20
-23.05985
 30
0.0
 40
3.2
  1
100
 41
0.8125
  7
BIGFONT
100
AcDbText
  0
LINE
  5
4C3
330
1E
100
AcDbEntity
  8
0
  6
CONTINUOUS
 62
     7
100
AcDbLine
 10
-210.1033
 20
-23.45985
 30
0.0
 11
-203.8617
 21
-23.45985
 31
0.0
  0
LINE
  5
4C4
330
1E
100
AcDbEntity
  8
0
  6
CONTINUOUS
 62
     7
100
AcDbLine
 10
-203.8617
 20
-30.45984999999999
 30
0.0
 11
-203.8617
 21
-22.65985
 31
0.0
  0
LINE
  5
4C5
330
1E
100
AcDbEntity
  8
0
  6
CONTINUOUS
 62
     7
100
AcDbLine
 10
-205.0609999999999
 20
-23.78052999999999
 30
0.0
 11
-203.8609999999999
 21
-23.45899999999998
 31
0.0
  0
LINE
  5
4C6
330
1E
100
AcDbEntity
  8
0
  6
CONTINUOUS
 62
     7
100
AcDbLine
 10
-203.8609999999999
 20
-23.45899999999998
 30
0.0
 11
-205.0609999999999
 21
-23.13746
 31
0.0
  0
LINE
  5
4C7
330
1E
100
AcDbEntity
  8
0
  6
CONTINUOUS
 62
     7
100
AcDbLine
 10
-208.903
 20
-23.13746
 30
0.0
 11
-210.1029999999999
 21
-23.45899999999998
 31
0.0
  0
LINE
  5
4C8
330
1E
100
AcDbEntity
  8
0
  6
CONTINUOUS
 62
     7
100
AcDbLine
 10
-210.1029999999999
 20
-23.45899999999998
 30
0.0
 11
-208.903
 21
-23.78052999999999
 31
0.0
  0
LINE
  5
4C9
330
1E
100
AcDbEntity
  8
0
  6
CONTINUOUS
 62
     7
100
AcDbLine
 10
-210.1033
 20
-23.45985
 30
0.0
 11
-211.1433
 21
-23.45985
 31
0.0
  0
TEXT
  5
4CA
330
1E
100
AcDbEntity
  8
0
  6
CONTINUOUS
 62
     7
100
AcDbText
 10
-209.9792060367261
 20
-27.05985
 30
0.0
 40
3.2
  1
125
 41
0.8125
  7
BIGFONT
100
AcDbText
  0
LINE
  5
4CB
330
1E
100
AcDbEntity
  8
0
  6
CONTINUOUS
 62
     7
100
AcDbLine
 10
-203.8617
 20
-23.45985
 30
0.0
 11
-163.82875
 21
-23.45985
 31
0.0
  0
LINE
  5
4CC
330
1E
100
AcDbEntity
  8
0
  6
CONTINUOUS
 62
     7
100
AcDbLine
 10
-163.82875
 20
-30.45984999999999
 30
0.0
 11
-163.82875
 21
-22.65985
 31
0.0
  0
LINE
  5
4CD
330
1E
100
AcDbEntity
  8
0
  6
CONTINUOUS
 62
     7
100
AcDbLine
 10
-165.0279999999999
 20
-23.78052999999999
 30
0.0
 11
-163.8279999999999
 21
-23.45899999999998
 31
0.0
  0
LINE
  5
4CE
330
1E
100
AcDbEntity
  8
0
  6
CONTINUOUS
 62
     7
100
AcDbLine
 10
-163.8279999999999
 20
-23.45899999999998
 30
0.0
 11
-165.0279999999999
 21
-23.13746
 31
0.0
  0
LINE
  5
4CF
330
1E
100
AcDbEntity
  8
0
  6
CONTINUOUS
 62
     7
100
AcDbLine
 10
-202.6609999999999
 20
-23.13746
 30
0.0
 11
-203.8609999999999
 21
-23.45899999999998
 31
0.0
  0
LINE
  5
4D0
330
1E
100
AcDbEntity
  8
0
  6
CONTINUOUS
 62
     7
100
AcDbLine
 10
-203.8609999999999
 20
-23.45899999999998
 30
0.0
 11
-202.6609999999999
 21
-23.78052999999999
 31
0.0
  0
LINE
  5
4D1
330
1E
100
AcDbEntity
  8
0
  6
CONTINUOUS
 62
     7
100
AcDbLine
 10
-163.82875
 20
-23.45985
 30
0.0
 11
-161.3655999999999
 21
-23.45985
 31
0.0
  0
LINE
  5
4D2
330
1E
100
AcDbEntity
  8
0
  6
CONTINUOUS
 62
     7
100
AcDbLine
 10
-161.3655999999999
 20
-26.735
 30
0.0
 11
-161.3655999999999
 21
-22.65985
 31
0.0
  0
LINE
  5
4D3
330
1E
100
AcDbEntity
  8
0
  6
CONTINUOUS
 62
     7
100
AcDbLine
 10
-158.9655999999999
 20
-23.45985
 30
0.0
 11
-161.3655999999999
 21
-23.45985
 31
0.0
  0
LINE
  5
4D4
330
1E
100
AcDbEntity
  8
0
  6
CONTINUOUS
 62
     7
100
AcDbLine
 10
-160.165
 20
-23.13746
 30
0.0
 11
-161.3649999999998
 21
-23.45899999999998
 31
0.0
  0
LINE
  5
4D5
330
1E
100
AcDbEntity
  8
0
  6
CONTINUOUS
 62
     7
100
AcDbLine
 10
-161.3649999999998
 20
-23.45899999999998
 30
0.0
 11
-160.165
 21
-23.78052999999999
 31
0.0
  0
LINE
  5
4D6
330
1E
100
AcDbEntity
  8
0
  6
CONTINUOUS
 62
     7
100
AcDbLine
 10
-163.82875
 20
-23.45985
 30
0.0
 11
-166.2287499999998
 21
-23.45985
 31
0.0
  0
LINE
  5
4D7
330
1E
100
AcDbEntity
  8
0
  6
CONTINUOUS
 62
     7
100
AcDbLine
 10
-165.0279999999999
 20
-23.78052999999999
 30
0.0
 11
-163.8279999999999
 21
-23.45899999999998
 31
0.0
  0
LINE
  5
4D8
330
1E
100
AcDbEntity
  8
0
  6
CONTINUOUS
 62
     7
100
AcDbLine
 10
-163.8279999999999
 20
-23.45899999999998
 30
0.0
 11
-165.0279999999999
 21
-23.13746
 31
0.0
  0
LINE
  5
4D9
330
1E
100
AcDbEntity
  8
0
  6
CONTINUOUS
 62
     7
100
AcDbLine
 10
-158.9655999999999
 20
-23.45985
 30
0.0
 11
-153.8256
 21
-23.45985
 31
0.0
  0
TEXT
  5
4DA
330
1E
100
AcDbEntity
  8
0
  6
CONTINUOUS
 62
     7
100
AcDbText
 10
-159.0256
 20
-23.05985
 30
0.0
 40
3.2
  1
50
 41
0.8125
  7
BIGFONT
100
AcDbText
  0
LINE
  5
4DB
330
1E
100
AcDbEntity
  8
0
  6
CONTINUOUS
 62
     1
100
AcDbLine
 10
-66.333
 20
-86.45985000000001
 30
0.0
 11
-66.333
 21
-34.20985
 31
0.0
  0
LINE
  5
4DC
330
1E
100
AcDbEntity
  8
0
  6
CONTINUOUS
 62
     1
100
AcDbLine
 10
-76.333
 20
-86.45985000000001
 30
0.0
 11
-76.333
 21
-34.20985
 31
0.0
  0
LINE
  5
4DD
330
1E
100
AcDbEntity
  8
0
  6
CONTINUOUS
 62
     1
100
AcDbLine
 10
-86.333
 20
-86.45985000000001
 30
0.0
 11
-86.333
 21
-34.20985
 31
0.0
  0
LINE
  5
4DE
330
1E
100
AcDbEntity
  8
0
  6
CONTINUOUS
 62
     1
100
AcDbLine
 10
-92.583
 20
-86.45985000000001
 30
0.0
 11
-92.583
 21
-34.20985
 31
0.0
  0
LINE
  5
4DF
330
1E
100
AcDbEntity
  8
0
  6
CONTINUOUS
 62
     1
100
AcDbLine
 10
-98.58299999999999
 20
-66.45985
 30
0.0
 11
-46.333
 21
-66.45985
 31
0.0
  0
LINE
  5
4E0
330
1E
100
AcDbEntity
  8
0
  6
CONTINUOUS
 62
     1
100
AcDbLine
 10
-98.58299999999999
 20
-56.45985
 30
0.0
 11
-46.333
 21
-56.45985
 31
0.0
  0
LINE
  5
4E1
330
1E
100
AcDbEntity
  8
0
  6
CONTINUOUS
 62
     1
100
AcDbLine
 10
-98.58299999999999
 20
-46.45985
 30
0.0
 11
-46.333
 21
-46.45985
 31
0.0
  0
LINE
  5
4E2
330
1E
100
AcDbEntity
  8
0
  6
CONTINUOUS
 62
     1
100
AcDbLine
 10
-98.58299999999999
 20
-40.20985
 30
0.0
 11
-46.333
 21
-40.20985
 31
0.0
  0
LINE
  5
4E3
330
1E
100
AcDbEntity
  8
0
  6
CONTINUOUS
 62
     1
100
AcDbLine
 10
-98.58299999999999
 20
-76.45985
 30
0.0
 11
-47.36849999999999
 21
-76.45985
 31
0.0
  0
LINE
  5
4E4
330
1E
100
AcDbEntity
  8
0
  6
CONTINUOUS
 62
     1
100
AcDbLine
 10
-56.333
 20
-85.42435000000002
 30
0.0
 11
-56.333
 21
-34.20985
 31
0.0
  0
LINE
  5
4E5
330
1E
100
AcDbEntity
  8
0
  6
CONTINUOUS
 62
     1
100
AcDbLine
 10
-170.1195999999999
 20
63.4054
 30
0.0
 11
-170.1195999999999
 21
98.65540000000001
 31
0.0
  0
LINE
  5
4E6
330
1E
100
AcDbEntity
  8
0
  6
CONTINUOUS
 62
     7
100
AcDbLine
 10
-170.1195999999999
 20
87.54980000000001
 30
0.0
 11
-176.38695
 21
87.54980000000001
 31
0.0
  0
LINE
  5
4E7
330
1E
100
AcDbEntity
  8
0
  6
CONTINUOUS
 62
     7
100
AcDbLine
 10
-175.1859999999999
 20
87.87053
 30
0.0
 11
-176.386
 21
87.54900000000002
 31
0.0
  0
LINE
  5
4E8
330
1E
100
AcDbEntity
  8
0
  6
CONTINUOUS
 62
     7
100
AcDbLine
 10
-176.386
 20
87.54900000000002
 30
0.0
 11
-175.1859999999999
 21
87.22745999999999
 31
0.0
  0
LINE
  5
4E9
330
1E
100
AcDbEntity
  8
0
  6
CONTINUOUS
 62
     7
100
AcDbLine
 10
-165.0961
 20
87.54980000000001
 30
0.0
 11
-170.1195999999999
 21
87.54980000000001
 31
0.0
  0
LINE
  5
4EA
330
1E
100
AcDbEntity
  8
0
  6
CONTINUOUS
 62
     7
100
AcDbLine
 10
-168.919
 20
87.87053
 30
0.0
 11
-170.1189999999999
 21
87.54900000000002
 31
0.0
  0
LINE
  5
4EB
330
1E
100
AcDbEntity
  8
0
  6
CONTINUOUS
 62
     7
100
AcDbLine
 10
-170.1189999999999
 20
87.54900000000002
 30
0.0
 11
-168.919
 21
87.22745999999999
 31
0.0
  0
LINE
  5
4EC
330
1E
100
AcDbEntity
  8
0
  6
CONTINUOUS
 62
     7
100
AcDbLine
 10
-151.3708
 20
87.54980000000001
 30
0.0
 11
-165.0961
 21
87.54980000000001
 31
0.0
  0
LINE
  5
4ED
330
1E
100
AcDbEntity
  8
0
  6
CONTINUOUS
 62
     7
100
AcDbLine
 10
-163.8959999999999
 20
87.87053
 30
0.0
 11
-165.0959999999999
 21
87.54900000000002
 31
0.0
  0
LINE
  5
4EE
330
1E
100
AcDbEntity
  8
0
  6
CONTINUOUS
 62
     7
100
AcDbLine
 10
-165.0959999999999
 20
87.54900000000002
 30
0.0
 11
-163.8959999999999
 21
87.22745999999999
 31
0.0
  0
LINE
  5
4EF
330
1E
100
AcDbEntity
  8
0
  6
CONTINUOUS
 62
     1
100
AcDbLine
 10
-52.633
 20
63.3054
 30
0.0
 11
-52.633
 21
121.1554
 31
0.0
  0
LINE
  5
4F0
330
1E
100
AcDbEntity
  8
0
  6
CONTINUOUS
 62
     7
100
AcDbLine
 10
-52.633
 20
95.87415
 30
0.0
 11
-58.883
 21
95.87415
 31
0.0
  0
LINE
  5
4F1
330
1E
100
AcDbEntity
  8
0
  6
CONTINUOUS
 62
     7
100
AcDbLine
 10
-57.68299999999999
 20
96.19553000000001
 30
0.0
 11
-58.883
 21
95.874
 31
0.0
  0
LINE
  5
4F2
330
1E
100
AcDbEntity
  8
0
  6
CONTINUOUS
 62
     7
100
AcDbLine
 10
-58.883
 20
95.874
 30
0.0
 11
-57.68299999999999
 21
95.55246
 31
0.0
  0
LINE
  5
4F3
330
1E
100
AcDbEntity
  8
0
  6
CONTINUOUS
 62
     7
100
AcDbLine
 10
-47.62125
 20
95.87415
 30
0.0
 11
-52.633
 21
95.87415
 31
0.0
  0
LINE
  5
4F4
330
1E
100
AcDbEntity
  8
0
  6
CONTINUOUS
 62
     7
100
AcDbLine
 10
-51.43299999999999
 20
96.19553000000001
 30
0.0
 11
-52.633
 21
95.874
 31
0.0
  0
LINE
  5
4F5
330
1E
100
AcDbEntity
  8
0
  6
CONTINUOUS
 62
     7
100
AcDbLine
 10
-52.633
 20
95.874
 30
0.0
 11
-51.43299999999999
 21
95.55246
 31
0.0
  0
LINE
  5
4F6
330
1E
100
AcDbEntity
  8
0
  6
CONTINUOUS
 62
     7
100
AcDbLine
 10
-73.825
 20
121.25175
 30
0.0
 11
-73.825
 21
114.4054
 31
0.0
  0
LINE
  5
4F7
330
1E
100
AcDbEntity
  8
0
  6
CONTINUOUS
 62
     7
100
AcDbLine
 10
-74.14653
 20
115.605
 30
0.0
 11
-73.825
 21
114.405
 31
0.0
  0
LINE
  5
4F8
330
1E
100
AcDbEntity
  8
0
  6
CONTINUOUS
 62
     7
100
AcDbLine
 10
-73.825
 20
114.405
 30
0.0
 11
-73.50346
 21
115.605
 31
0.0
  0
LINE
  5
4F9
330
1E
100
AcDbEntity
  8
0
  6
CONTINUOUS
 62
     7
100
AcDbLine
 10
-83.88299999999999
 20
133.6319
 30
0.0
 11
-83.88299999999999
 21
64.4054
 31
0.0
  0
LINE
  5
4FA
330
1E
100
AcDbEntity
  8
0
  6
CONTINUOUS
 62
     7
100
AcDbLine
 10
-84.20453
 20
65.60500000000001
 30
0.0
 11
-83.88299999999999
 21
64.405
 31
0.0
  0
LINE
  5
4FB
330
1E
100
AcDbEntity
  8
0
  6
CONTINUOUS
 62
     7
100
AcDbLine
 10
-83.88299999999999
 20
64.405
 30
0.0
 11
-83.56146
 21
65.60500000000001
 31
0.0
  0
CIRCLE
  5
4FC
330
1E
100
AcDbEntity
  8
0
  6
CONTINUOUS
 62
     7
100
AcDbCircle
 10
-96.43625
 20
136.1652
 30
0.0
 40
2.5
  0
TEXT
  5
4FD
330
1E
100
AcDbEntity
  8
0
  6
CONTINUOUS
 62
     7
100
AcDbText
 10
-97.99420000000001
 20
134.5713
 30
0.0
 40
3.2
  1
２
  7
BIGFONT
100
AcDbText
  0
TEXT
  5
4FE
330
1E
100
AcDbEntity
  8
0
  6
CONTINUOUS
 62
     7
100
AcDbText
 10
-92.62874999999999
 20
134.39505
 30
0.0
 40
3.2
  1
D10
  7
BIGFONT
100
AcDbText
  0
LINE
  5
4FF
330
1E
100
AcDbEntity
  8
0
  6
CONTINUOUS
 62
     7
100
AcDbLine
 10
-98.883
 20
133.6319
 30
0.0
 11
-83.88299999999999
 21
133.6319
 31
0.0
  0
LINE
  5
500
330
1E
100
AcDbEntity
  8
0
  6
CONTINUOUS
 62
     7
100
AcDbLine
 10
-101.3707499999999
 20
43.6319
 30
0.0
 11
-98.87864999999999
 21
43.6319
 31
0.0
  0
LINE
  5
501
330
1E
100
AcDbEntity
  8
0
  6
CONTINUOUS
 62
     7
100
AcDbLine
 10
-98.87864999999999
 20
60.1554
 30
0.0
 11
-98.87864999999999
 21
42.8319
 31
0.0
  0
LINE
  5
502
330
1E
100
AcDbEntity
  8
0
  6
CONTINUOUS
 62
     7
100
AcDbLine
 10
-101.3707499999999
 20
47.81419999999999
 30
0.0
 11
-101.3707499999999
 21
42.8319
 31
0.0
  0
LINE
  5
503
330
1E
100
AcDbEntity
  8
0
  6
CONTINUOUS
 62
     7
100
AcDbLine
 10
-96.47865000000001
 20
43.6319
 30
0.0
 11
-98.87864999999999
 21
43.6319
 31
0.0
  0
LINE
  5
504
330
1E
100
AcDbEntity
  8
0
  6
CONTINUOUS
 62
     7
100
AcDbLine
 10
-97.67800000000001
 20
43.95252999999999
 30
0.0
 11
-98.87799999999998
 21
43.631
 31
0.0
  0
LINE
  5
505
330
1E
100
AcDbEntity
  8
0
  6
CONTINUOUS
 62
     7
100
AcDbLine
 10
-98.87799999999998
 20
43.631
 30
0.0
 11
-97.67800000000001
 21
43.30945999999999
 31
0.0
  0
LINE
  5
506
330
1E
100
AcDbEntity
  8
0
  6
CONTINUOUS
 62
     7
100
AcDbLine
 10
-101.3707499999999
 20
43.6319
 30
0.0
 11
-103.77075
 21
43.6319
 31
0.0
  0
LINE
  5
507
330
1E
100
AcDbEntity
  8
0
  6
CONTINUOUS
 62
     7
100
AcDbLine
 10
-102.57
 20
43.30945999999999
 30
0.0
 11
-101.37
 21
43.631
 31
0.0
  0
LINE
  5
508
330
1E
100
AcDbEntity
  8
0
  6
CONTINUOUS
 62
     7
100
AcDbLine
 10
-101.37
 20
43.631
 30
0.0
 11
-102.57
 21
43.95252999999999
 31
0.0
  0
LINE
  5
509
330
1E
100
AcDbEntity
  8
0
  6
CONTINUOUS
 62
     7
100
AcDbLine
 10
-103.77075
 20
43.6319
 30
0.0
 11
-108.13075
 21
43.6319
 31
0.0
  0
TEXT
  5
50A
330
1E
100
AcDbEntity
  8
0
  6
CONTINUOUS
 62
     7
100
AcDbText
 10
-108.13075
 20
44.0319
 30
0.0
 40
3.2
  1
50
 41
0.8125
  7
BIGFONT
100
AcDbText
  0
LINE
  5
50B
330
1E
100
AcDbEntity
  8
0
  6
CONTINUOUS
 62
     7
100
AcDbLine
 10
-98.87864999999999
 20
43.6319
 30
0.0
 11
-58.89585
 21
43.6319
 31
0.0
  0
LINE
  5
50C
330
1E
100
AcDbEntity
  8
0
  6
CONTINUOUS
 62
     7
100
AcDbLine
 10
-58.89585
 20
60.1554
 30
0.0
 11
-58.89585
 21
42.8319
 31
0.0
  0
LINE
  5
50D
330
1E
100
AcDbEntity
  8
0
  6
CONTINUOUS
 62
     7
100
AcDbLine
 10
-60.095
 20
43.30945999999999
 30
0.0
 11
-58.895
 21
43.631
 31
0.0
  0
LINE
  5
50E
330
1E
100
AcDbEntity
  8
0
  6
CONTINUOUS
 62
     7
100
AcDbLine
 10
-58.895
 20
43.631
 30
0.0
 11
-60.095
 21
43.95252999999999
 31
0.0
  0
LINE
  5
50F
330
1E
100
AcDbEntity
  8
0
  6
CONTINUOUS
 62
     7
100
AcDbLine
 10
-97.67800000000001
 20
43.95252999999999
 30
0.0
 11
-98.87799999999998
 21
43.631
 31
0.0
  0
LINE
  5
510
330
1E
100
AcDbEntity
  8
0
  6
CONTINUOUS
 62
     7
100
AcDbLine
 10
-98.87799999999998
 20
43.631
 30
0.0
 11
-97.67800000000001
 21
43.30945999999999
 31
0.0
  0
LINE
  5
511
330
1E
100
AcDbEntity
  8
0
  6
CONTINUOUS
 62
     7
100
AcDbLine
 10
-218.8655999999999
 20
43.6319
 30
0.0
 11
-216.3740999999999
 21
43.6319
 31
0.0
  0
LINE
  5
512
330
1E
100
AcDbEntity
  8
0
  6
CONTINUOUS
 62
     7
100
AcDbLine
 10
-216.3740999999999
 20
60.1554
 30
0.0
 11
-216.3740999999999
 21
42.8319
 31
0.0
  0
LINE
  5
513
330
1E
100
AcDbEntity
  8
0
  6
CONTINUOUS
 62
     7
100
AcDbLine
 10
-218.8655999999999
 20
48.66505
 30
0.0
 11
-218.8655999999999
 21
42.8319
 31
0.0
  0
LINE
  5
514
330
1E
100
AcDbEntity
  8
0
  6
CONTINUOUS
 62
     7
100
AcDbLine
 10
-213.9740999999999
 20
43.6319
 30
0.0
 11
-216.3740999999999
 21
43.6319
 31
0.0
  0
LINE
  5
515
330
1E
100
AcDbEntity
  8
0
  6
CONTINUOUS
 62
     7
100
AcDbLine
 10
-215.174
 20
43.95252999999999
 30
0.0
 11
-216.374
 21
43.631
 31
0.0
  0
LINE
  5
516
330
1E
100
AcDbEntity
  8
0
  6
CONTINUOUS
 62
     7
100
AcDbLine
 10
-216.374
 20
43.631
 30
0.0
 11
-215.174
 21
43.30945999999999
 31
0.0
  0
LINE
  5
517
330
1E
100
AcDbEntity
  8
0
  6
CONTINUOUS
 62
     7
100
AcDbLine
 10
-218.8655999999999
 20
43.6319
 30
0.0
 11
-221.2655999999999
 21
43.6319
 31
0.0
  0
LINE
  5
518
330
1E
100
AcDbEntity
  8
0
  6
CONTINUOUS
 62
     7
100
AcDbLine
 10
-220.0649999999999
 20
43.30945999999999
 30
0.0
 11
-218.8649999999999
 21
43.631
 31
0.0
  0
LINE
  5
519
330
1E
100
AcDbEntity
  8
0
  6
CONTINUOUS
 62
     7
100
AcDbLine
 10
-218.8649999999999
 20
43.631
 30
0.0
 11
-220.0649999999999
 21
43.95252999999999
 31
0.0
  0
LINE
  5
51A
330
1E
100
AcDbEntity
  8
0
  6
CONTINUOUS
 62
     7
100
AcDbLine
 10
-221.2655999999999
 20
43.6319
 30
0.0
 11
-225.6256
 21
43.6319
 31
0.0
  0
TEXT
  5
51B
330
1E
100
AcDbEntity
  8
0
  6
CONTINUOUS
 62
     7
100
AcDbText
 10
-225.6256
 20
44.0319
 30
0.0
 40
3.2
  1
50
 41
0.8125
  7
BIGFONT
100
AcDbText
  0
LINE
  5
51C
330
1E
100
AcDbEntity
  8
0
  6
CONTINUOUS
 62
     7
100
AcDbLine
 10
-216.3740999999999
 20
43.6319
 30
0.0
 11
-176.3729999999999
 21
43.6319
 31
0.0
  0
LINE
  5
51D
330
1E
100
AcDbEntity
  8
0
  6
CONTINUOUS
 62
     7
100
AcDbLine
 10
-176.3729999999999
 20
60.1554
 30
0.0
 11
-176.3729999999999
 21
42.8319
 31
0.0
  0
LINE
  5
51E
330
1E
100
AcDbEntity
  8
0
  6
CONTINUOUS
 62
     7
100
AcDbLine
 10
-177.5729999999999
 20
43.30945999999999
 30
0.0
 11
-176.3729999999999
 21
43.631
 31
0.0
  0
LINE
  5
51F
330
1E
100
AcDbEntity
  8
0
  6
CONTINUOUS
 62
     7
100
AcDbLine
 10
-176.3729999999999
 20
43.631
 30
0.0
 11
-177.5729999999999
 21
43.95252999999999
 31
0.0
  0
LINE
  5
520
330
1E
100
AcDbEntity
  8
0
  6
CONTINUOUS
 62
     7
100
AcDbLine
 10
-215.174
 20
43.95252999999999
 30
0.0
 11
-216.374
 21
43.631
 31
0.0
  0
LINE
  5
521
330
1E
100
AcDbEntity
  8
0
  6
CONTINUOUS
 62
     7
100
AcDbLine
 10
-216.374
 20
43.631
 30
0.0
 11
-215.174
 21
43.30945999999999
 31
0.0
  0
LINE
  5
522
330
1E
100
AcDbEntity
  8
0
  6
CONTINUOUS
 62
     7
100
AcDbLine
 10
-176.3729999999999
 20
43.6319
 30
0.0
 11
-170.07825
 21
43.6319
 31
0.0
  0
LINE
  5
523
330
1E
100
AcDbEntity
  8
0
  6
CONTINUOUS
 62
     7
100
AcDbLine
 10
-170.07825
 20
60.1554
 30
0.0
 11
-170.07825
 21
42.8319
 31
0.0
  0
LINE
  5
524
330
1E
100
AcDbEntity
  8
0
  6
CONTINUOUS
 62
     7
100
AcDbLine
 10
-171.2779999999999
 20
43.30945999999999
 30
0.0
 11
-170.0779999999999
 21
43.631
 31
0.0
  0
LINE
  5
525
330
1E
100
AcDbEntity
  8
0
  6
CONTINUOUS
 62
     7
100
AcDbLine
 10
-170.0779999999999
 20
43.631
 30
0.0
 11
-171.2779999999999
 21
43.95252999999999
 31
0.0
  0
LINE
  5
526
330
1E
100
AcDbEntity
  8
0
  6
CONTINUOUS
 62
     7
100
AcDbLine
 10
-175.173
 20
43.95252999999999
 30
0.0
 11
-176.3729999999999
 21
43.631
 31
0.0
  0
LINE
  5
527
330
1E
100
AcDbEntity
  8
0
  6
CONTINUOUS
 62
     7
100
AcDbLine
 10
-176.3729999999999
 20
43.631
 30
0.0
 11
-175.173
 21
43.30945999999999
 31
0.0
  0
LINE
  5
528
330
1E
100
AcDbEntity
  8
0
  6
CONTINUOUS
 62
     7
100
AcDbLine
 10
-176.3729999999999
 20
43.6319
 30
0.0
 11
-177.673
 21
43.6319
 31
0.0
  0
TEXT
  5
529
330
1E
100
AcDbEntity
  8
0
  6
CONTINUOUS
 62
     7
100
AcDbText
 10
-177.673
 20
40.0319
 30
0.0
 40
3.2
  1
125
 41
0.8125
  7
BIGFONT
100
AcDbText
  0
LINE
  5
52A
330
1E
100
AcDbEntity
  8
0
  6
CONTINUOUS
 62
     7
100
AcDbLine
 10
-170.07825
 20
43.6319
 30
0.0
 11
-165.0278
 21
43.6319
 31
0.0
  0
LINE
  5
52B
330
1E
100
AcDbEntity
  8
0
  6
CONTINUOUS
 62
     7
100
AcDbLine
 10
-165.0278
 20
60.1554
 30
0.0
 11
-165.0278
 21
42.8319
 31
0.0
  0
LINE
  5
52C
330
1E
100
AcDbEntity
  8
0
  6
CONTINUOUS
 62
     7
100
AcDbLine
 10
-166.227
 20
43.30945999999999
 30
0.0
 11
-165.0269999999999
 21
43.631
 31
0.0
  0
LINE
  5
52D
330
1E
100
AcDbEntity
  8
0
  6
CONTINUOUS
 62
     7
100
AcDbLine
 10
-165.0269999999999
 20
43.631
 30
0.0
 11
-166.227
 21
43.95252999999999
 31
0.0
  0
LINE
  5
52E
330
1E
100
AcDbEntity
  8
0
  6
CONTINUOUS
 62
     7
100
AcDbLine
 10
-168.8779999999999
 20
43.95252999999999
 30
0.0
 11
-170.0779999999999
 21
43.631
 31
0.0
  0
LINE
  5
52F
330
1E
100
AcDbEntity
  8
0
  6
CONTINUOUS
 62
     7
100
AcDbLine
 10
-170.0779999999999
 20
43.631
 30
0.0
 11
-168.8779999999999
 21
43.30945999999999
 31
0.0
  0
LINE
  5
530
330
1E
100
AcDbEntity
  8
0
  6
CONTINUOUS
 62
     7
100
AcDbLine
 10
-170.07825
 20
43.6319
 30
0.0
 11
-171.1182499999999
 21
43.6319
 31
0.0
  0
TEXT
  5
531
330
1E
100
AcDbEntity
  8
0
  6
CONTINUOUS
 62
     7
100
AcDbText
 10
-171.1182499999999
 20
44.0319
 30
0.0
 40
3.2
  1
100
 41
0.8125
  7
BIGFONT
100
AcDbText
  0
LINE
  5
532
330
1E
100
AcDbEntity
  8
0
  6
CONTINUOUS
 62
     7
100
AcDbLine
 10
-58.89585
 20
43.6319
 30
0.0
 11
-52.63915
 21
43.6319
 31
0.0
  0
LINE
  5
533
330
1E
100
AcDbEntity
  8
0
  6
CONTINUOUS
 62
     7
100
AcDbLine
 10
-52.63915
 20
60.1554
 30
0.0
 11
-52.63915
 21
42.8319
 31
0.0
  0
LINE
  5
534
330
1E
100
AcDbEntity
  8
0
  6
CONTINUOUS
 62
     7
100
AcDbLine
 10
-58.89585
 20
49.5
 30
0.0
 11
-58.89585
 21
42.8319
 31
0.0
  0
LINE
  5
535
330
1E
100
AcDbEntity
  8
0
  6
CONTINUOUS
 62
     7
100
AcDbLine
 10
-53.839
 20
43.30945999999999
 30
0.0
 11
-52.63899999999999
 21
43.631
 31
0.0
  0
LINE
  5
536
330
1E
100
AcDbEntity
  8
0
  6
CONTINUOUS
 62
     7
100
AcDbLine
 10
-52.63899999999999
 20
43.631
 30
0.0
 11
-53.839
 21
43.95252999999999
 31
0.0
  0
LINE
  5
537
330
1E
100
AcDbEntity
  8
0
  6
CONTINUOUS
 62
     7
100
AcDbLine
 10
-57.695
 20
43.95252999999999
 30
0.0
 11
-58.895
 21
43.631
 31
0.0
  0
LINE
  5
538
330
1E
100
AcDbEntity
  8
0
  6
CONTINUOUS
 62
     7
100
AcDbLine
 10
-58.895
 20
43.631
 30
0.0
 11
-57.695
 21
43.30945999999999
 31
0.0
  0
LINE
  5
539
330
1E
100
AcDbEntity
  8
0
  6
CONTINUOUS
 62
     7
100
AcDbLine
 10
-58.89585
 20
43.6319
 30
0.0
 11
-60.45584999999999
 21
43.6319
 31
0.0
  0
TEXT
  5
53A
330
1E
100
AcDbEntity
  8
0
  6
CONTINUOUS
 62
     7
100
AcDbText
 10
-60.45584999999999
 20
40.0319
 30
0.0
 40
3.2
  1
125
 41
0.8125
  7
BIGFONT
100
AcDbText
  0
LINE
  5
53B
330
1E
100
AcDbEntity
  8
0
  6
CONTINUOUS
 62
     7
100
AcDbLine
 10
-52.63915
 20
43.6319
 30
0.0
 11
-47.59235
 21
43.6319
 31
0.0
  0
LINE
  5
53C
330
1E
100
AcDbEntity
  8
0
  6
CONTINUOUS
 62
     7
100
AcDbLine
 10
-47.59235
 20
60.1554
 30
0.0
 11
-47.59235
 21
42.8319
 31
0.0
  0
LINE
  5
53D
330
1E
100
AcDbEntity
  8
0
  6
CONTINUOUS
 62
     7
100
AcDbLine
 10
-48.792
 20
43.30945999999999
 30
0.0
 11
-47.59199999999998
 21
43.631
 31
0.0
  0
LINE
  5
53E
330
1E
100
AcDbEntity
  8
0
  6
CONTINUOUS
 62
     7
100
AcDbLine
 10
-47.59199999999998
 20
43.631
 30
0.0
 11
-48.792
 21
43.95252999999999
 31
0.0
  0
LINE
  5
53F
330
1E
100
AcDbEntity
  8
0
  6
CONTINUOUS
 62
     7
100
AcDbLine
 10
-51.43899999999999
 20
43.95252999999999
 30
0.0
 11
-52.63899999999999
 21
43.631
 31
0.0
  0
LINE
  5
540
330
1E
100
AcDbEntity
  8
0
  6
CONTINUOUS
 62
     7
100
AcDbLine
 10
-52.63899999999999
 20
43.631
 30
0.0
 11
-51.43899999999999
 21
43.30945999999999
 31
0.0
  0
TEXT
  5
541
330
1E
100
AcDbEntity
  8
0
  6
CONTINUOUS
 62
     7
100
AcDbText
 10
-53.75575
 20
44.0319
 30
0.0
 40
3.2
  1
100
 41
0.8125
  7
BIGFONT
100
AcDbText
  0
LINE
  5
542
330
1E
100
AcDbEntity
  8
0
  6
CONTINUOUS
 62
     7
100
AcDbLine
 10
-111.3329999999999
 20
64.4001
 30
0.0
 11
-111.3329999999999
 21
114.4178499999999
 31
0.0
  0
LINE
  5
543
330
1E
100
AcDbEntity
  8
0
  6
CONTINUOUS
 62
     7
100
AcDbLine
 10
-102.183
 20
114.4178499999999
 30
0.0
 11
-112.1329999999999
 21
114.4178499999999
 31
0.0
  0
LINE
  5
544
330
1E
100
AcDbEntity
  8
0
  6
CONTINUOUS
 62
     7
100
AcDbLine
 10
-102.333
 20
64.4001
 30
0.0
 11
-112.1329999999999
 21
64.4001
 31
0.0
  0
LINE
  5
545
330
1E
100
AcDbEntity
  8
0
  6
CONTINUOUS
 62
     7
100
AcDbLine
 10
-111.01146
 20
113.217
 30
0.0
 11
-111.3329999999999
 21
114.417
 31
0.0
  0
LINE
  5
546
330
1E
100
AcDbEntity
  8
0
  6
CONTINUOUS
 62
     7
100
AcDbLine
 10
-111.3329999999999
 20
114.417
 30
0.0
 11
-111.65453
 21
113.217
 31
0.0
  0
LINE
  5
547
330
1E
100
AcDbEntity
  8
0
  6
CONTINUOUS
 62
     7
100
AcDbLine
 10
-111.65453
 20
65.59999999999999
 30
0.0
 11
-111.3329999999999
 21
64.40000000000001
 31
0.0
  0
LINE
  5
548
330
1E
100
AcDbEntity
  8
0
  6
CONTINUOUS
 62
     7
100
AcDbLine
 10
-111.3329999999999
 20
64.40000000000001
 30
0.0
 11
-111.01146
 21
65.59999999999999
 31
0.0
  0
LINE
  5
549
330
1E
100
AcDbEntity
  8
0
  6
CONTINUOUS
 62
     7
100
AcDbLine
 10
-111.3329999999999
 20
114.4178499999999
 30
0.0
 11
-111.3329999999999
 21
121.1494999999999
 31
0.0
  0
LINE
  5
54A
330
1E
100
AcDbEntity
  8
0
  6
CONTINUOUS
 62
     7
100
AcDbLine
 10
-102.333
 20
121.1494999999999
 30
0.0
 11
-112.1329999999999
 21
121.1494999999999
 31
0.0
  0
LINE
  5
54B
330
1E
100
AcDbEntity
  8
0
  6
CONTINUOUS
 62
     7
100
AcDbLine
 10
-111.01146
 20
119.9489999999999
 30
0.0
 11
-111.3329999999999
 21
121.1489999999999
 31
0.0
  0
LINE
  5
54C
330
1E
100
AcDbEntity
  8
0
  6
CONTINUOUS
 62
     7
100
AcDbLine
 10
-111.3329999999999
 20
121.1489999999999
 30
0.0
 11
-111.65453
 21
119.9489999999999
 31
0.0
  0
LINE
  5
54D
330
1E
100
AcDbEntity
  8
0
  6
CONTINUOUS
 62
     7
100
AcDbLine
 10
-111.65453
 20
115.617
 30
0.0
 11
-111.3329999999999
 21
114.417
 31
0.0
  0
LINE
  5
54E
330
1E
100
AcDbEntity
  8
0
  6
CONTINUOUS
 62
     7
100
AcDbLine
 10
-111.3329999999999
 20
114.417
 30
0.0
 11
-111.01146
 21
115.617
 31
0.0
  0
TEXT
  5
54F
330
1E
100
AcDbEntity
  8
0
  6
CONTINUOUS
 62
     7
100
AcDbText
 10
-111.7329999999999
 20
114.14367
 30
0.0
 40
3.2
  1
135
 50
90.0
 41
0.8125
  7
BIGFONT
100
AcDbText
  0
LINE
  5
550
330
1E
100
AcDbEntity
  8
0
  6
CONTINUOUS
 62
     7
100
AcDbLine
 10
-111.3329999999999
 20
121.1494999999999
 30
0.0
 11
-111.3329999999999
 21
123.6553999999999
 31
0.0
  0
LINE
  5
551
330
1E
100
AcDbEntity
  8
0
  6
CONTINUOUS
 62
     7
100
AcDbLine
 10
-106.5479499999999
 20
123.6553999999999
 30
0.0
 11
-112.1329999999999
 21
123.6553999999999
 31
0.0
  0
LINE
  5
552
330
1E
100
AcDbEntity
  8
0
  6
CONTINUOUS
 62
     7
100
AcDbLine
 10
-111.3329999999999
 20
126.0554
 30
0.0
 11
-111.3329999999999
 21
123.6553999999999
 31
0.0
  0
LINE
  5
553
330
1E
100
AcDbEntity
  8
0
  6
CONTINUOUS
 62
     7
100
AcDbLine
 10
-111.65453
 20
124.855
 30
0.0
 11
-111.3329999999999
 21
123.655
 31
0.0
  0
LINE
  5
554
330
1E
100
AcDbEntity
  8
0
  6
CONTINUOUS
 62
     7
100
AcDbLine
 10
-111.3329999999999
 20
123.655
 30
0.0
 11
-111.01146
 21
124.855
 31
0.0
  0
LINE
  5
555
330
1E
100
AcDbEntity
  8
0
  6
CONTINUOUS
 62
     7
100
AcDbLine
 10
-111.3329999999999
 20
121.1494999999999
 30
0.0
 11
-111.3329999999999
 21
118.7494999999999
 31
0.0
  0
LINE
  5
556
330
1E
100
AcDbEntity
  8
0
  6
CONTINUOUS
 62
     7
100
AcDbLine
 10
-111.01146
 20
119.9489999999999
 30
0.0
 11
-111.3329999999999
 21
121.1489999999999
 31
0.0
  0
LINE
  5
557
330
1E
100
AcDbEntity
  8
0
  6
CONTINUOUS
 62
     7
100
AcDbLine
 10
-111.3329999999999
 20
121.1489999999999
 30
0.0
 11
-111.65453
 21
119.9489999999999
 31
0.0
  0
LINE
  5
558
330
1E
100
AcDbEntity
  8
0
  6
CONTINUOUS
 62
     7
100
AcDbLine
 10
-111.3329999999999
 20
126.0554
 30
0.0
 11
-111.3329999999999
 21
130.9353999999999
 31
0.0
  0
TEXT
  5
559
330
1E
100
AcDbEntity
  8
0
  6
CONTINUOUS
 62
     7
100
AcDbText
 10
-111.7329999999999
 20
125.7354
 30
0.0
 40
3.2
  1
50
 50
90.0
 41
0.8125
  7
BIGFONT
100
AcDbText
  0
TEXT
  5
55A
330
1E
100
AcDbEntity
  8
0
  6
CONTINUOUS
 62
     7
100
AcDbText
 10
-111.7305999999999
 20
61.50025
 30
0.0
 40
3.2
  1
10
 50
90.0
  7
BIGFONT
100
AcDbText
  0
POINT
  5
55B
330
1E
100
AcDbEntity
  8
0
  6
CONTINUOUS
 62
     1
100
AcDbPoint
 10
33.95
 20
64.3819
 30
0.0
  0
POINT
  5
55C
330
1E
100
AcDbEntity
  8
0
  6
CONTINUOUS
 62
     1
100
AcDbPoint
 10
38.75
 20
63.78325
 30
0.0
  0
POINT
  5
55D
330
1E
100
AcDbEntity
  8
0
  6
CONTINUOUS
 62
     1
100
AcDbPoint
 10
38.75
 20
64.40085
 30
0.0
  0
LINE
  5
55E
330
1E
100
AcDbEntity
  8
0
  6
CONTINUOUS
 62
     7
100
AcDbLine
 10
-81.3274
 20
-40.20985
 30
0.0
 11
-81.3274
 21
-35.20985
 31
0.0
  0
LINE
  5
55F
330
1E
100
AcDbEntity
  8
0
  6
CONTINUOUS
 62
     7
100
AcDbLine
 10
-81.00545999999999
 20
-36.409
 30
0.0
 11
-81.32699999999998
 21
-35.209
 31
0.0
  0
LINE
  5
560
330
1E
100
AcDbEntity
  8
0
  6
CONTINUOUS
 62
     7
100
AcDbLine
 10
-81.32699999999998
 20
-35.209
 30
0.0
 11
-81.64853
 21
-36.409
 31
0.0
  0
LINE
  5
561
330
1E
100
AcDbEntity
  8
0
  6
CONTINUOUS
 62
     7
100
AcDbLine
 10
-81.3274
 20
-46.45985
 30
0.0
 11
-81.3274
 21
-40.20985
 31
0.0
  0
LINE
  5
562
330
1E
100
AcDbEntity
  8
0
  6
CONTINUOUS
 62
     7
100
AcDbLine
 10
-81.00545999999999
 20
-41.409
 30
0.0
 11
-81.32699999999998
 21
-40.209
 31
0.0
  0
LINE
  5
563
330
1E
100
AcDbEntity
  8
0
  6
CONTINUOUS
 62
     7
100
AcDbLine
 10
-81.32699999999998
 20
-40.209
 30
0.0
 11
-81.64853
 21
-41.409
 31
0.0
  0
LINE
  5
564
330
1E
100
AcDbEntity
  8
0
  6
CONTINUOUS
 62
     7
100
AcDbLine
 10
-81.3274
 20
-56.45985
 30
0.0
 11
-81.3274
 21
-46.45324999999998
 31
0.0
  0
LINE
  5
565
330
1E
100
AcDbEntity
  8
0
  6
CONTINUOUS
 62
     7
100
AcDbLine
 10
-81.00545999999999
 20
-47.65299999999998
 30
0.0
 11
-81.32699999999998
 21
-46.453
 31
0.0
  0
LINE
  5
566
330
1E
100
AcDbEntity
  8
0
  6
CONTINUOUS
 62
     7
100
AcDbLine
 10
-81.32699999999998
 20
-46.453
 30
0.0
 11
-81.64853
 21
-47.65299999999998
 31
0.0
  0
LINE
  5
567
330
1E
100
AcDbEntity
  8
0
  6
CONTINUOUS
 62
     7
100
AcDbLine
 10
-92.583
 20
-51.49405
 30
0.0
 11
-97.583
 21
-51.49405
 31
0.0
  0
LINE
  5
568
330
1E
100
AcDbEntity
  8
0
  6
CONTINUOUS
 62
     7
100
AcDbLine
 10
-96.383
 20
-51.17246
 30
0.0
 11
-97.583
 21
-51.49399999999999
 31
0.0
  0
LINE
  5
569
330
1E
100
AcDbEntity
  8
0
  6
CONTINUOUS
 62
     7
100
AcDbLine
 10
-97.583
 20
-51.49399999999999
 30
0.0
 11
-96.383
 21
-51.81553
 31
0.0
  0
LINE
  5
56A
330
1E
100
AcDbEntity
  8
0
  6
CONTINUOUS
 62
     7
100
AcDbLine
 10
-86.333
 20
-51.49405
 30
0.0
 11
-92.5862
 21
-51.49405
 31
0.0
  0
LINE
  5
56B
330
1E
100
AcDbEntity
  8
0
  6
CONTINUOUS
 62
     7
100
AcDbLine
 10
-91.38600000000002
 20
-51.17246
 30
0.0
 11
-92.58599999999999
 21
-51.49399999999999
 31
0.0
  0
LINE
  5
56C
330
1E
100
AcDbEntity
  8
0
  6
CONTINUOUS
 62
     7
100
AcDbLine
 10
-92.58599999999999
 20
-51.49399999999999
 30
0.0
 11
-91.38600000000002
 21
-51.81553
 31
0.0
  0
LINE
  5
56D
330
1E
100
AcDbEntity
  8
0
  6
CONTINUOUS
 62
     7
100
AcDbLine
 10
-76.333
 20
-51.49405
 30
0.0
 11
-86.33725
 21
-51.49405
 31
0.0
  0
LINE
  5
56E
330
1E
100
AcDbEntity
  8
0
  6
CONTINUOUS
 62
     7
100
AcDbLine
 10
-85.137
 20
-51.17246
 30
0.0
 11
-86.33700000000002
 21
-51.49399999999999
 31
0.0
  0
LINE
  5
56F
330
1E
100
AcDbEntity
  8
0
  6
CONTINUOUS
 62
     7
100
AcDbLine
 10
-86.33700000000002
 20
-51.49399999999999
 30
0.0
 11
-85.137
 21
-51.81553
 31
0.0
  0
LINE
  5
570
330
1E
100
AcDbEntity
  8
0
  6
CONTINUOUS
 62
     7
100
AcDbLine
 10
-81.3274
 20
-66.45985
 30
0.0
 11
-81.3274
 21
-56.45324999999999
 31
0.0
  0
LINE
  5
571
330
1E
100
AcDbEntity
  8
0
  6
CONTINUOUS
 62
     7
100
AcDbLine
 10
-81.00545999999999
 20
-57.65299999999999
 30
0.0
 11
-81.32699999999998
 21
-56.453
 31
0.0
  0
LINE
  5
572
330
1E
100
AcDbEntity
  8
0
  6
CONTINUOUS
 62
     7
100
AcDbLine
 10
-81.32699999999998
 20
-56.453
 30
0.0
 11
-81.64853
 21
-57.65299999999999
 31
0.0
  0
LINE
  5
573
330
1E
100
AcDbEntity
  8
0
  6
CONTINUOUS
 62
     7
100
AcDbLine
 10
-81.3274
 20
-76.45985
 30
0.0
 11
-81.3274
 21
-66.45324999999999
 31
0.0
  0
LINE
  5
574
330
1E
100
AcDbEntity
  8
0
  6
CONTINUOUS
 62
     7
100
AcDbLine
 10
-81.00545999999999
 20
-67.653
 30
0.0
 11
-81.32699999999998
 21
-66.453
 31
0.0
  0
LINE
  5
575
330
1E
100
AcDbEntity
  8
0
  6
CONTINUOUS
 62
     7
100
AcDbLine
 10
-81.32699999999998
 20
-66.453
 30
0.0
 11
-81.64853
 21
-67.653
 31
0.0
  0
LINE
  5
576
330
1E
100
AcDbEntity
  8
0
  6
CONTINUOUS
 62
     7
100
AcDbLine
 10
-81.3274
 20
-86.45985000000001
 30
0.0
 11
-81.3274
 21
-76.45324999999998
 31
0.0
  0
LINE
  5
577
330
1E
100
AcDbEntity
  8
0
  6
CONTINUOUS
 62
     7
100
AcDbLine
 10
-81.00545999999999
 20
-77.653
 30
0.0
 11
-81.32699999999998
 21
-76.453
 31
0.0
  0
LINE
  5
578
330
1E
100
AcDbEntity
  8
0
  6
CONTINUOUS
 62
     7
100
AcDbLine
 10
-81.32699999999998
 20
-76.453
 30
0.0
 11
-81.64853
 21
-77.653
 31
0.0
  0
LINE
  5
579
330
1E
100
AcDbEntity
  8
0
  6
CONTINUOUS
 62
     7
100
AcDbLine
 10
-66.333
 20
-51.49405
 30
0.0
 11
-76.33725
 21
-51.49405
 31
0.0
  0
LINE
  5
57A
330
1E
100
AcDbEntity
  8
0
  6
CONTINUOUS
 62
     7
100
AcDbLine
 10
-75.137
 20
-51.17246
 30
0.0
 11
-76.33700000000001
 21
-51.49399999999999
 31
0.0
  0
LINE
  5
57B
330
1E
100
AcDbEntity
  8
0
  6
CONTINUOUS
 62
     7
100
AcDbLine
 10
-76.33700000000001
 20
-51.49399999999999
 30
0.0
 11
-75.137
 21
-51.81553
 31
0.0
  0
LINE
  5
57C
330
1E
100
AcDbEntity
  8
0
  6
CONTINUOUS
 62
     7
100
AcDbLine
 10
-56.333
 20
-51.49405
 30
0.0
 11
-66.33725
 21
-51.49405
 31
0.0
  0
LINE
  5
57D
330
1E
100
AcDbEntity
  8
0
  6
CONTINUOUS
 62
     7
100
AcDbLine
 10
-65.137
 20
-51.17246
 30
0.0
 11
-66.33700000000001
 21
-51.49399999999999
 31
0.0
  0
LINE
  5
57E
330
1E
100
AcDbEntity
  8
0
  6
CONTINUOUS
 62
     7
100
AcDbLine
 10
-66.33700000000001
 20
-51.49399999999999
 30
0.0
 11
-65.137
 21
-51.81553
 31
0.0
  0
LINE
  5
57F
330
1E
100
AcDbEntity
  8
0
  6
CONTINUOUS
 62
     7
100
AcDbLine
 10
-46.333
 20
-51.49405
 30
0.0
 11
-56.33725
 21
-51.49405
 31
0.0
  0
LINE
  5
580
330
1E
100
AcDbEntity
  8
0
  6
CONTINUOUS
 62
     7
100
AcDbLine
 10
-55.137
 20
-51.17246
 30
0.0
 11
-56.33700000000001
 21
-51.49399999999999
 31
0.0
  0
LINE
  5
581
330
1E
100
AcDbEntity
  8
0
  6
CONTINUOUS
 62
     7
100
AcDbLine
 10
-56.33700000000001
 20
-51.49399999999999
 30
0.0
 11
-55.137
 21
-51.81553
 31
0.0
  0
LINE
  5
582
330
1E
100
AcDbEntity
  8
0
  6
CONTINUOUS
 62
     7
100
AcDbLine
 10
-97.57950000000001
 20
-23.45985
 30
0.0
 11
-92.54815
 21
-23.45985
 31
0.0
  0
LINE
  5
583
330
1E
100
AcDbEntity
  8
0
  6
CONTINUOUS
 62
     7
100
AcDbLine
 10
-92.54815
 20
-30.45984999999999
 30
0.0
 11
-92.54815
 21
-22.65985
 31
0.0
  0
LINE
  5
584
330
1E
100
AcDbEntity
  8
0
  6
CONTINUOUS
 62
     7
100
AcDbLine
 10
-97.57950000000001
 20
-30.45984999999999
 30
0.0
 11
-97.57950000000001
 21
-22.65985
 31
0.0
  0
LINE
  5
585
330
1E
100
AcDbEntity
  8
0
  6
CONTINUOUS
 62
     7
100
AcDbLine
 10
-93.74799999999998
 20
-23.78052999999999
 30
0.0
 11
-92.54800000000001
 21
-23.45899999999998
 31
0.0
  0
LINE
  5
586
330
1E
100
AcDbEntity
  8
0
  6
CONTINUOUS
 62
     7
100
AcDbLine
 10
-92.54800000000001
 20
-23.45899999999998
 30
0.0
 11
-93.74799999999998
 21
-23.13746
 31
0.0
  0
LINE
  5
587
330
1E
100
AcDbEntity
  8
0
  6
CONTINUOUS
 62
     7
100
AcDbLine
 10
-96.37900000000001
 20
-23.13746
 30
0.0
 11
-97.57899999999999
 21
-23.45899999999998
 31
0.0
  0
LINE
  5
588
330
1E
100
AcDbEntity
  8
0
  6
CONTINUOUS
 62
     7
100
AcDbLine
 10
-97.57899999999999
 20
-23.45899999999998
 30
0.0
 11
-96.37900000000001
 21
-23.78052999999999
 31
0.0
  0
LINE
  5
589
330
1E
100
AcDbEntity
  8
0
  6
CONTINUOUS
 62
     7
100
AcDbLine
 10
-97.57950000000001
 20
-23.45985
 30
0.0
 11
-98.6195
 21
-23.45985
 31
0.0
  0
TEXT
  5
58A
330
1E
100
AcDbEntity
  8
0
  6
CONTINUOUS
 62
     7
100
AcDbText
 10
-98.6195
 20
-27.05985
 30
0.0
 40
3.2
  1
100
 41
0.8125
  7
BIGFONT
100
AcDbText
  0
LINE
  5
58B
330
1E
100
AcDbEntity
  8
0
  6
CONTINUOUS
 62
     7
100
AcDbLine
 10
-92.54815
 20
-23.45985
 30
0.0
 11
-86.32785
 21
-23.45985
 31
0.0
  0
LINE
  5
58C
330
1E
100
AcDbEntity
  8
0
  6
CONTINUOUS
 62
     7
100
AcDbLine
 10
-86.32785
 20
-30.45984999999999
 30
0.0
 11
-86.32785
 21
-22.65985
 31
0.0
  0
LINE
  5
58D
330
1E
100
AcDbEntity
  8
0
  6
CONTINUOUS
 62
     7
100
AcDbLine
 10
-87.527
 20
-23.78052999999999
 30
0.0
 11
-86.32699999999998
 21
-23.45899999999998
 31
0.0
  0
LINE
  5
58E
330
1E
100
AcDbEntity
  8
0
  6
CONTINUOUS
 62
     7
100
AcDbLine
 10
-86.32699999999998
 20
-23.45899999999998
 30
0.0
 11
-87.527
 21
-23.13746
 31
0.0
  0
LINE
  5
58F
330
1E
100
AcDbEntity
  8
0
  6
CONTINUOUS
 62
     7
100
AcDbLine
 10
-91.348
 20
-23.13746
 30
0.0
 11
-92.54800000000001
 21
-23.45899999999998
 31
0.0
  0
LINE
  5
590
330
1E
100
AcDbEntity
  8
0
  6
CONTINUOUS
 62
     7
100
AcDbLine
 10
-92.54800000000001
 20
-23.45899999999998
 30
0.0
 11
-91.348
 21
-23.78052999999999
 31
0.0
  0
TEXT
  5
591
330
1E
100
AcDbEntity
  8
0
  6
CONTINUOUS
 62
     7
100
AcDbText
 10
-93.07799999999998
 20
-23.05985
 30
0.0
 40
3.2
  1
125
 41
0.8125
  7
BIGFONT
100
AcDbText
  0
LINE
  5
592
330
1E
100
AcDbEntity
  8
0
  6
CONTINUOUS
 62
     7
100
AcDbLine
 10
-86.32785
 20
-23.45985
 30
0.0
 11
-46.3234
 21
-23.45985
 31
0.0
  0
LINE
  5
593
330
1E
100
AcDbEntity
  8
0
  6
CONTINUOUS
 62
     7
100
AcDbLine
 10
-46.3234
 20
-30.45984999999999
 30
0.0
 11
-46.3234
 21
-22.65985
 31
0.0
  0
LINE
  5
594
330
1E
100
AcDbEntity
  8
0
  6
CONTINUOUS
 62
     7
100
AcDbLine
 10
-47.523
 20
-23.78052999999999
 30
0.0
 11
-46.32299999999999
 21
-23.45899999999998
 31
0.0
  0
LINE
  5
595
330
1E
100
AcDbEntity
  8
0
  6
CONTINUOUS
 62
     7
100
AcDbLine
 10
-46.32299999999999
 20
-23.45899999999998
 30
0.0
 11
-47.523
 21
-23.13746
 31
0.0
  0
LINE
  5
596
330
1E
100
AcDbEntity
  8
0
  6
CONTINUOUS
 62
     7
100
AcDbLine
 10
-85.127
 20
-23.13746
 30
0.0
 11
-86.32699999999998
 21
-23.45899999999998
 31
0.0
  0
LINE
  5
597
330
1E
100
AcDbEntity
  8
0
  6
CONTINUOUS
 62
     7
100
AcDbLine
 10
-86.32699999999998
 20
-23.45899999999998
 30
0.0
 11
-85.127
 21
-23.78052999999999
 31
0.0
  0
LINE
  5
598
330
1E
100
AcDbEntity
  8
0
  6
CONTINUOUS
 62
     7
100
AcDbLine
 10
-46.3234
 20
-23.45985
 30
0.0
 11
-43.833
 21
-23.45985
 31
0.0
  0
LINE
  5
599
330
1E
100
AcDbEntity
  8
0
  6
CONTINUOUS
 62
     7
100
AcDbLine
 10
-43.833
 20
-26.6115
 30
0.0
 11
-43.833
 21
-22.65985
 31
0.0
  0
LINE
  5
59A
330
1E
100
AcDbEntity
  8
0
  6
CONTINUOUS
 62
     7
100
AcDbLine
 10
-41.43299999999999
 20
-23.45985
 30
0.0
 11
-43.833
 21
-23.45985
 31
0.0
  0
LINE
  5
59B
330
1E
100
AcDbEntity
  8
0
  6
CONTINUOUS
 62
     7
100
AcDbLine
 10
-42.633
 20
-23.13746
 30
0.0
 11
-43.833
 21
-23.45899999999998
 31
0.0
  0
LINE
  5
59C
330
1E
100
AcDbEntity
  8
0
  6
CONTINUOUS
 62
     7
100
AcDbLine
 10
-43.833
 20
-23.45899999999998
 30
0.0
 11
-42.633
 21
-23.78052999999999
 31
0.0
  0
LINE
  5
59D
330
1E
100
AcDbEntity
  8
0
  6
CONTINUOUS
 62
     7
100
AcDbLine
 10
-46.3234
 20
-23.45985
 30
0.0
 11
-48.7234
 21
-23.45985
 31
0.0
  0
LINE
  5
59E
330
1E
100
AcDbEntity
  8
0
  6
CONTINUOUS
 62
     7
100
AcDbLine
 10
-47.523
 20
-23.78052999999999
 30
0.0
 11
-46.32299999999999
 21
-23.45899999999998
 31
0.0
  0
LINE
  5
59F
330
1E
100
AcDbEntity
  8
0
  6
CONTINUOUS
 62
     7
100
AcDbLine
 10
-46.32299999999999
 20
-23.45899999999998
 30
0.0
 11
-47.523
 21
-23.13746
 31
0.0
  0
LINE
  5
5A0
330
1E
100
AcDbEntity
  8
0
  6
CONTINUOUS
 62
     7
100
AcDbLine
 10
-41.43299999999999
 20
-23.45985
 30
0.0
 11
-36.813
 21
-23.45985
 31
0.0
  0
TEXT
  5
5A1
330
1E
100
AcDbEntity
  8
0
  6
CONTINUOUS
 62
     7
100
AcDbText
 10
-42.01299999999998
 20
-23.05985
 30
0.0
 40
3.2
  1
50
 41
0.8125
  7
BIGFONT
100
AcDbText
  0
CIRCLE
  5
5A2
330
1E
100
AcDbEntity
  8
0
  6
CONTINUOUS
 62
     7
100
AcDbCircle
 10
48.27045
 20
88.4023
 30
0.0
 40
2.5
  0
TEXT
  5
5A3
330
1E
100
AcDbEntity
  8
0
  6
CONTINUOUS
 62
     7
100
AcDbText
 10
46.622
 20
86.69220000000001
 30
0.0
 40
3.2
  1
４
  7
BIGFONT
100
AcDbText
  0
TEXT
  5
5A4
330
1E
100
AcDbEntity
  8
0
  6
CONTINUOUS
 62
     7
100
AcDbText
 10
51.49049999999999
 20
86.7702
 30
0.0
 40
3.2
  1
D10
  7
BIGFONT
100
AcDbText
  0
LINE
  5
5A5
330
1E
100
AcDbEntity
  8
0
  6
CONTINUOUS
 62
     7
100
AcDbLine
 10
45.1895
 20
85.90385000000003
 30
0.0
 11
60.1895
 21
85.90385000000003
 31
0.0
  0
LINE
  5
5A6
330
1E
100
AcDbEntity
  8
0
  6
CONTINUOUS
 62
     7
100
AcDbLine
 10
45.1895
 20
85.90385000000003
 30
0.0
 11
36.3209
 21
67.59325
 31
0.0
  0
LINE
  5
5A7
330
1E
100
AcDbEntity
  8
0
  6
CONTINUOUS
 62
     7
100
AcDbLine
 10
36.5537
 20
68.81314999999999
 30
0.0
 11
36.32
 21
67.593
 31
0.0
  0
LINE
  5
5A8
330
1E
100
AcDbEntity
  8
0
  6
CONTINUOUS
 62
     7
100
AcDbLine
 10
36.32
 20
67.593
 30
0.0
 11
37.13245999999997
 21
68.53283000000001
 31
0.0
  0
LINE
  5
5A9
330
1E
100
AcDbEntity
  8
0
  6
DASHED
 62
     1
100
AcDbLine
 10
-184.3656
 20
-45.99454999999998
 30
0.0
 11
-184.3656
 21
-33.70985
 31
0.0
  0
LINE
  5
5AA
330
1E
100
AcDbEntity
  8
0
  6
DASHED
 62
     1
100
AcDbLine
 10
-194.3656
 20
-45.99454999999998
 30
0.0
 11
-194.3656
 21
-33.70985
 31
0.0
  0
LINE
  5
5AB
330
1E
100
AcDbEntity
  8
0
  6
DASHED
 62
     1
100
AcDbLine
 10
-174.3656
 20
-45.99454999999998
 30
0.0
 11
-174.3656
 21
-33.70985
 31
0.0
  0
LINE
  5
5AC
330
1E
100
AcDbEntity
  8
0
  6
DASHED
 62
     1
100
AcDbLine
 10
-164.3656
 20
-45.99454999999998
 30
0.0
 11
-164.3656
 21
-33.70985
 31
0.0
  0
LINE
  5
5AD
330
1E
100
AcDbEntity
  8
0
  6
CONTINUOUS
 62
     7
100
AcDbLine
 10
218.0517
 20
-83.25079999999998
 30
0.0
 11
223.75
 21
-76.45985
 31
0.0
  0
LINE
  5
5AE
330
1E
100
AcDbEntity
  8
0
  6
CONTINUOUS
 62
     7
100
AcDbLine
 10
211.2499999999999
 20
-88.95985000000001
 30
0.0
 11
218.0517
 21
-83.25079999999998
 31
0.0
  0
ARC
  5
5AF
330
1E
100
AcDbEntity
  8
0
  6
CONTINUOUS
 62
     7
100
AcDbCircle
 10
218.0525
 20
-83.24984999999998
 30
0.0
 40
2.786049999999999
100
AcDbArc
 50
50.0
 51
220.0099999999999
  0
ARC
  5
5B0
330
1E
100
AcDbEntity
  8
0
  6
CONTINUOUS
 62
     7
100
AcDbCircle
 10
218.6653399999999
 20
-83.63983000000002
 30
0.0
 40
2.78597
100
AcDbArc
 50
64.99430600000001
 51
89.67328700000001
  0
ARC
  5
5B1
330
1E
100
AcDbEntity
  8
0
  6
CONTINUOUS
 62
     7
100
AcDbCircle
 10
217.5606999999998
 20
-82.71274
 30
0.0
 40
2.78597
100
AcDbArc
 50
34.994306
 51
59.67328699999999
  0
ARC
  5
5B2
330
1E
100
AcDbEntity
  8
0
  6
CONTINUOUS
 62
     7
100
AcDbCircle
 10
217.5154799999999
 20
-82.75774
 30
0.0
 40
2.78661
100
AcDbArc
 50
210.34815
 51
235.02144
  0
ARC
  5
5B3
330
1E
100
AcDbEntity
  8
0
  6
CONTINUOUS
 62
     7
100
AcDbCircle
 10
218.4430799999999
 20
-83.86238
 30
0.0
 40
2.78661
100
AcDbArc
 50
180.34815
 51
205.0214399999999
  0
TEXT
  5
5B4
330
1E
100
AcDbEntity
  8
0
  6
CONTINUOUS
 62
     7
100
AcDbText
 10
212.12279
 20
-84.67444
 30
0.0
 40
3.2
  1
170°
 50
45.0
 41
0.8125
  7
BIGFONT
100
AcDbText
  0
LINE
  5
5B5
330
1E
100
AcDbEntity
  8
0
  6
CONTINUOUS
 62
     7
100
AcDbLine
 10
172.25
 20
-43.82385
 30
0.0
 11
178.614
 21
-37.45985
 31
0.0
  0
LINE
  5
5B6
330
1E
100
AcDbEntity
  8
0
  6
CONTINUOUS
 62
     7
100
AcDbLine
 10
178.614
 20
-37.45985
 30
0.0
 11
223.75
 21
-37.45985
 31
0.0
  0
LINE
  5
5B7
330
1E
100
AcDbEntity
  8
0
  6
CONTINUOUS
 62
     7
100
AcDbLine
 10
172.25
 20
-88.95985000000001
 30
0.0
 11
172.25
 21
-43.82385
 31
0.0
  0
LINE
  5
5B8
330
1E
100
AcDbEntity
  8
0
  6
CONTINUOUS
 62
     7
100
AcDbLine
 10
179.8898499999999
 20
-51.4637
 30
0.0
 11
186.25385
 21
-45.0997
 31
0.0
  0
LINE
  5
5B9
330
1E
100
AcDbEntity
  8
0
  6
CONTINUOUS
 62
     7
100
AcDbLine
 10
179.3211
 20
-38.16695
 30
0.0
 11
186.81953
 21
-45.66538
 31
0.0
  0
LINE
  5
5BA
330
1E
100
AcDbEntity
  8
0
  6
CONTINUOUS
 62
     7
100
AcDbLine
 10
172.9570999999999
 20
-44.53095
 30
0.0
 11
180.45553
 21
-52.02937999999999
 31
0.0
  0
LINE
  5
5BB
330
1E
100
AcDbEntity
  8
0
  6
CONTINUOUS
 62
     7
100
AcDbLine
 10
185.63183
 20
-46.17489
 30
0.0
 11
186.2529999999999
 21
-45.099
 31
0.0
  0
LINE
  5
5BC
330
1E
100
AcDbEntity
  8
0
  6
CONTINUOUS
 62
     7
100
AcDbLine
 10
186.2529999999999
 20
-45.099
 30
0.0
 11
185.1771
 21
-45.72016
 31
0.0
  0
LINE
  5
5BD
330
1E
100
AcDbEntity
  8
0
  6
CONTINUOUS
 62
     7
100
AcDbLine
 10
180.51016
 20
-50.3871
 30
0.0
 11
179.889
 21
-51.463
 31
0.0
  0
LINE
  5
5BE
330
1E
100
AcDbEntity
  8
0
  6
CONTINUOUS
 62
     7
100
AcDbLine
 10
179.889
 20
-51.463
 30
0.0
 11
180.96489
 21
-50.84183
 31
0.0
  0
TEXT
  5
5BF
330
1E
100
AcDbEntity
  8
0
  6
CONTINUOUS
 62
     7
100
AcDbText
 10
183.6865367141825
 20
-53.585
 30
0.0
 40
3.2
  1
180
 50
45.0
 41
0.8125
  7
BIGFONT
100
AcDbText
  0
LINE
  5
5C0
330
1E
100
AcDbEntity
  8
0
  6
CONTINUOUS
 62
     7
100
AcDbLine
 10
218.0517
 20
61.1319
 30
0.0
 11
218.0517
 21
67.1319
 31
0.0
  0
LINE
  5
5C1
330
1E
100
AcDbEntity
  8
0
  6
CONTINUOUS
 62
     7
100
AcDbLine
 10
-167.0638999999999
 20
-83.25079999999998
 30
0.0
 11
-161.3655999999999
 21
-76.45985
 31
0.0
  0
LINE
  5
5C2
330
1E
100
AcDbEntity
  8
0
  6
CONTINUOUS
 62
     7
100
AcDbLine
 10
-173.8655999999999
 20
-88.95985000000001
 30
0.0
 11
-167.0638999999999
 21
-83.25079999999998
 31
0.0
  0
LINE
  5
5C3
330
1E
100
AcDbEntity
  8
0
  6
CONTINUOUS
 62
     7
100
AcDbLine
 10
-49.5313
 20
-83.25079999999998
 30
0.0
 11
-43.833
 21
-76.45985
 31
0.0
  0
LINE
  5
5C4
330
1E
100
AcDbEntity
  8
0
  6
CONTINUOUS
 62
     7
100
AcDbLine
 10
-56.333
 20
-88.95985000000001
 30
0.0
 11
-49.5313
 21
-83.25079999999998
 31
0.0
  0
LINE
  5
605
330
1E
100
AcDbEntity
  8
2
  6
CONTINUOUS
 62
     7
100
AcDbLine
 10
62.9401
 20
-146.7541999999999
 30
0.0
 11
130.9401
 21
-146.7541999999999
 31
0.0
  0
LINE
  5
606
330
1E
100
AcDbEntity
  8
2
  6
CONTINUOUS
 62
     7
100
AcDbLine
 10
130.9401
 20
-171.7541999999999
 30
0.0
 11
130.9401
 21
-146.7541999999999
 31
0.0
  0
LINE
  5
607
330
1E
100
AcDbEntity
  8
2
  6
CONTINUOUS
 62
     7
100
AcDbLine
 10
62.9401
 20
-171.7541999999999
 30
0.0
 11
130.9401
 21
-171.7541999999999
 31
0.0
  0
LINE
  5
608
330
1E
100
AcDbEntity
  8
2
  6
CONTINUOUS
 62
     7
100
AcDbLine
 10
62.9401
 20
-171.7541999999999
 30
0.0
 11
62.9401
 21
-146.7541999999999
 31
0.0
  0
LINE
  5
609
330
1E
100
AcDbEntity
  8
2
  6
CONTINUOUS
 62
     7
100
AcDbLine
 10
62.9401
 20
-153.7542
 30
0.0
 11
130.9401
 21
-153.7542
 31
0.0
  0
LINE
  5
60A
330
1E
100
AcDbEntity
  8
2
  6
CONTINUOUS
 62
     7
100
AcDbLine
 10
62.9401
 20
-159.7541999999999
 30
0.0
 11
130.9401
 21
-159.7541999999999
 31
0.0
  0
LINE
  5
60B
330
1E
100
AcDbEntity
  8
2
  6
CONTINUOUS
 62
     7
100
AcDbLine
 10
62.9401
 20
-165.7542
 30
0.0
 11
130.9401
 21
-165.7542
 31
0.0
  0
LINE
  5
60C
330
1E
100
AcDbEntity
  8
2
  6
CONTINUOUS
 62
     7
100
AcDbLine
 10
110.9401
 20
-171.7541999999999
 30
0.0
 11
110.9401
 21
-153.7542
 31
0.0
  0
TEXT
  5
60D
330
1E
100
AcDbEntity
  8
2
  6
CONTINUOUS
 62
     7
100
AcDbText
 10
68.7866
 20
-158.7542
 30
0.0
 40
4.0
  1
鉄　　筋
  7
BIGFONT
100
AcDbText
  0
TEXT
  5
60E
330
1E
100
AcDbEntity
  8
2
  6
CONTINUOUS
 62
     7
100
AcDbText
 10
68.7866
 20
-164.7542
 30
0.0
 40
4.0
  1
コンクリート容積
  7
BIGFONT
100
AcDbText
  0
TEXT
  5
60F
330
1E
100
AcDbEntity
  8
2
  6
CONTINUOUS
 62
     7
100
AcDbText
 10
68.7866
 20
-170.7542
 30
0.0
 40
4.0
  1
総　重　量
  7
BIGFONT
100
AcDbText
  0
TEXT
  5
610
330
1E
100
AcDbEntity
  8
2
  6
CONTINUOUS
 62
     7
100
AcDbText
 10
70.718
 20
-152.5387
 30
0.0
 40
5.0
  1
重　量　内　訳　表
  7
BIGFONT
100
AcDbText
  0
TEXT
  5
611
330
1E
100
AcDbEntity
  8
2
  6
CONTINUOUS
 62
     7
100
AcDbText
 10
112.8916
 20
-158.7542
 30
0.0
 40
3.2
  1
41.07
  7
BIGFONT
100
AcDbText
  0
TEXT
  5
612
330
1E
100
AcDbEntity
  8
2
  6
CONTINUOUS
 62
     7
100
AcDbText
 10
126.0175999999999
 20
-158.3448949039462
 30
0.0
 40
3.0
  1
kg
 41
0.8
  7
BIGFONT
100
AcDbText
  0
TEXT
  5
613
330
1E
100
AcDbEntity
  8
2
  6
CONTINUOUS
 62
     7
100
AcDbText
 10
113.1915999999999
 20
-164.8827999999999
 30
0.0
 40
3.2
  1
0.456
  7
BIGFONT
100
AcDbText
  0
TEXT
  5
614
330
1E
100
AcDbEntity
  8
2
  6
CONTINUOUS
 62
     7
100
AcDbText
 10
114.0916
 20
-170.8828
 30
0.0
 40
3.2
  1
1090
  7
BIGFONT
100
AcDbText
  0
TEXT
  5
615
330
1E
100
AcDbEntity
  8
2
  6
CONTINUOUS
 62
     7
100
AcDbText
 10
125.9665
 20
-170.344894903946
 30
0.0
 40
3.0
  1
kg
 41
0.8
  7
BIGFONT
100
AcDbText
  0
TEXT
  5
616
330
1E
100
AcDbEntity
  8
2
  6
CONTINUOUS
 62
     7
100
AcDbText
 10
126.5694574928657
 20
-165.280449828307
 30
0.0
 40
3.0
  1
ｍ
 41
0.8
  7
BIGFONT
100
AcDbText
  0
TEXT
  5
617
330
1E
100
AcDbEntity
  8
2
  6
CONTINUOUS
 62
     7
100
AcDbText
 10
128.5509
 20
-163.551
 30
0.0
 40
1.199999999999999
  1
３
 41
0.8
  7
BIGFONT
100
AcDbText
  0
TEXT
  5
6D2
330
1E
100
AcDbEntity
  8
2
  6
CONTINUOUS
 62
     7
100
AcDbText
 10
-0.2970999999998867
 20
-65.25909999999993
 30
0.0
 40
4.0
  1
径
  7
BIGFONT
100
AcDbText
  0
TEXT
  5
6D3
330
1E
100
AcDbEntity
  8
2
  6
CONTINUOUS
 62
     7
100
AcDbText
 10
-8.740999999999871
 20
-55.69719999999993
 30
0.0
 40
5.0
  1
鉄筋表
  7
BIGFONT
100
AcDbText
  0
TEXT
  5
6D4
330
1E
100
AcDbEntity
  8
2
  6
CONTINUOUS
 62
     7
100
AcDbText
 10
-2.613799999999853
 20
-72.23989999999995
 30
0.0
 40
3.5
  1
D10
  7
BIGFONT
100
AcDbText
  0
TEXT
  5
6D5
330
1E
100
AcDbEntity
  8
2
  6
CONTINUOUS
 62
     7
100
AcDbText
 10
-2.578499999999849
 20
-80.62129999999994
 30
0.0
 40
3.5
  1
D10
  7
BIGFONT
100
AcDbText
  0
TEXT
  5
6D6
330
1E
100
AcDbEntity
  8
2
  6
CONTINUOUS
 62
     7
100
AcDbText
 10
-2.578499999999849
 20
-93.12129999999994
 30
0.0
 40
3.5
  1
D10
  7
BIGFONT
100
AcDbText
  0
TEXT
  5
6D7
330
1E
100
AcDbEntity
  8
2
  6
CONTINUOUS
 62
     7
100
AcDbText
 10
-2.578499999999849
 20
-97.81459999999995
 30
0.0
 40
3.5
  1
D10
  7
BIGFONT
100
AcDbText
  0
TEXT
  5
6D8
330
1E
100
AcDbEntity
  8
2
  6
CONTINUOUS
 62
     7
100
AcDbText
 10
-2.578499999999849
 20
-85.31459999999995
 30
0.0
 40
3.5
  1
D10
  7
BIGFONT
100
AcDbText
  0
TEXT
  5
6D9
330
1E
100
AcDbEntity
  8
2
  6
CONTINUOUS
 62
     7
100
AcDbText
 10
-2.613799999999853
 20
-106.2398999999997
 30
0.0
 40
3.5
  1
D10
  7
BIGFONT
100
AcDbText
  0
TEXT
  5
6DA
330
1E
100
AcDbEntity
  8
2
  6
CONTINUOUS
 62
     7
100
AcDbText
 10
-2.613799999999853
 20
-114.2398999999999
 30
0.0
 40
3.5
  1
D10
  7
BIGFONT
100
AcDbText
  0
TEXT
  5
6DB
330
1E
100
AcDbEntity
  8
2
  6
CONTINUOUS
 62
     7
100
AcDbText
 10
-2.613799999999853
 20
-122.2398999999998
 30
0.0
 40
3.5
  1
D10
  7
BIGFONT
100
AcDbText
  0
TEXT
  5
6DC
330
1E
100
AcDbEntity
  8
2
  6
CONTINUOUS
 62
     7
100
AcDbText
 10
-2.613799999999853
 20
-130.2398999999997
 30
0.0
 40
3.5
  1
D10
  7
BIGFONT
100
AcDbText
  0
LINE
  5
6DD
330
1E
100
AcDbEntity
  8
2
  6
CONTINUOUS
 62
     7
100
AcDbLine
 10
-16.05989999999985
 20
-140.7541999999999
 30
0.0
 11
130.9401
 21
-140.7541999999999
 31
0.0
  0
LINE
  5
6DE
330
1E
100
AcDbEntity
  8
2
  6
CONTINUOUS
 62
     7
100
AcDbLine
 10
-16.05989999999985
 20
-132.7541999999999
 30
0.0
 11
130.9401
 21
-132.7541999999999
 31
0.0
  0
LINE
  5
6DF
330
1E
100
AcDbEntity
  8
2
  6
CONTINUOUS
 62
     7
100
AcDbLine
 10
-16.05989999999985
 20
-124.7541999999999
 30
0.0
 11
130.9401
 21
-124.7541999999999
 31
0.0
  0
LINE
  5
6E0
330
1E
100
AcDbEntity
  8
2
  6
CONTINUOUS
 62
     7
100
AcDbLine
 10
-16.05989999999985
 20
-116.7541999999997
 30
0.0
 11
130.9401
 21
-116.7541999999997
 31
0.0
  0
LINE
  5
6E1
330
1E
100
AcDbEntity
  8
2
  6
CONTINUOUS
 62
     7
100
AcDbLine
 10
-16.05989999999985
 20
-100.7541999999999
 30
0.0
 11
130.9401
 21
-100.7541999999999
 31
0.0
  0
LINE
  5
6E2
330
1E
100
AcDbEntity
  8
2
  6
CONTINUOUS
 62
     7
100
AcDbLine
 10
-16.05989999999985
 20
-87.75419999999996
 30
0.0
 11
130.9401
 21
-87.75419999999996
 31
0.0
  0
LINE
  5
6E3
330
1E
100
AcDbEntity
  8
2
  6
CONTINUOUS
 62
     7
100
AcDbLine
 10
-16.05989999999985
 20
-108.7541999999997
 30
0.0
 11
130.9401
 21
-108.7541999999997
 31
0.0
  0
LINE
  5
6E4
330
1E
100
AcDbEntity
  8
2
  6
CONTINUOUS
 62
     7
100
AcDbLine
 10
-16.05989999999985
 20
-66.75419999999992
 30
0.0
 11
130.9401
 21
-66.75419999999992
 31
0.0
  0
LINE
  5
6E5
330
1E
100
AcDbEntity
  8
2
  6
CONTINUOUS
 62
     7
100
AcDbLine
 10
-16.05989999999985
 20
-74.75419999999992
 30
0.0
 11
130.9401
 21
-74.75419999999992
 31
0.0
  0
LINE
  5
6E6
330
1E
100
AcDbEntity
  8
2
  6
CONTINUOUS
 62
     7
100
AcDbLine
 10
-16.05989999999985
 20
-58.75419999999993
 30
0.0
 11
130.9401
 21
-58.75419999999993
 31
0.0
  0
LINE
  5
6E7
330
1E
100
AcDbEntity
  8
2
  6
CONTINUOUS
 62
     7
100
AcDbLine
 10
-16.05989999999985
 20
-140.7541999999999
 30
0.0
 11
-16.05989999999985
 21
-108.7541999999997
 31
0.0
  0
LINE
  5
6E8
330
1E
100
AcDbEntity
  8
2
  6
CONTINUOUS
 62
     7
100
AcDbLine
 10
-6.059899999999856
 20
-132.7541999999999
 30
0.0
 11
-6.059899999999856
 21
-58.75419999999993
 31
0.0
  0
LINE
  5
6E9
330
1E
100
AcDbEntity
  8
2
  6
CONTINUOUS
 62
     7
100
AcDbLine
 10
-16.05989999999985
 20
-74.75419999999992
 30
0.0
 11
-16.05989999999985
 21
-58.75419999999993
 31
0.0
  0
LINE
  5
6EA
330
1E
100
AcDbEntity
  8
2
  6
CONTINUOUS
 62
     7
100
AcDbLine
 10
-16.05989999999985
 20
-108.7541999999997
 30
0.0
 11
-16.05989999999985
 21
-74.75419999999992
 31
0.0
  0
TEXT
  5
6EB
330
1E
100
AcDbEntity
  8
2
  6
CONTINUOUS
 62
     7
100
AcDbText
 10
-12.61379999999985
 20
-122.2398999999998
 30
0.0
 40
3.5
  1
６
  7
BIGFONT
100
AcDbText
  0
TEXT
  5
6EC
330
1E
100
AcDbEntity
  8
2
  6
CONTINUOUS
 62
     7
100
AcDbText
 10
-12.61379999999985
 20
-130.2398999999997
 30
0.0
 40
3.5
  1
７
  7
BIGFONT
100
AcDbText
  0
TEXT
  5
6ED
330
1E
100
AcDbEntity
  8
2
  6
CONTINUOUS
 62
     7
100
AcDbText
 10
-12.61379999999985
 20
-106.2398999999997
 30
0.0
 40
3.5
  1
４
  7
BIGFONT
100
AcDbText
  0
TEXT
  5
6EE
330
1E
100
AcDbEntity
  8
2
  6
CONTINUOUS
 62
     7
100
AcDbText
 10
-12.61379999999985
 20
-114.2398999999999
 30
0.0
 40
3.5
  1
５
  7
BIGFONT
100
AcDbText
  0
TEXT
  5
6EF
330
1E
100
AcDbEntity
  8
2
  6
CONTINUOUS
 62
     7
100
AcDbText
 10
-12.57849999999985
 20
-93.12129999999994
 30
0.0
 40
3.5
  1
３
  7
BIGFONT
100
AcDbText
  0
TEXT
  5
6F0
330
1E
100
AcDbEntity
  8
2
  6
CONTINUOUS
 62
     7
100
AcDbText
 10
-12.61379999999985
 20
-72.23989999999995
 30
0.0
 40
3.5
  1
１
  7
BIGFONT
100
AcDbText
  0
TEXT
  5
6F1
330
1E
100
AcDbEntity
  8
2
  6
CONTINUOUS
 62
     7
100
AcDbText
 10
-12.57849999999985
 20
-80.62129999999994
 30
0.0
 40
3.5
  1
２
  7
BIGFONT
100
AcDbText
  0
TEXT
  5
6F2
330
1E
100
AcDbEntity
  8
2
  6
CONTINUOUS
 62
     7
100
AcDbText
 10
-15.33709999999985
 20
-65.08339999999996
 30
0.0
 40
4.0
  1
番号
  7
BIGFONT
100
AcDbText
  0
LINE
  5
6F3
330
1E
100
AcDbEntity
  8
2
  6
CONTINUOUS
 62
     7
100
AcDbLine
 10
130.9401
 20
-140.7541999999999
 30
0.0
 11
130.9401
 21
-108.7541999999997
 31
0.0
  0
LINE
  5
6F4
330
1E
100
AcDbEntity
  8
2
  6
CONTINUOUS
 62
     7
100
AcDbLine
 10
95.94010000000016
 20
-140.7541999999999
 30
0.0
 11
95.94010000000016
 21
-58.75419999999993
 31
0.0
  0
TEXT
  5
6F5
330
1E
100
AcDbEntity
  8
2
  6
CONTINUOUS
 62
     7
100
AcDbText
 10
78.67490000000009
 20
-139.0116999999998
 30
0.0
 40
4.0
  1
合計
  7
BIGFONT
100
AcDbText
  0
TEXT
  5
6F6
330
1E
100
AcDbEntity
  8
2
  6
CONTINUOUS
 62
     7
100
AcDbText
 10
108.4855000000001
 20
-139.0116999999998
 30
0.0
 40
3.2
  1
41.07
  7
BIGFONT
100
AcDbText
  0
TEXT
  5
6F7
330
1E
100
AcDbEntity
  8
2
  6
CONTINUOUS
 62
     7
100
AcDbText
 10
122.6115
 20
-139.0116999999998
 30
0.0
 40
3.2
  1
ｋｇ
  7
BIGFONT
100
AcDbText
  0
TEXT
  5
6F8
330
1E
100
AcDbEntity
  8
2
  6
CONTINUOUS
 62
     7
100
AcDbText
 10
81.10296501552182
 20
-114.2777999999997
 30
0.0
 40
3.5
  1
2055
  7
BIGFONT
100
AcDbText
  0
TEXT
  5
6F9
330
1E
100
AcDbEntity
  8
2
  6
CONTINUOUS
 62
     7
100
AcDbText
 10
81.10296501552182
 20
-122.2777999999997
 30
0.0
 40
3.5
  1
2095
  7
BIGFONT
100
AcDbText
  0
LINE
  5
6FA
330
1E
100
AcDbEntity
  8
2
  6
CONTINUOUS
 62
     7
100
AcDbLine
 10
26.94010000000014
 20
-132.7541999999999
 30
0.0
 11
26.94010000000014
 21
-58.75419999999993
 31
0.0
  0
LINE
  5
6FB
330
1E
100
AcDbEntity
  8
2
  6
CONTINUOUS
 62
     7
100
AcDbLine
 10
44.94010000000014
 20
-132.7541999999999
 30
0.0
 11
44.94010000000014
 21
-58.75419999999993
 31
0.0
  0
LINE
  5
6FC
330
1E
100
AcDbEntity
  8
2
  6
CONTINUOUS
 62
     7
100
AcDbLine
 10
62.94010000000014
 20
-132.7541999999999
 30
0.0
 11
62.94010000000014
 21
-58.75419999999993
 31
0.0
  0
LINE
  5
6FD
330
1E
100
AcDbEntity
  8
2
  6
CONTINUOUS
 62
     7
100
AcDbLine
 10
77.94010000000014
 20
-132.7541999999999
 30
0.0
 11
77.94010000000014
 21
-58.75419999999993
 31
0.0
  0
LINE
  5
6FE
330
1E
100
AcDbEntity
  8
2
  6
CONTINUOUS
 62
     7
100
AcDbLine
 10
8.940100000000143
 20
-132.7541999999999
 30
0.0
 11
8.940100000000143
 21
-58.75419999999993
 31
0.0
  0
TEXT
  5
6FF
330
1E
100
AcDbEntity
  8
2
  6
CONTINUOUS
 62
     7
100
AcDbText
 10
13.44005001139191
 20
-122.2777999999999
 30
0.0
 40
3.5
  1
1020
  7
BIGFONT
100
AcDbText
  0
TEXT
  5
700
330
1E
100
AcDbEntity
  8
2
  6
CONTINUOUS
 62
     7
100
AcDbText
 10
15.29730360416658
 20
-130.2778
 30
0.0
 40
3.5
  1
340
  7
BIGFONT
100
AcDbText
  0
TEXT
  5
701
330
1E
100
AcDbEntity
  8
2
  6
CONTINUOUS
 62
     7
100
AcDbText
 10
18.68177944111164
 20
-106.2777999999997
 30
0.0
 40
3.5
  1
80
  7
BIGFONT
100
AcDbText
  0
TEXT
  5
702
330
1E
100
AcDbEntity
  8
2
  6
CONTINUOUS
 62
     7
100
AcDbText
 10
13.94757288403877
 20
-114.2777999999997
 30
0.0
 40
3.5
  1
1000
  7
BIGFONT
100
AcDbText
  0
TEXT
  5
703
330
1E
100
AcDbEntity
  8
2
  6
CONTINUOUS
 62
     7
100
AcDbText
 10
34.65119154709952
 20
-122.2777999999999
 30
0.0
 40
3.5
  1
55
  7
BIGFONT
100
AcDbText
  0
TEXT
  5
704
330
1E
100
AcDbEntity
  8
2
  6
CONTINUOUS
 62
     7
100
AcDbText
 10
38.64003794601547
 20
-130.2778
 30
0.0
 40
3.5
  1
0
  7
BIGFONT
100
AcDbText
  0
TEXT
  5
705
330
1E
100
AcDbEntity
  8
2
  6
CONTINUOUS
 62
     7
100
AcDbText
 10
31.16925187693083
 20
-106.2777999999997
 30
0.0
 40
3.5
  1
235
  7
BIGFONT
100
AcDbText
  0
TEXT
  5
706
330
1E
100
AcDbEntity
  8
2
  6
CONTINUOUS
 62
     7
100
AcDbText
 10
34.65119154709952
 20
-114.2777999999997
 30
0.0
 40
3.5
  1
55
  7
BIGFONT
100
AcDbText
  0
TEXT
  5
707
330
1E
100
AcDbEntity
  8
2
  6
CONTINUOUS
 62
     7
100
AcDbText
 10
15.29730360416658
 20
-79.89575091359833
 30
0.0
 40
3.5
  1
818
  7
BIGFONT
100
AcDbText
  0
TEXT
  5
708
330
1E
100
AcDbEntity
  8
2
  6
CONTINUOUS
 62
     7
100
AcDbText
 10
13.44005001139191
 20
-85.7743095468621
 30
0.0
 40
3.5
  1
1030
  7
BIGFONT
100
AcDbText
  0
TEXT
  5
709
330
1E
100
AcDbEntity
  8
2
  6
CONTINUOUS
 62
     7
100
AcDbText
 10
13.44005001139191
 20
-98.77430954686213
 30
0.0
 40
3.5
  1
1030
  7
BIGFONT
100
AcDbText
  0
TEXT
  5
70A
330
1E
100
AcDbEntity
  8
2
  6
CONTINUOUS
 62
     7
100
AcDbText
 10
15.29730360416658
 20
-92.89575091359834
 30
0.0
 40
3.5
  1
470
  7
BIGFONT
100
AcDbText
  0
TEXT
  5
70B
330
1E
100
AcDbEntity
  8
2
  6
CONTINUOUS
 62
     7
100
AcDbText
 10
14.62427004756807
 20
-72.27779999999992
 30
0.0
 40
3.5
  1
1110
  7
BIGFONT
100
AcDbText
  0
TEXT
  5
70C
330
1E
100
AcDbEntity
  8
2
  6
CONTINUOUS
 62
     7
100
AcDbText
 10
34.65119154709952
 20
-85.7743095468621
 30
0.0
 40
3.5
  1
55
  7
BIGFONT
100
AcDbText
  0
TEXT
  5
70D
330
1E
100
AcDbEntity
  8
2
  6
CONTINUOUS
 62
     7
100
AcDbText
 10
34.65119154709952
 20
-92.89575091359834
 30
0.0
 40
3.5
  1
55
  7
BIGFONT
100
AcDbText
  0
TEXT
  5
70E
330
1E
100
AcDbEntity
  8
2
  6
CONTINUOUS
 62
     7
100
AcDbText
 10
34.65119154709952
 20
-98.77430954686213
 30
0.0
 40
3.5
  1
55
  7
BIGFONT
100
AcDbText
  0
TEXT
  5
70F
330
1E
100
AcDbEntity
  8
2
  6
CONTINUOUS
 62
     7
100
AcDbText
 10
34.65119154709952
 20
-72.27779999999992
 30
0.0
 40
3.5
  1
55
  7
BIGFONT
100
AcDbText
  0
TEXT
  5
710
330
1E
100
AcDbEntity
  8
2
  6
CONTINUOUS
 62
     7
100
AcDbText
 10
34.65119154709952
 20
-79.89575091359833
 30
0.0
 40
3.5
  1
55
  7
BIGFONT
100
AcDbText
  0
TEXT
  5
711
330
1E
100
AcDbEntity
  8
2
  6
CONTINUOUS
 62
     7
100
AcDbText
 10
68.0249986864909
 20
-114.2777999999997
 30
0.0
 40
3.5
  1
30
  7
BIGFONT
100
AcDbText
  0
TEXT
  5
712
330
1E
100
AcDbEntity
  8
2
  6
CONTINUOUS
 62
     7
100
AcDbText
 10
68.0249986864909
 20
-122.2777999999997
 30
0.0
 40
3.5
  1
30
  7
BIGFONT
100
AcDbText
  0
TEXT
  5
713
330
1E
100
AcDbEntity
  8
2
  6
CONTINUOUS
 62
     7
100
AcDbText
 10
58.01766708023556
 20
-130.2778
 30
0.0
 40
3.5
  1
0
  7
BIGFONT
100
AcDbText
  0
TEXT
  5
714
330
1E
100
AcDbEntity
  8
2
  6
CONTINUOUS
 62
     7
100
AcDbText
 10
49.46206509857745
 20
-122.2777999999999
 30
0.0
 40
3.5
  1
1020
  7
BIGFONT
100
AcDbText
  0
TEXT
  5
715
330
1E
100
AcDbEntity
  8
2
  6
CONTINUOUS
 62
     7
100
AcDbText
 10
50.01924136245668
 20
-114.2777999999997
 30
0.0
 40
3.5
  1
1000
  7
BIGFONT
100
AcDbText
  0
TEXT
  5
716
330
1E
100
AcDbEntity
  8
2
  6
CONTINUOUS
 62
     7
100
AcDbText
 10
54.6595819842272
 20
-106.2777999999997
 30
0.0
 40
3.5
  1
80
  7
BIGFONT
100
AcDbText
  0
TEXT
  5
717
330
1E
100
AcDbEntity
  8
2
  6
CONTINUOUS
 62
     7
100
AcDbText
 10
71.55098864096976
 20
-130.2777999999997
 30
0.0
 40
3.5
  1
0
  7
BIGFONT
100
AcDbText
  0
TEXT
  5
718
330
1E
100
AcDbEntity
  8
2
  6
CONTINUOUS
 62
     7
100
AcDbText
 10
84.61313343141478
 20
-130.2777999999997
 30
0.0
 40
3.5
  1
340
  7
BIGFONT
100
AcDbText
  0
TEXT
  5
719
330
1E
100
AcDbEntity
  8
2
  6
CONTINUOUS
 62
     7
100
AcDbText
 10
71.55098864096988
 20
-106.2777999999997
 30
0.0
 40
3.5
  1
0
  7
BIGFONT
100
AcDbText
  0
TEXT
  5
71A
330
1E
100
AcDbEntity
  8
2
  6
CONTINUOUS
 62
     7
100
AcDbText
 10
83.97071058707011
 20
-106.2777999999997
 30
0.0
 40
3.5
  1
395
  7
BIGFONT
100
AcDbText
  0
TEXT
  5
71B
330
1E
100
AcDbEntity
  8
2
  6
CONTINUOUS
 62
     7
100
AcDbText
 10
68.0249986864909
 20
-72.27779999999992
 30
0.0
 40
3.5
  1
30
  7
BIGFONT
100
AcDbText
  0
TEXT
  5
71C
330
1E
100
AcDbEntity
  8
2
  6
CONTINUOUS
 62
     7
100
AcDbText
 10
68.0249986864909
 20
-79.46582932312741
 30
0.0
 40
3.5
  1
30
  7
BIGFONT
100
AcDbText
  0
TEXT
  5
71D
330
1E
100
AcDbEntity
  8
2
  6
CONTINUOUS
 62
     7
100
AcDbText
 10
68.0249986864909
 20
-92.4658293231274
 30
0.0
 40
3.5
  1
30
  7
BIGFONT
100
AcDbText
  0
TEXT
  5
71E
330
1E
100
AcDbEntity
  8
2
  6
CONTINUOUS
 62
     7
100
AcDbText
 10
68.0249986864909
 20
-98.9763895040272
 30
0.0
 40
3.5
  1
30
  7
BIGFONT
100
AcDbText
  0
TEXT
  5
71F
330
1E
100
AcDbEntity
  8
2
  6
CONTINUOUS
 62
     7
100
AcDbText
 10
68.0249986864909
 20
-85.97638950402719
 30
0.0
 40
3.5
  1
30
  7
BIGFONT
100
AcDbText
  0
TEXT
  5
720
330
1E
100
AcDbEntity
  8
2
  6
CONTINUOUS
 62
     7
100
AcDbText
 10
54.6595819842272
 20
-85.7743095468621
 30
0.0
 40
3.5
  1
80
  7
BIGFONT
100
AcDbText
  0
TEXT
  5
721
330
1E
100
AcDbEntity
  8
2
  6
CONTINUOUS
 62
     7
100
AcDbText
 10
51.13359202974823
 20
-98.77430954686213
 30
0.0
 40
3.5
  1
670
  7
BIGFONT
100
AcDbText
  0
TEXT
  5
722
330
1E
100
AcDbEntity
  8
2
  6
CONTINUOUS
 62
     7
100
AcDbText
 10
51.13359202974823
 20
-92.89575091359834
 30
0.0
 40
3.5
  1
670
  7
BIGFONT
100
AcDbText
  0
TEXT
  5
723
330
1E
100
AcDbEntity
  8
2
  6
CONTINUOUS
 62
     7
100
AcDbText
 10
54.6595819842272
 20
-79.89575091359833
 30
0.0
 40
3.5
  1
80
  7
BIGFONT
100
AcDbText
  0
TEXT
  5
724
330
1E
100
AcDbEntity
  8
2
  6
CONTINUOUS
 62
     7
100
AcDbText
 10
54.6595819842272
 20
-72.27779999999992
 30
0.0
 40
3.5
  1
80
  7
BIGFONT
100
AcDbText
  0
TEXT
  5
725
330
1E
100
AcDbEntity
  8
2
  6
CONTINUOUS
 62
     7
100
AcDbText
 10
82.79752824436434
 20
-85.97638950402719
 30
0.0
 40
3.5
  1
1165
  7
BIGFONT
100
AcDbText
  0
TEXT
  5
726
330
1E
100
AcDbEntity
  8
2
  6
CONTINUOUS
 62
     7
100
AcDbText
 10
81.7081655042274
 20
-98.9763895040272
 30
0.0
 40
3.5
  1
1755
  7
BIGFONT
100
AcDbText
  0
TEXT
  5
727
330
1E
100
AcDbEntity
  8
2
  6
CONTINUOUS
 62
     7
100
AcDbText
 10
82.79752824436434
 20
-92.4658293231274
 30
0.0
 40
3.5
  1
1195
  7
BIGFONT
100
AcDbText
  0
TEXT
  5
728
330
1E
100
AcDbEntity
  8
2
  6
CONTINUOUS
 62
     7
100
AcDbText
 10
83.97071058707011
 20
-79.46582932312741
 30
0.0
 40
3.5
  1
953
  7
BIGFONT
100
AcDbText
  0
TEXT
  5
729
330
1E
100
AcDbEntity
  8
2
  6
CONTINUOUS
 62
     7
100
AcDbText
 10
81.7081655042274
 20
-72.27779999999992
 30
0.0
 40
3.5
  1
1245
  7
BIGFONT
100
AcDbText
  0
TEXT
  5
72A
330
1E
100
AcDbEntity
  8
2
  6
CONTINUOUS
 62
     7
100
AcDbText
 10
14.6839000000001
 20
-65.26219999999992
 30
0.0
 40
4.0
  1
Ｌ１
  7
BIGFONT
100
AcDbText
  0
TEXT
  5
72B
330
1E
100
AcDbEntity
  8
2
  6
CONTINUOUS
 62
     7
100
AcDbText
 10
32.3827000000001
 20
-65.29759999999993
 30
0.0
 40
4.0
  1
Ｌ２
  7
BIGFONT
100
AcDbText
  0
TEXT
  5
72C
330
1E
100
AcDbEntity
  8
2
  6
CONTINUOUS
 62
     7
100
AcDbText
 10
68.7424000000002
 20
-65.26219999999992
 30
0.0
 40
4.0
  1
Ｒ
  7
BIGFONT
100
AcDbText
  0
TEXT
  5
72D
330
1E
100
AcDbEntity
  8
2
  6
CONTINUOUS
 62
     7
100
AcDbText
 10
49.57220000000018
 20
-65.22669999999994
 30
0.0
 40
4.0
  1
Ｌ３
  7
BIGFONT
100
AcDbText
  0
TEXT
  5
72E
330
1E
100
AcDbEntity
  8
2
  6
CONTINUOUS
 62
     7
100
AcDbText
 10
84.64350000000013
 20
-65.29759999999993
 30
0.0
 40
4.0
  1
Ｌ
  7
BIGFONT
100
AcDbText
  0
LINE
  5
72F
330
1E
100
AcDbEntity
  8
2
  6
CONTINUOUS
 62
     7
100
AcDbLine
 10
130.9401
 20
-74.75419999999992
 30
0.0
 11
130.9401
 21
-58.75419999999993
 31
0.0
  0
LINE
  5
730
330
1E
100
AcDbEntity
  8
2
  6
CONTINUOUS
 62
     7
100
AcDbLine
 10
110.9401
 20
-132.7541999999999
 30
0.0
 11
110.9401
 21
-58.75419999999993
 31
0.0
  0
LINE
  5
731
330
1E
100
AcDbEntity
  8
2
  6
CONTINUOUS
 62
     7
100
AcDbLine
 10
130.9401
 20
-108.7541999999997
 30
0.0
 11
130.9401
 21
-74.75419999999992
 31
0.0
  0
TEXT
  5
732
330
1E
100
AcDbEntity
  8
2
  6
CONTINUOUS
 62
     7
100
AcDbText
 10
103.7822462030101
 20
-130.2777999999997
 30
0.0
 40
3.5
  1
1
  7
BIGFONT
100
AcDbText
  0
TEXT
  5
733
330
1E
100
AcDbEntity
  8
2
  6
CONTINUOUS
 62
     7
100
AcDbText
 10
103.7822462030101
 20
-122.2777999999997
 30
0.0
 40
3.5
  1
3
  7
BIGFONT
100
AcDbText
  0
TEXT
  5
734
330
1E
100
AcDbEntity
  8
2
  6
CONTINUOUS
 62
     7
100
AcDbText
 10
103.7822462030101
 20
-114.2777999999997
 30
0.0
 40
3.5
  1
5
  7
BIGFONT
100
AcDbText
  0
TEXT
  5
735
330
1E
100
AcDbEntity
  8
2
  6
CONTINUOUS
 62
     7
100
AcDbText
 10
103.7822462030101
 20
-106.2777999999997
 30
0.0
 40
3.5
  1
8
  7
BIGFONT
100
AcDbText
  0
TEXT
  5
736
330
1E
100
AcDbEntity
  8
2
  6
CONTINUOUS
 62
     7
100
AcDbText
 10
117.7377815405868
 20
-130.2777999999997
 30
0.0
 40
3.5
  1
0.19
  7
BIGFONT
100
AcDbText
  0
TEXT
  5
737
330
1E
100
AcDbEntity
  8
2
  6
CONTINUOUS
 62
     7
100
AcDbText
 10
117.2029680854635
 20
-122.2777999999997
 30
0.0
 40
3.5
  1
3.52
  7
BIGFONT
100
AcDbText
  0
TEXT
  5
738
330
1E
100
AcDbEntity
  8
2
  6
CONTINUOUS
 62
     7
100
AcDbText
 10
117.2029680854635
 20
-114.2777999999997
 30
0.0
 40
3.5
  1
5.75
  7
BIGFONT
100
AcDbText
  0
TEXT
  5
739
330
1E
100
AcDbEntity
  8
2
  6
CONTINUOUS
 62
     7
100
AcDbText
 10
118.4525932805957
 20
-106.2777999999997
 30
0.0
 40
3.5
  1
1.77
  7
BIGFONT
100
AcDbText
  0
TEXT
  5
73A
330
1E
100
AcDbEntity
  8
2
  6
CONTINUOUS
 62
     7
100
AcDbText
 10
101.4912657483679
 20
-85.97638950402719
 30
0.0
 40
3.5
  1
12
  7
BIGFONT
100
AcDbText
  0
TEXT
  5
73B
330
1E
100
AcDbEntity
  8
2
  6
CONTINUOUS
 62
     7
100
AcDbText
 10
103.7822462030101
 20
-98.9763895040272
 30
0.0
 40
3.5
  1
8
  7
BIGFONT
100
AcDbText
  0
TEXT
  5
73C
330
1E
100
AcDbEntity
  8
2
  6
CONTINUOUS
 62
     7
100
AcDbText
 10
103.7822462030101
 20
-92.4658293231274
 30
0.0
 40
3.5
  1
6
  7
BIGFONT
100
AcDbText
  0
TEXT
  5
73D
330
1E
100
AcDbEntity
  8
2
  6
CONTINUOUS
 62
     7
100
AcDbText
 10
103.7822462030101
 20
-79.46582932312741
 30
0.0
 40
3.5
  1
2
  7
BIGFONT
100
AcDbText
  0
TEXT
  5
73E
330
1E
100
AcDbEntity
  8
2
  6
CONTINUOUS
 62
     7
100
AcDbText
 10
101.4912657483679
 20
-72.27779999999992
 30
0.0
 40
3.5
  1
13
  7
BIGFONT
100
AcDbText
  0
TEXT
  5
73F
330
1E
100
AcDbEntity
  8
2
  6
CONTINUOUS
 62
     7
100
AcDbText
 10
117.2029680854635
 20
-85.97638950402719
 30
0.0
 40
3.5
  1
7.83
  7
BIGFONT
100
AcDbText
  0
TEXT
  5
740
330
1E
100
AcDbEntity
  8
2
  6
CONTINUOUS
 62
     7
100
AcDbText
 10
117.2029680854635
 20
-98.9763895040272
 30
0.0
 40
3.5
  1
7.86
  7
BIGFONT
100
AcDbText
  0
TEXT
  5
741
330
1E
100
AcDbEntity
  8
2
  6
CONTINUOUS
 62
     7
100
AcDbText
 10
117.2029680854635
 20
-92.4658293231274
 30
0.0
 40
3.5
  1
4.02
  7
BIGFONT
100
AcDbText
  0
TEXT
  5
742
330
1E
100
AcDbEntity
  8
2
  6
CONTINUOUS
 62
     7
100
AcDbText
 10
118.4525932805957
 20
-79.46582932312741
 30
0.0
 40
3.5
  1
1.07
  7
BIGFONT
100
AcDbText
  0
TEXT
  5
743
330
1E
100
AcDbEntity
  8
2
  6
CONTINUOUS
 62
     7
100
AcDbText
 10
117.2029680854635
 20
-72.27779999999992
 30
0.0
 40
3.5
  1
9.06
  7
BIGFONT
100
AcDbText
  0
TEXT
  5
744
330
1E
100
AcDbEntity
  8
2
  6
CONTINUOUS
 62
     7
100
AcDbText
 10
115.0391
 20
-65.15919999999993
 30
0.0
 40
4.0
  1
重量
  7
BIGFONT
100
AcDbText
  0
TEXT
  5
745
330
1E
100
AcDbEntity
  8
2
  6
CONTINUOUS
 62
     7
100
AcDbText
 10
98.5961000000001
 20
-65.15909999999994
 30
0.0
 40
4.0
  1
本数
  7
BIGFONT
100
AcDbText
  0
ENDSEC
  0
SECTION
  2
OBJECTS
  0
DICTIONARY
  5
C
330
0
100
AcDbDictionary
  3
ACAD_GROUP
350
D
  3
ACAD_LAYOUT
350
19
  3
ACAD_MLINESTYLE
350
16
  3
ACAD_PLOTSETTINGS
350
18
1001
ACAD
1000
TREAT_AS_HARD
1070
     0
1000
TREAT_AS_HARD
1070
     0
1000
TREAT_AS_HARD
1070
     0
  0
DICTIONARY
  5
78B
330
1E
100
AcDbDictionary
  3
ACAD_LAYOUTSELFREF
350
7A4
1001
ACAD
1000
TREAT_AS_HARD
1070
     0
1000
TREAT_AS_HARD
1070
     0
  0
DICTIONARY
  5
789
330
1A
100
AcDbDictionary
  3
ACAD_LAYOUTSELFREF
350
7A3
1001
ACAD
1000
TREAT_AS_HARD
1070
     0
1000
TREAT_AS_HARD
1070
     0
  0
DICTIONARY
  5
D
102
{ACAD_REACTORS
330
C
102
}
330
C
100
AcDbDictionary
1001
ACAD
1000
TREAT_AS_HARD
1070
     0
1000
TREAT_AS_HARD
1070
     0
1000
TREAT_AS_HARD
1070
     0
  0
DICTIONARY
  5
19
102
{ACAD_REACTORS
330
C
102
}
330
C
100
AcDbDictionary
1001
ACAD
1000
TREAT_AS_HARD
1070
     0
1000
TREAT_AS_HARD
1070
     0
1000
TREAT_AS_HARD
1070
     0
  0
DICTIONARY
  5
16
102
{ACAD_REACTORS
330
C
102
}
330
C
100
AcDbDictionary
  3
STANDARD
350
17
1001
ACAD
1000
TREAT_AS_HARD
1070
     0
1000
TREAT_AS_HARD
1070
     0
1000
TREAT_AS_HARD
1070
     0
  0
DICTIONARY
  5
18
102
{ACAD_REACTORS
330
C
102
}
330
C
100
AcDbDictionary
1001
ACAD
1000
TREAT_AS_HARD
1070
     0
1000
TREAT_AS_HARD
1070
     0
1000
TREAT_AS_HARD
1070
     0
  0
XRECORD
  5
7A4
102
{ACAD_REACTORS
330
78B
102
}
330
78B
100
AcDbXrecord
340
1E
  0
XRECORD
  5
7A3
102
{ACAD_REACTORS
330
789
102
}
330
789
100
AcDbXrecord
340
1A
  0
MLINESTYLE
  5
17
102
{ACAD_REACTORS
330
16
102
}
330
16
100
AcDbMlineStyle
  2
STANDARD
 70
     0
  3

 62
   256
 51
90.0
 52
90.0
 71
     2
 49
0.5
 62
   256
  6
BYLAYER
 49
-0.5
 62
   256
  6
BYLAYER
  0
ENDSEC
  0
EOF
