  0
SECTION
  2
HEADER
  9
$ACADVER
  1
AC1012
  9
$DWGCODEPAGE
  3
dos932
  9
$INSBASE
 10
0.0
 20
0.0
 30
0.0
  9
$EXTMIN
 10
-269.4190964852682
 20
-192.3889150172342
 30
-0.0000000000112498
  9
$EXTMAX
 10
269.4190992512963
 20
192.3889169730118
 30
0.0000000000002956
  9
$LIMMIN
 10
-297.0
 20
-210.0
  9
$LIMMAX
 10
297.0
 20
210.0
  9
$ORTHOMODE
 70
     1
  9
$REGENMODE
 70
     1
  9
$FILLMODE
 70
     1
  9
$QTEXTMODE
 70
     0
  9
$MIRRTEXT
 70
     1
  9
$DRAGMODE
 70
     2
  9
$LTSCALE
 40
1.0
  9
$OSMODE
 70
  2471
  9
$ATTMODE
 70
     1
  9
$TEXTSIZE
 40
1.0
  9
$TRACEWID
 40
0.05
  9
$TEXTSTYLE
  7
BIGFONT
  9
$CLAYER
  8
0
  9
$CELTYPE
  6
CONTINUOUS
  9
$CECOLOR
 62
   256
  9
$CELTSCALE
 40
1.0
  9
$DELOBJ
 70
     1
  9
$DISPSILH
 70
     0
  9
$DIMSCALE
 40
1.0
  9
$DIMASZ
 40
0.18
  9
$DIMEXO
 40
0.0625
  9
$DIMDLI
 40
0.38
  9
$DIMRND
 40
0.0
  9
$DIMDLE
 40
0.0
  9
$DIMEXE
 40
0.18
  9
$DIMTP
 40
0.0
  9
$DIMTM
 40
0.0
  9
$DIMTXT
 40
0.18
  9
$DIMCEN
 40
0.09
  9
$DIMTSZ
 40
0.0
  9
$DIMTOL
 70
     0
  9
$DIMLIM
 70
     0
  9
$DIMTIH
 70
     1
  9
$DIMTOH
 70
     1
  9
$DIMSE1
 70
     0
  9
$DIMSE2
 70
     0
  9
$DIMTAD
 70
     0
  9
$DIMZIN
 70
     0
  9
$DIMBLK
  1

  9
$DIMASO
 70
     1
  9
$DIMSHO
 70
     1
  9
$DIMPOST
  1

  9
$DIMAPOST
  1

  9
$DIMALT
 70
     0
  9
$DIMALTD
 70
     2
  9
$DIMALTF
 40
25.4
  9
$DIMLFAC
 40
1.0
  9
$DIMTOFL
 70
     0
  9
$DIMTVP
 40
0.0
  9
$DIMTIX
 70
     0
  9
$DIMSOXD
 70
     0
  9
$DIMSAH
 70
     0
  9
$DIMBLK1
  1

  9
$DIMBLK2
  1

  9
$DIMSTYLE
  2
STANDARD
  9
$DIMCLRD
 70
     0
  9
$DIMCLRE
 70
     0
  9
$DIMCLRT
 70
     0
  9
$DIMTFAC
 40
1.0
  9
$DIMGAP
 40
0.09
  9
$DIMJUST
 70
     0
  9
$DIMSD1
 70
     0
  9
$DIMSD2
 70
     0
  9
$DIMTOLJ
 70
     1
  9
$DIMTZIN
 70
     0
  9
$DIMALTZ
 70
     0
  9
$DIMALTTZ
 70
     0
  9
$DIMFIT
 70
     3
  9
$DIMUPT
 70
     0
  9
$DIMUNIT
 70
     2
  9
$DIMDEC
 70
     4
  9
$DIMTDEC
 70
     4
  9
$DIMALTU
 70
     2
  9
$DIMALTTD
 70
     2
  9
$DIMTXSTY
  7
STANDARD
  9
$DIMAUNIT
 70
     0
  9
$LUNITS
 70
     2
  9
$LUPREC
 70
     4
  9
$SKETCHINC
 40
0.1
  9
$FILLETRAD
 40
0.0
  9
$AUNITS
 70
     0
  9
$AUPREC
 70
     0
  9
$MENU
  1
.
  9
$ELEVATION
 40
0.0
  9
$PELEVATION
 40
0.0
  9
$THICKNESS
 40
0.0
  9
$LIMCHECK
 70
     0
  9
$BLIPMODE
 70
     0
  9
$CHAMFERA
 40
0.0
  9
$CHAMFERB
 40
0.0
  9
$CHAMFERC
 40
0.0
  9
$CHAMFERD
 40
0.0
  9
$SKPOLY
 70
     0
  9
$TDCREATE
 40
2452131.647212963
  9
$TDUPDATE
 40
2453202.747202777
  9
$TDINDWG
 40
0.0606246528
  9
$TDUSRTIMER
 40
0.0606246528
  9
$USRTIMER
 70
     1
  9
$ANGBASE
 50
0.0
  9
$ANGDIR
 70
     0
  9
$PDMODE
 70
     0
  9
$PDSIZE
 40
0.0
  9
$PLINEWID
 40
0.0
  9
$COORDS
 70
     1
  9
$SPLFRAME
 70
     0
  9
$SPLINETYPE
 70
     6
  9
$SPLINESEGS
 70
     8
  9
$ATTDIA
 70
     0
  9
$ATTREQ
 70
     1
  9
$HANDLING
 70
-16383
  9
$HANDSEED
  5
700
  9
$SURFTAB1
 70
     6
  9
$SURFTAB2
 70
     6
  9
$SURFTYPE
 70
     6
  9
$SURFU
 70
     6
  9
$SURFV
 70
     6
  9
$UCSNAME
  2

  9
$UCSORG
 10
0.0
 20
0.0
 30
0.0
  9
$UCSXDIR
 10
1.0
 20
0.0
 30
0.0
  9
$UCSYDIR
 10
0.0
 20
1.0
 30
0.0
  9
$PUCSNAME
  2

  9
$PUCSORG
 10
0.0
 20
0.0
 30
0.0
  9
$PUCSXDIR
 10
1.0
 20
0.0
 30
0.0
  9
$PUCSYDIR
 10
0.0
 20
1.0
 30
0.0
  9
$USERI1
 70
     0
  9
$USERI2
 70
     0
  9
$USERI3
 70
     0
  9
$USERI4
 70
     0
  9
$USERI5
 70
     0
  9
$USERR1
 40
0.0
  9
$USERR2
 40
0.0
  9
$USERR3
 40
0.0
  9
$USERR4
 40
0.0
  9
$USERR5
 40
0.0
  9
$WORLDVIEW
 70
     1
  9
$SHADEDGE
 70
     3
  9
$SHADEDIF
 70
    70
  9
$TILEMODE
 70
     1
  9
$MAXACTVP
 70
    64
  9
$PINSBASE
 10
0.0
 20
0.0
 30
0.0
  9
$PLIMCHECK
 70
     0
  9
$PEXTMIN
 10
1.000000000000000E+20
 20
1.000000000000000E+20
 30
1.000000000000000E+20
  9
$PEXTMAX
 10
-1.000000000000000E+20
 20
-1.000000000000000E+20
 30
-1.000000000000000E+20
  9
$PLIMMIN
 10
0.0
 20
0.0
  9
$PLIMMAX
 10
12.0
 20
9.0
  9
$UNITMODE
 70
     0
  9
$VISRETAIN
 70
     1
  9
$PLINEGEN
 70
     0
  9
$PSLTSCALE
 70
     1
  9
$TREEDEPTH
 70
  3020
  9
$PICKSTYLE
 70
     3
  9
$CMLSTYLE
  2
STANDARD
  9
$CMLJUST
 70
     0
  9
$CMLSCALE
 40
1.0
  9
$SAVEIMAGES
 70
     1
  0
ENDSEC
  0
SECTION
  2
CLASSES
  0
CLASS
  1
ACDBDICTIONARYWDFLT
  2
AcDbDictionaryWithDefault
  3
AutoCAD 2000
 90
    32768
280
     0
281
     0
  0
CLASS
  1
ACDBPLACEHOLDER
  2
AcDbPlaceHolder
  3
AutoCAD 2000
 90
    32768
280
     0
281
     0
  0
CLASS
  1
LAYOUT
  2
AcDbLayout
  3
AutoCAD 2000
 90
    32768
280
     0
281
     0
  0
CLASS
  1
LONG_TRANSACTION
  2
AcDbLongTransaction
  3
AutoCAD 2000
 90
    32768
280
     0
281
     0
  0
CLASS
  1
LWPOLYLINE
  2
AcDbPolyline
  3
AutoCAD 2000
 90
    32768
280
     0
281
     1
  0
CLASS
  1
HATCH
  2
AcDbHatch
  3
AutoCAD 2000
 90
    32768
280
     0
281
     1
  0
CLASS
  1
XRECORD
  2
AcDbXrecord
  3
AutoCAD 2000
 90
    32768
280
     0
281
     0
  0
CLASS
  1
LONG_TRANSACTION
  2
AcDbLongTransaction
  3
AutoCAD 2000
 90
    32768
280
     0
281
     0
  0
CLASS
  1
LWPOLYLINE
  2
AcDbPolyline
  3
AutoCAD 2000
 90
    32768
280
     0
281
     1
  0
CLASS
  1
HATCH
  2
AcDbHatch
  3
AutoCAD 2000
 90
    32768
280
     0
281
     1
  0
CLASS
  1
XRECORD
  2
AcDbXrecord
  3
AutoCAD 2000
 90
    32768
280
     0
281
     0
  0
CLASS
  1
LONG_TRANSACTION
  2
AcDbLongTransaction
  3
AutoCAD 2000
 90
    32768
280
     0
281
     0
  0
CLASS
  1
LWPOLYLINE
  2
AcDbPolyline
  3
AutoCAD 2000
 90
    32768
280
     0
281
     1
  0
CLASS
  1
HATCH
  2
AcDbHatch
  3
AutoCAD 2000
 90
    32768
280
     0
281
     1
  0
CLASS
  1
XRECORD
  2
AcDbXrecord
  3
AutoCAD 2000
 90
    32768
280
     0
281
     0
  0
ENDSEC
  0
SECTION
  2
TABLES
  0
TABLE
  2
VPORT
  5
8
330
0
100
AcDbSymbolTable
 70
     2
  0
VPORT
  5
6FD
330
8
100
AcDbSymbolTableRecord
100
AcDbViewportTableRecord
  2
*ACTIVE
 70
     0
 10
0.0
 20
0.0
 11
1.0
 21
1.0
 12
0.0000013830140375
 22
0.000000977888817
 13
0.0
 23
0.0
 14
1.0
 24
1.0
 15
0.0
 25
0.0
 16
0.0
 26
0.0
 36
1.0
 17
0.0
 27
0.0
 37
0.0
 40
389.2694020134785
 41
1.902534113060428
 42
50.0
 43
0.0
 44
0.0
 50
0.0
 51
0.0
 71
     0
 72
   100
 73
     1
 74
     1
 75
     0
 76
     0
 77
     0
 78
     0
  0
ENDTAB
  0
TABLE
  2
LTYPE
  5
5
330
0
100
AcDbSymbolTable
 70
     5
  0
LTYPE
  5
13
330
5
100
AcDbSymbolTableRecord
100
AcDbLinetypeTableRecord
  2
BYBLOCK
 70
     0
  3

 72
    65
 73
     0
 40
0.0
  0
LTYPE
  5
14
330
5
100
AcDbSymbolTableRecord
100
AcDbLinetypeTableRecord
  2
BYLAYER
 70
     0
  3

 72
    65
 73
     0
 40
0.0
  0
LTYPE
  5
15
330
5
100
AcDbSymbolTableRecord
100
AcDbLinetypeTableRecord
  2
CONTINUOUS
 70
     0
  3
実線
 72
    65
 73
     0
 40
0.0
  0
LTYPE
  5
23
330
5
100
AcDbSymbolTableRecord
100
AcDbLinetypeTableRecord
  2
HIDDEN
 70
     0
  3
_ _ _ _ _ _ _ _ _ _ _ _ _ _ _ _ _ _ _ _ _ _ _
 72
    65
 73
     2
 40
0.375
 49
0.25
 74
     0
 49
-0.125
 74
     0
  0
LTYPE
  5
24
330
5
100
AcDbSymbolTableRecord
100
AcDbLinetypeTableRecord
  2
DASHED
 70
     0
  3
__ __ __ __ __ __ __ __ __ __ __ __ __ __ __
 72
    65
 73
     2
 40
0.75
 49
0.5
 74
     0
 49
-0.25
 74
     0
  0
LTYPE
  5
25
330
5
100
AcDbSymbolTableRecord
100
AcDbLinetypeTableRecord
  2
CENTER
 70
     0
  3
____ _ ____ _ ____ _ ____ _ ____ _ ____ _ ____
 72
    65
 73
     4
 40
2.0
 49
1.25
 74
     0
 49
-0.25
 74
     0
 49
0.25
 74
     0
 49
-0.25
 74
     0
  0
LTYPE
  5
26
330
5
100
AcDbSymbolTableRecord
100
AcDbLinetypeTableRecord
  2
PHANTOM
 70
     0
  3
_____ _ _ _____ _ _ _____ _ _ _____ _ _ ____
 72
    65
 73
     6
 40
2.5
 49
1.25
 74
     0
 49
-0.25
 74
     0
 49
0.25
 74
     0
 49
-0.25
 74
     0
 49
0.25
 74
     0
 49
-0.25
 74
     0
  0
ENDTAB
  0
TABLE
  2
LAYER
  5
2
330
0
100
AcDbSymbolTable
 70
     4
  0
LAYER
  5
10
330
2
100
AcDbSymbolTableRecord
100
AcDbLayerTableRecord
  2
0
 70
     0
 62
     7
  6
CONTINUOUS
  0
LAYER
  5
27
330
2
100
AcDbSymbolTableRecord
100
AcDbLayerTableRecord
  2
1
 70
     0
 62
     7
  6
CONTINUOUS
  0
LAYER
  5
28
330
2
100
AcDbSymbolTableRecord
100
AcDbLayerTableRecord
  2
2
 70
     0
 62
     7
  6
CONTINUOUS
  0
LAYER
  5
29
330
2
100
AcDbSymbolTableRecord
100
AcDbLayerTableRecord
  2
3
 70
     0
 62
     7
  6
CONTINUOUS
  0
ENDTAB
  0
TABLE
  2
STYLE
  5
3
330
0
100
AcDbSymbolTable
 70
     2
  0
STYLE
  5
11
330
3
100
AcDbSymbolTableRecord
100
AcDbTextStyleTableRecord
  2
STANDARD
 70
     0
 40
0.0
 41
1.0
 50
0.0
 71
     0
 42
0.2
  3
txt
  4

  0
STYLE
  5
22
330
3
100
AcDbSymbolTableRecord
100
AcDbTextStyleTableRecord
  2
BIGFONT
 70
     0
 40
0.0
 41
1.0
 50
0.0
 71
     0
 42
1.0
  3

  4
bigfont
  0
ENDTAB
  0
TABLE
  2
VIEW
  5
6
330
0
100
AcDbSymbolTable
 70
     0
  0
ENDTAB
  0
TABLE
  2
UCS
  5
7
330
0
100
AcDbSymbolTable
 70
     0
  0
ENDTAB
  0
TABLE
  2
APPID
  5
9
330
0
100
AcDbSymbolTable
 70
     1
  0
APPID
  5
12
330
9
100
AcDbSymbolTableRecord
100
AcDbRegAppTableRecord
  2
ACAD
 70
     0
  0
ENDTAB
  0
TABLE
  2
DIMSTYLE
  5
A
330
0
100
AcDbSymbolTable
 70
     1
  0
DIMSTYLE
105
58D
330
A
100
AcDbSymbolTableRecord
100
AcDbDimStyleTableRecord
  2
STANDARD
 70
     0
  3

  4

  5

  6

  7

 40
1.0
 41
0.18
 42
0.0625
 43
0.38
 44
0.18
 45
0.0
 46
0.0
 47
0.0
 48
0.0
140
0.18
141
0.09
142
0.0
143
25.4
144
1.0
145
0.0
146
1.0
147
0.09
 71
     0
 72
     0
 73
     1
 74
     1
 75
     0
 76
     0
 77
     0
 78
     0
170
     0
171
     2
172
     0
173
     0
174
     0
175
     0
176
     0
177
     0
178
     0
270
     2
271
     4
272
     4
273
     2
274
     2
340
11
275
     0
280
     0
281
     0
282
     0
283
     1
284
     0
285
     0
286
     0
287
     3
288
     0
  0
ENDTAB
  0
TABLE
  2
BLOCK_RECORD
  5
1
330
0
100
AcDbSymbolTable
 70
     0
  0
BLOCK_RECORD
  5
1E
102
{ACAD_XDICTIONARY
360
6E6
102
}
330
1
100
AcDbSymbolTableRecord
100
AcDbBlockTableRecord
  2
*MODEL_SPACE
  0
BLOCK_RECORD
  5
1A
102
{ACAD_XDICTIONARY
360
6E4
102
}
330
1
100
AcDbSymbolTableRecord
100
AcDbBlockTableRecord
  2
*PAPER_SPACE
  0
ENDTAB
  0
ENDSEC
  0
SECTION
  2
BLOCKS
  0
BLOCK
  5
1F
330
1E
100
AcDbEntity
  8
0
100
AcDbBlockBegin
  2
*MODEL_SPACE
 70
     0
 10
0.0
 20
0.0
 30
0.0
  3
*MODEL_SPACE
  1

  0
ENDBLK
  5
20
330
1E
100
AcDbEntity
  8
0
100
AcDbBlockEnd
  0
BLOCK
  5
1B
330
1A
100
AcDbEntity
 67
     1
  8
0
100
AcDbBlockBegin
  2
*PAPER_SPACE
 70
     0
 10
0.0
 20
0.0
 30
0.0
  3
*PAPER_SPACE
  1

  0
ENDBLK
  5
1C
330
1A
100
AcDbEntity
 67
     1
  8
0
100
AcDbBlockEnd
  0
ENDSEC
  0
SECTION
  2
ENTITIES
  0
LINE
  5
2D
330
1E
100
AcDbEntity
  8
0
  6
HIDDEN
 62
     7
100
AcDbLine
 10
170.0
 20
103.0069
 30
0.0
 11
176.0
 21
103.0069
 31
0.0
  0
LINE
  5
2E
330
1E
100
AcDbEntity
  8
0
  6
HIDDEN
 62
     7
100
AcDbLine
 10
170.0
 20
99.25690000000001
 30
0.0
 11
176.07815
 21
99.25690000000001
 31
0.0
  0
LINE
  5
2F
330
1E
100
AcDbEntity
  8
0
  6
CONTINUOUS
 62
     7
100
AcDbLine
 10
167.1025999999999
 20
101.1319
 30
0.0
 11
172.1524499999999
 21
101.1319
 31
0.0
  0
LINE
  5
30
330
1E
100
AcDbEntity
  8
0
  6
CONTINUOUS
 62
     7
100
AcDbLine
 10
173.5492
 20
94.88190000000001
 30
0.0
 11
173.6868
 21
94.88190000000001
 31
0.0
  0
LINE
  5
31
330
1E
100
AcDbEntity
  8
0
  6
CONTINUOUS
 62
     7
100
AcDbLine
 10
173.4966
 20
101.1319
 30
0.0
 11
178.537
 21
101.1319
 31
0.0
  0
LINE
  5
32
330
1E
100
AcDbEntity
  8
0
  6
CONTINUOUS
 62
     7
100
AcDbLine
 10
170.0
 20
64.8819
 30
0.0
 11
217.5
 21
64.8819
 31
0.0
  0
LINE
  5
33
330
1E
100
AcDbEntity
  8
0
  6
CONTINUOUS
 62
     7
100
AcDbLine
 10
170.0
 20
64.8819
 30
0.0
 11
170.0
 21
114.4319
 31
0.0
  0
LINE
  5
34
330
1E
100
AcDbEntity
  8
0
  6
CONTINUOUS
 62
     7
100
AcDbLine
 10
175.55
 20
114.8819
 30
0.0
 11
176.0
 21
114.4319
 31
0.0
  0
LINE
  5
35
330
1E
100
AcDbEntity
  8
0
  6
CONTINUOUS
 62
     7
100
AcDbLine
 10
170.0
 20
114.4319
 30
0.0
 11
170.4499999999999
 21
114.8819
 31
0.0
  0
LINE
  5
36
330
1E
100
AcDbEntity
  8
0
  6
CONTINUOUS
 62
     7
100
AcDbLine
 10
137.5
 20
64.8819
 30
0.0
 11
137.5
 21
114.8819
 31
0.0
  0
LINE
  5
37
330
1E
100
AcDbEntity
  8
0
  6
CONTINUOUS
 62
     7
100
AcDbLine
 10
169.4499999999998
 20
114.8819
 30
0.0
 11
136.6999999999999
 21
114.8819
 31
0.0
  0
LINE
  5
38
330
1E
100
AcDbEntity
  8
0
  6
CONTINUOUS
 62
     7
100
AcDbLine
 10
169.0
 20
64.8819
 30
0.0
 11
136.6999999999999
 21
64.8819
 31
0.0
  0
LINE
  5
39
330
1E
100
AcDbEntity
  8
0
  6
CONTINUOUS
 62
     7
100
AcDbLine
 10
137.8215299999999
 20
113.681
 30
0.0
 11
137.5
 21
114.881
 31
0.0
  0
LINE
  5
3A
330
1E
100
AcDbEntity
  8
0
  6
CONTINUOUS
 62
     7
100
AcDbLine
 10
137.5
 20
114.881
 30
0.0
 11
137.17846
 21
113.681
 31
0.0
  0
LINE
  5
3B
330
1E
100
AcDbEntity
  8
0
  6
CONTINUOUS
 62
     7
100
AcDbLine
 10
137.17846
 20
66.081
 30
0.0
 11
137.5
 21
64.881
 31
0.0
  0
LINE
  5
3C
330
1E
100
AcDbEntity
  8
0
  6
CONTINUOUS
 62
     7
100
AcDbLine
 10
137.5
 20
64.881
 30
0.0
 11
137.8215299999999
 21
66.081
 31
0.0
  0
TEXT
  5
3D
330
1E
100
AcDbEntity
  8
0
  6
CONTINUOUS
 62
     7
100
AcDbText
 10
137.0999999999999
 20
84.68189999999998
 30
0.0
 40
3.2
  1
1000
 50
90.0
 41
0.8125
  7
BIGFONT
100
AcDbText
  0
LINE
  5
3E
330
1E
100
AcDbEntity
  8
0
  6
CONTINUOUS
 62
     7
100
AcDbLine
 10
170.0
 20
94.88190000000001
 30
0.0
 11
176.0
 21
94.88190000000001
 31
0.0
  0
LINE
  5
3F
330
1E
100
AcDbEntity
  8
0
  6
CONTINUOUS
 62
     7
100
AcDbLine
 10
170.0
 20
77.3819
 30
0.0
 11
176.0
 21
77.3819
 31
0.0
  0
LINE
  5
40
330
1E
100
AcDbEntity
  8
0
  6
CONTINUOUS
 62
     7
100
AcDbLine
 10
152.5
 20
77.3819
 30
0.0
 11
152.5
 21
94.88190000000001
 31
0.0
  0
LINE
  5
41
330
1E
100
AcDbEntity
  8
0
  6
CONTINUOUS
 62
     7
100
AcDbLine
 10
169.0
 20
94.88190000000001
 30
0.0
 11
151.6999999999999
 21
94.88190000000001
 31
0.0
  0
LINE
  5
42
330
1E
100
AcDbEntity
  8
0
  6
CONTINUOUS
 62
     7
100
AcDbLine
 10
152.82153
 20
93.681
 30
0.0
 11
152.5
 21
94.88100000000001
 31
0.0
  0
LINE
  5
43
330
1E
100
AcDbEntity
  8
0
  6
CONTINUOUS
 62
     7
100
AcDbLine
 10
152.5
 20
94.88100000000001
 30
0.0
 11
152.17846
 21
93.681
 31
0.0
  0
LINE
  5
44
330
1E
100
AcDbEntity
  8
0
  6
CONTINUOUS
 62
     7
100
AcDbLine
 10
152.17846
 20
78.581
 30
0.0
 11
152.5
 21
77.381
 31
0.0
  0
LINE
  5
45
330
1E
100
AcDbEntity
  8
0
  6
CONTINUOUS
 62
     7
100
AcDbLine
 10
152.5
 20
77.381
 30
0.0
 11
152.82153
 21
78.581
 31
0.0
  0
TEXT
  5
46
330
1E
100
AcDbEntity
  8
0
  6
CONTINUOUS
 62
     7
100
AcDbText
 10
152.0999999999999
 20
82.2319
 30
0.0
 40
3.2
  1
350
 50
90.0
 41
0.8125
  7
BIGFONT
100
AcDbText
  0
LINE
  5
47
330
1E
100
AcDbEntity
  8
0
  6
CONTINUOUS
 62
     7
100
AcDbLine
 10
152.5
 20
94.88190000000001
 30
0.0
 11
152.5
 21
114.8819
 31
0.0
  0
LINE
  5
48
330
1E
100
AcDbEntity
  8
0
  6
CONTINUOUS
 62
     7
100
AcDbLine
 10
152.5
 20
114.8819
 30
0.0
 11
152.5
 21
114.8819
 31
0.0
  0
LINE
  5
49
330
1E
100
AcDbEntity
  8
0
  6
CONTINUOUS
 62
     7
100
AcDbLine
 10
152.82153
 20
113.681
 30
0.0
 11
152.5
 21
114.881
 31
0.0
  0
LINE
  5
4A
330
1E
100
AcDbEntity
  8
0
  6
CONTINUOUS
 62
     7
100
AcDbLine
 10
152.5
 20
114.881
 30
0.0
 11
152.17846
 21
113.681
 31
0.0
  0
LINE
  5
4B
330
1E
100
AcDbEntity
  8
0
  6
CONTINUOUS
 62
     7
100
AcDbLine
 10
152.17846
 20
96.081
 30
0.0
 11
152.5
 21
94.88100000000001
 31
0.0
  0
LINE
  5
4C
330
1E
100
AcDbEntity
  8
0
  6
CONTINUOUS
 62
     7
100
AcDbLine
 10
152.5
 20
94.88100000000001
 30
0.0
 11
152.82153
 21
96.081
 31
0.0
  0
TEXT
  5
4D
330
1E
100
AcDbEntity
  8
0
  6
CONTINUOUS
 62
     7
100
AcDbText
 10
152.0999999999999
 20
100.9819
 30
0.0
 40
3.2
  1
400
 50
90.0
 41
0.8125
  7
BIGFONT
100
AcDbText
  0
LINE
  5
4E
330
1E
100
AcDbEntity
  8
0
  6
CONTINUOUS
 62
     7
100
AcDbLine
 10
152.5
 20
64.8819
 30
0.0
 11
152.5
 21
77.40895
 31
0.0
  0
LINE
  5
4F
330
1E
100
AcDbEntity
  8
0
  6
CONTINUOUS
 62
     7
100
AcDbLine
 10
169.0
 20
77.40895
 30
0.0
 11
151.6999999999999
 21
77.40895
 31
0.0
  0
LINE
  5
50
330
1E
100
AcDbEntity
  8
0
  6
CONTINUOUS
 62
     7
100
AcDbLine
 10
152.5
 20
64.8819
 30
0.0
 11
152.5
 21
64.8819
 31
0.0
  0
LINE
  5
51
330
1E
100
AcDbEntity
  8
0
  6
CONTINUOUS
 62
     7
100
AcDbLine
 10
152.82153
 20
76.208
 30
0.0
 11
152.5
 21
77.408
 31
0.0
  0
LINE
  5
52
330
1E
100
AcDbEntity
  8
0
  6
CONTINUOUS
 62
     7
100
AcDbLine
 10
152.5
 20
77.408
 30
0.0
 11
152.17846
 21
76.208
 31
0.0
  0
LINE
  5
53
330
1E
100
AcDbEntity
  8
0
  6
CONTINUOUS
 62
     7
100
AcDbLine
 10
152.17846
 20
66.081
 30
0.0
 11
152.5
 21
64.881
 31
0.0
  0
LINE
  5
54
330
1E
100
AcDbEntity
  8
0
  6
CONTINUOUS
 62
     7
100
AcDbLine
 10
152.5
 20
64.881
 30
0.0
 11
152.82153
 21
66.081
 31
0.0
  0
TEXT
  5
55
330
1E
100
AcDbEntity
  8
0
  6
CONTINUOUS
 62
     7
100
AcDbText
 10
152.0999999999999
 20
67.24541999999999
 30
0.0
 40
3.2
  1
250
 50
90.0
 41
0.8125
  7
BIGFONT
100
AcDbText
  0
LINE
  5
56
330
1E
100
AcDbEntity
  8
3
  6
CONTINUOUS
 62
     7
100
AcDbLine
 10
167.2649999999999
 20
-190.287
 30
0.0
 11
167.2649999999999
 21
-140.287
 31
0.0
  0
LINE
  5
57
330
1E
100
AcDbEntity
  8
3
  6
CONTINUOUS
 62
     7
100
AcDbLine
 10
167.2649999999999
 20
-190.287
 30
0.0
 11
167.2649999999999
 21
-140.287
 31
0.0
  0
LINE
  5
58
330
1E
100
AcDbEntity
  8
3
  6
CONTINUOUS
 62
     7
100
AcDbLine
 10
167.2649999999999
 20
-190.287
 30
0.0
 11
167.2649999999999
 21
-140.287
 31
0.0
  0
LINE
  5
59
330
1E
100
AcDbEntity
  8
0
  6
CONTINUOUS
 62
     7
100
AcDbLine
 10
217.35
 20
77.5319
 30
0.0
 11
217.5
 21
77.3819
 31
0.0
  0
LINE
  5
5A
330
1E
100
AcDbEntity
  8
0
  6
CONTINUOUS
 62
     7
100
AcDbLine
 10
217.35
 20
77.5319
 30
0.0
 11
217.35
 21
94.6138
 31
0.0
  0
LINE
  5
5B
330
1E
100
AcDbEntity
  8
0
  6
CONTINUOUS
 62
     7
100
AcDbLine
 10
217.5
 20
94.7638
 30
0.0
 11
217.5
 21
114.8819
 31
0.0
  0
LINE
  5
5C
330
1E
100
AcDbEntity
  8
0
  6
CONTINUOUS
 62
     7
100
AcDbLine
 10
217.35
 20
94.6138
 30
0.0
 11
217.5
 21
94.7638
 31
0.0
  0
LINE
  5
5D
330
1E
100
AcDbEntity
  8
0
  6
CONTINUOUS
 62
     7
100
AcDbLine
 10
188.1606999999999
 20
101.1319
 30
0.0
 11
197.58695
 21
101.1319
 31
0.0
  0
LINE
  5
5E
330
1E
100
AcDbEntity
  8
0
  6
CONTINUOUS
 62
     7
100
AcDbLine
 10
192.5
 20
96.4319
 30
0.0
 11
192.5
 21
105.8319
 31
0.0
  0
CIRCLE
  5
5F
330
1E
100
AcDbEntity
  8
0
  6
CONTINUOUS
 62
     7
100
AcDbCircle
 10
192.5
 20
101.1319
 30
0.0
 40
1.875
  0
LINE
  5
60
330
1E
100
AcDbEntity
  8
0
  6
CONTINUOUS
 62
     7
100
AcDbLine
 10
154.2794
 20
70.8819
 30
0.0
 11
169.02465
 21
70.8819
 31
0.0
  0
LINE
  5
61
330
1E
100
AcDbEntity
  8
0
  6
CONTINUOUS
 62
     7
100
AcDbLine
 10
172.45245
 20
101.1319
 30
0.0
 11
173.07745
 21
101.1319
 31
0.0
  0
LINE
  5
62
330
1E
100
AcDbEntity
  8
0
  6
CONTINUOUS
 62
     7
100
AcDbLine
 10
160.0
 20
98.38280000000001
 30
0.0
 11
160.0
 21
114.8819
 31
0.0
  0
LINE
  5
63
330
1E
100
AcDbEntity
  8
0
  6
CONTINUOUS
 62
     7
100
AcDbLine
 10
160.4959
 20
114.8819
 30
0.0
 11
159.1999999999998
 21
114.8819
 31
0.0
  0
LINE
  5
64
330
1E
100
AcDbEntity
  8
0
  6
CONTINUOUS
 62
     7
100
AcDbLine
 10
169.0
 20
98.38280000000001
 30
0.0
 11
159.1999999999998
 21
98.38280000000001
 31
0.0
  0
LINE
  5
65
330
1E
100
AcDbEntity
  8
0
  6
CONTINUOUS
 62
     7
100
AcDbLine
 10
160.32153
 20
113.681
 30
0.0
 11
160.0
 21
114.881
 31
0.0
  0
LINE
  5
66
330
1E
100
AcDbEntity
  8
0
  6
CONTINUOUS
 62
     7
100
AcDbLine
 10
160.0
 20
114.881
 30
0.0
 11
159.67846
 21
113.681
 31
0.0
  0
LINE
  5
67
330
1E
100
AcDbEntity
  8
0
  6
CONTINUOUS
 62
     7
100
AcDbLine
 10
159.67846
 20
99.58199999999999
 30
0.0
 11
160.0
 21
98.382
 31
0.0
  0
LINE
  5
68
330
1E
100
AcDbEntity
  8
0
  6
CONTINUOUS
 62
     7
100
AcDbLine
 10
160.0
 20
98.382
 30
0.0
 11
160.32153
 21
99.58199999999999
 31
0.0
  0
TEXT
  5
69
330
1E
100
AcDbEntity
  8
0
  6
CONTINUOUS
 62
     7
100
AcDbText
 10
159.6
 20
102.73235
 30
0.0
 40
3.2
  1
330
 50
90.0
 41
0.8125
  7
BIGFONT
100
AcDbText
  0
LINE
  5
6A
330
1E
100
AcDbEntity
  8
3
  6
CONTINUOUS
 62
     7
100
AcDbLine
 10
167.2649999999999
 20
-190.287
 30
0.0
 11
167.2649999999999
 21
-140.287
 31
0.0
  0
LINE
  5
6B
330
1E
100
AcDbEntity
  8
3
  6
CONTINUOUS
 62
     7
100
AcDbLine
 10
167.2649999999999
 20
-190.287
 30
0.0
 11
167.2649999999999
 21
-140.287
 31
0.0
  0
LINE
  5
6C
330
1E
100
AcDbEntity
  8
3
  6
CONTINUOUS
 62
     7
100
AcDbLine
 10
167.2649999999999
 20
-190.287
 30
0.0
 11
167.2649999999999
 21
-140.287
 31
0.0
  0
LINE
  5
6D
330
1E
100
AcDbEntity
  8
3
  6
CONTINUOUS
 62
     7
100
AcDbLine
 10
167.2649999999999
 20
-140.287
 30
0.0
 11
267.2649999999999
 21
-140.287
 31
0.0
  0
LINE
  5
6E
330
1E
100
AcDbEntity
  8
3
  6
CONTINUOUS
 62
     7
100
AcDbLine
 10
267.2649999999999
 20
-190.287
 30
0.0
 11
267.2649999999999
 21
-140.287
 31
0.0
  0
LINE
  5
6F
330
1E
100
AcDbEntity
  8
3
  6
CONTINUOUS
 62
     7
100
AcDbLine
 10
167.2649999999999
 20
-190.287
 30
0.0
 11
267.2649999999999
 21
-190.287
 31
0.0
  0
LINE
  5
70
330
1E
100
AcDbEntity
  8
3
  6
CONTINUOUS
 62
     7
100
AcDbLine
 10
167.2649999999999
 20
-190.287
 30
0.0
 11
167.2649999999999
 21
-140.287
 31
0.0
  0
LINE
  5
71
330
1E
100
AcDbEntity
  8
3
  6
CONTINUOUS
 62
     7
100
AcDbLine
 10
167.2649999999999
 20
-140.287
 30
0.0
 11
267.2649999999999
 21
-140.287
 31
0.0
  0
LINE
  5
72
330
1E
100
AcDbEntity
  8
3
  6
CONTINUOUS
 62
     7
100
AcDbLine
 10
267.2649999999999
 20
-190.287
 30
0.0
 11
267.2649999999999
 21
-140.287
 31
0.0
  0
LINE
  5
73
330
1E
100
AcDbEntity
  8
3
  6
CONTINUOUS
 62
     7
100
AcDbLine
 10
167.2649999999999
 20
-190.287
 30
0.0
 11
267.2649999999999
 21
-190.287
 31
0.0
  0
LINE
  5
74
330
1E
100
AcDbEntity
  8
3
  6
CONTINUOUS
 62
     7
100
AcDbLine
 10
167.2649999999999
 20
-190.287
 30
0.0
 11
167.2649999999999
 21
-140.287
 31
0.0
  0
LINE
  5
75
330
1E
100
AcDbEntity
  8
3
  6
CONTINUOUS
 62
     7
100
AcDbLine
 10
167.2649999999999
 20
-150.287
 30
0.0
 11
267.2649999999999
 21
-150.287
 31
0.0
  0
LINE
  5
76
330
1E
100
AcDbEntity
  8
3
  6
CONTINUOUS
 62
     7
100
AcDbLine
 10
167.2649999999999
 20
-158.2869999999998
 30
0.0
 11
267.2649999999999
 21
-158.2869999999998
 31
0.0
  0
LINE
  5
77
330
1E
100
AcDbEntity
  8
3
  6
CONTINUOUS
 62
     7
100
AcDbLine
 10
167.2649999999999
 20
-166.287
 30
0.0
 11
267.2649999999999
 21
-166.287
 31
0.0
  0
LINE
  5
78
330
1E
100
AcDbEntity
  8
3
  6
CONTINUOUS
 62
     7
100
AcDbLine
 10
167.2649999999999
 20
-179.287
 30
0.0
 11
267.2649999999999
 21
-179.287
 31
0.0
  0
LINE
  5
79
330
1E
100
AcDbEntity
  8
3
  6
CONTINUOUS
 62
     7
100
AcDbLine
 10
194.265
 20
-179.287
 30
0.0
 11
194.265
 21
-140.287
 31
0.0
  0
LINE
  5
7A
330
1E
100
AcDbEntity
  8
3
  6
CONTINUOUS
 62
     7
100
AcDbLine
 10
187.2649999999999
 20
-179.287
 30
0.0
 11
187.2649999999999
 21
-166.287
 31
0.0
  0
LINE
  5
7B
330
1E
100
AcDbEntity
  8
3
  6
CONTINUOUS
 62
     7
100
AcDbLine
 10
174.2649999999999
 20
-179.287
 30
0.0
 11
174.2649999999999
 21
-166.287
 31
0.0
  0
LINE
  5
7C
330
1E
100
AcDbEntity
  8
3
  6
CONTINUOUS
 62
     7
100
AcDbLine
 10
207.2649999999999
 20
-179.287
 30
0.0
 11
207.2649999999999
 21
-166.287
 31
0.0
  0
LINE
  5
7D
330
1E
100
AcDbEntity
  8
3
  6
CONTINUOUS
 62
     7
100
AcDbLine
 10
214.2649999999999
 20
-179.287
 30
0.0
 11
214.2649999999999
 21
-166.287
 31
0.0
  0
LINE
  5
7E
330
1E
100
AcDbEntity
  8
3
  6
CONTINUOUS
 62
     7
100
AcDbLine
 10
227.265
 20
-179.287
 30
0.0
 11
227.265
 21
-166.287
 31
0.0
  0
LINE
  5
7F
330
1E
100
AcDbEntity
  8
3
  6
CONTINUOUS
 62
     7
100
AcDbLine
 10
234.2649999999999
 20
-179.287
 30
0.0
 11
234.2649999999999
 21
-166.287
 31
0.0
  0
LINE
  5
80
330
1E
100
AcDbEntity
  8
3
  6
CONTINUOUS
 62
     7
100
AcDbLine
 10
247.2649999999999
 20
-179.287
 30
0.0
 11
247.2649999999999
 21
-166.287
 31
0.0
  0
LINE
  5
81
330
1E
100
AcDbEntity
  8
3
  6
CONTINUOUS
 62
     7
100
AcDbLine
 10
254.265
 20
-179.287
 30
0.0
 11
254.265
 21
-166.287
 31
0.0
  0
LINE
  5
82
330
1E
100
AcDbEntity
  8
3
  6
CONTINUOUS
 62
     7
100
AcDbLine
 10
219.2649999999999
 20
-158.2869999999998
 30
0.0
 11
219.2649999999999
 21
-150.287
 31
0.0
  0
LINE
  5
83
330
1E
100
AcDbEntity
  8
3
  6
CONTINUOUS
 62
     7
100
AcDbLine
 10
242.2649999999999
 20
-158.2869999999998
 30
0.0
 11
242.2649999999999
 21
-150.287
 31
0.0
  0
TEXT
  5
84
330
1E
100
AcDbEntity
  8
3
  6
CONTINUOUS
 62
     7
100
AcDbText
 10
170.58
 20
-148.151
 30
0.0
 40
5.0
  1
図面名
  7
BIGFONT
100
AcDbText
  0
TEXT
  5
85
330
1E
100
AcDbEntity
  8
3
  6
CONTINUOUS
 62
     7
100
AcDbText
 10
171.06
 20
-156.513
 30
0.0
 40
4.0
  1
縮尺
  7
BIGFONT
100
AcDbText
  0
TEXT
  5
86
330
1E
100
AcDbEntity
  8
3
  6
CONTINUOUS
 62
     7
100
AcDbText
 10
221.496
 20
-156.417
 30
0.0
 40
4.0
  1
図面番号
  7
BIGFONT
100
AcDbText
  0
TEXT
  5
87
330
1E
100
AcDbEntity
  8
3
  6
CONTINUOUS
 62
     7
100
AcDbText
 10
170.868
 20
-164.4909999999998
 30
0.0
 40
4.0
  1
設計年月日
  7
BIGFONT
100
AcDbText
  0
TEXT
  5
88
330
1E
100
AcDbEntity
  8
3
  6
CONTINUOUS
 62
     7
100
AcDbText
 10
202.9549999999999
 20
-164.4909999999998
 30
0.0
 40
4.0
  1
平成　　年　　月　　日
  7
BIGFONT
100
AcDbText
  0
TEXT
  5
89
330
1E
100
AcDbEntity
  8
3
  6
CONTINUOUS
 62
     7
100
AcDbText
 10
189.3093545925326
 20
-188.2209999999999
 30
0.0
 40
6.0
  1
千葉窯業株式会社
  7
BIGFONT
100
AcDbText
  0
TEXT
  5
8A
330
1E
100
AcDbEntity
  8
3
  6
CONTINUOUS
 62
     7
100
AcDbText
 10
168.947
 20
-168.048
 30
0.0
 40
4.0
  1
部長
 50
270.0
  7
BIGFONT
100
AcDbText
  0
TEXT
  5
8B
330
1E
100
AcDbEntity
  8
3
  6
CONTINUOUS
 62
     7
100
AcDbText
 10
188.929
 20
-168.048
 30
0.0
 40
4.0
  1
課長
 50
270.0
  7
BIGFONT
100
AcDbText
  0
TEXT
  5
8C
330
1E
100
AcDbEntity
  8
3
  6
CONTINUOUS
 62
     7
100
AcDbText
 10
208.9109999999999
 20
-168.048
 30
0.0
 40
4.0
  1
検図
 50
270.0
  7
BIGFONT
100
AcDbText
  0
TEXT
  5
8D
330
1E
100
AcDbEntity
  8
3
  6
CONTINUOUS
 62
     7
100
AcDbText
 10
229.0859999999999
 20
-168.048
 30
0.0
 40
4.0
  1
設計
 50
270.0
  7
BIGFONT
100
AcDbText
  0
TEXT
  5
8E
330
1E
100
AcDbEntity
  8
3
  6
CONTINUOUS
 62
     7
100
AcDbText
 10
248.972
 20
-167.952
 30
0.0
 40
4.0
  1
製図
 50
270.0
  7
BIGFONT
100
AcDbText
  0
LINE
  5
8F
330
1E
100
AcDbEntity
  8
3
  6
CONTINUOUS
 62
     7
100
AcDbLine
 10
167.2649999999999
 20
-140.287
 30
0.0
 11
267.2649999999999
 21
-140.287
 31
0.0
  0
LINE
  5
90
330
1E
100
AcDbEntity
  8
3
  6
CONTINUOUS
 62
     7
100
AcDbLine
 10
267.2649999999999
 20
-190.287
 30
0.0
 11
267.2649999999999
 21
-140.287
 31
0.0
  0
LINE
  5
91
330
1E
100
AcDbEntity
  8
3
  6
CONTINUOUS
 62
     7
100
AcDbLine
 10
167.2649999999999
 20
-190.287
 30
0.0
 11
267.2649999999999
 21
-190.287
 31
0.0
  0
LINE
  5
92
330
1E
100
AcDbEntity
  8
3
  6
CONTINUOUS
 62
     7
100
AcDbLine
 10
167.2649999999999
 20
-190.287
 30
0.0
 11
167.2649999999999
 21
-140.287
 31
0.0
  0
TEXT
  5
A2
330
1E
100
AcDbEntity
  8
3
  6
CONTINUOUS
 62
     7
100
AcDbText
 10
217.307
 20
-164.4959999999999
 30
0.0
 40
3.799999999999998
  1
３
  7
BIGFONT
100
AcDbText
  0
TEXT
  5
A3
330
1E
100
AcDbEntity
  8
3
  6
CONTINUOUS
 62
     7
100
AcDbText
 10
232.6979999999999
 20
-164.519
 30
0.0
 40
3.799999999999998
  1
６
  7
BIGFONT
100
AcDbText
  0
TEXT
  5
A4
330
1E
100
AcDbEntity
  8
3
  6
CONTINUOUS
 62
     7
100
AcDbText
 10
248.03
 20
-164.534
 30
0.0
 40
3.799999999999998
  1
１
  7
BIGFONT
100
AcDbText
  0
TEXT
  5
A5
330
1E
100
AcDbEntity
  8
3
  6
CONTINUOUS
 62
     7
100
AcDbText
 10
198.859
 20
-156.4689999999997
 30
0.0
 40
4.0
  1
１：２０
  7
BIGFONT
100
AcDbText
  0
LINE
  5
A6
330
1E
100
AcDbEntity
  8
0
  6
CONTINUOUS
 62
     7
100
AcDbLine
 10
-269.375
 20
192.38625
 30
0.0
 11
269.375
 21
192.38625
 31
0.0
  0
LINE
  5
A7
330
1E
100
AcDbEntity
  8
0
  6
CONTINUOUS
 62
     7
100
AcDbLine
 10
269.375
 20
-192.3863
 30
0.0
 11
269.375
 21
192.38625
 31
0.0
  0
LINE
  5
A8
330
1E
100
AcDbEntity
  8
0
  6
CONTINUOUS
 62
     7
100
AcDbLine
 10
-269.375
 20
-192.3863
 30
0.0
 11
-269.375
 21
192.38625
 31
0.0
  0
LINE
  5
A9
330
1E
100
AcDbEntity
  8
0
  6
CONTINUOUS
 62
     7
100
AcDbLine
 10
-269.375
 20
-192.3863
 30
0.0
 11
269.375
 21
-192.3863
 31
0.0
  0
TEXT
  5
AA
330
1E
100
AcDbEntity
  8
3
  6
CONTINUOUS
 62
     7
100
AcDbText
 10
196.162
 20
-149.561
 30
0.0
 40
3.7
  1
コーナー部構造図
  7
BIGFONT
100
AcDbText
  0
TEXT
  5
AB
330
1E
100
AcDbEntity
  8
3
  6
CONTINUOUS
 62
     7
100
AcDbText
 10
196.1819999999999
 20
-144.8809999999999
 30
0.0
 40
3.7
  1
ＫＬウォール３型
  7
BIGFONT
100
AcDbText
  0
TEXT
  5
AE
330
1E
100
AcDbEntity
  8
3
  6
CONTINUOUS
 62
     7
100
AcDbText
 10
233.8943985622822
 20
-149.5639999999999
 30
0.0
 40
3.7
  1
(H=1000-90°)
 41
0.8
  7
BIGFONT
100
AcDbText
  0
LINE
  5
AF
330
1E
100
AcDbEntity
  8
0
  6
CONTINUOUS
 62
     7
100
AcDbLine
 10
-160.6388499999999
 20
163.6995499999999
 30
0.0
 11
156.9035
 21
163.6995499999999
 31
0.0
  0
TEXT
  5
B0
330
1E
100
AcDbEntity
  8
0
  6
CONTINUOUS
 62
     7
100
AcDbText
 10
-156.2021499999999
 20
165.935
 30
0.0
 40
10.0
  1
ＫＬウォール３型．コーナー部構造図
  7
BIGFONT
100
AcDbText
  0
TEXT
  5
B1
330
1E
100
AcDbEntity
  8
0
  6
CONTINUOUS
 62
     7
100
AcDbText
 10
119.94835
 20
166.7178999999999
 30
0.0
 40
5.5
  1
Ｓ＝１：２０
  7
BIGFONT
100
AcDbText
  0
TEXT
  5
B2
330
1E
100
AcDbEntity
  8
0
  6
CONTINUOUS
 62
     7
100
AcDbText
 10
51.84514592022654
 20
166.7401499999999
 30
0.0
 40
6.5
  1
(H=1000-90°)
  7
BIGFONT
100
AcDbText
  0
LINE
  5
B3
330
1E
100
AcDbEntity
  8
0
  6
CONTINUOUS
 62
     7
100
AcDbLine
 10
176.0
 20
73.3819
 30
0.0
 11
176.0
 21
114.4319
 31
0.0
  0
LINE
  5
B4
330
1E
100
AcDbEntity
  8
0
  6
CONTINUOUS
 62
     7
100
AcDbLine
 10
178.5
 20
70.8819
 30
0.0
 11
217.5
 21
70.8819
 31
0.0
  0
LINE
  5
B5
330
1E
100
AcDbEntity
  8
0
  6
CONTINUOUS
 62
     7
100
AcDbLine
 10
176.0
 20
73.3819
 30
0.0
 11
178.5
 21
70.8819
 31
0.0
  0
LINE
  5
B6
330
1E
100
AcDbEntity
  8
0
  6
CONTINUOUS
 62
     7
100
AcDbLine
 10
217.5
 20
64.8819
 30
0.0
 11
217.5
 21
70.8819
 31
0.0
  0
LINE
  5
B7
330
1E
100
AcDbEntity
  8
0
  6
CONTINUOUS
 62
     7
100
AcDbLine
 10
207.5
 20
64.8819
 30
0.0
 11
207.5
 21
70.8819
 31
0.0
  0
LINE
  5
B8
330
1E
100
AcDbEntity
  8
0
  6
CONTINUOUS
 62
     7
100
AcDbLine
 10
170.0
 20
39.8819
 30
0.0
 11
207.5
 21
39.8819
 31
0.0
  0
LINE
  5
B9
330
1E
100
AcDbEntity
  8
0
  6
CONTINUOUS
 62
     7
100
AcDbLine
 10
207.5
 20
63.8819
 30
0.0
 11
207.5
 21
39.08189999999999
 31
0.0
  0
LINE
  5
BA
330
1E
100
AcDbEntity
  8
0
  6
CONTINUOUS
 62
     7
100
AcDbLine
 10
170.0
 20
63.8819
 30
0.0
 11
170.0
 21
39.08189999999999
 31
0.0
  0
LINE
  5
BB
330
1E
100
AcDbEntity
  8
0
  6
CONTINUOUS
 62
     7
100
AcDbLine
 10
206.3
 20
39.55945999999999
 30
0.0
 11
207.5
 21
39.881
 31
0.0
  0
LINE
  5
BC
330
1E
100
AcDbEntity
  8
0
  6
CONTINUOUS
 62
     7
100
AcDbLine
 10
207.5
 20
39.881
 30
0.0
 11
206.3
 21
40.20252999999999
 31
0.0
  0
LINE
  5
BD
330
1E
100
AcDbEntity
  8
0
  6
CONTINUOUS
 62
     7
100
AcDbLine
 10
171.1999999999999
 20
40.20252999999999
 30
0.0
 11
170.0
 21
39.881
 31
0.0
  0
LINE
  5
BE
330
1E
100
AcDbEntity
  8
0
  6
CONTINUOUS
 62
     7
100
AcDbLine
 10
170.0
 20
39.881
 30
0.0
 11
171.1999999999999
 21
39.55945999999999
 31
0.0
  0
TEXT
  5
BF
330
1E
100
AcDbEntity
  8
0
  6
CONTINUOUS
 62
     7
100
AcDbText
 10
184.8499999999999
 20
40.2819
 30
0.0
 40
3.2
  1
750
 41
0.8125
  7
BIGFONT
100
AcDbText
  0
LINE
  5
C0
330
1E
100
AcDbEntity
  8
0
  6
CONTINUOUS
 62
     7
100
AcDbLine
 10
170.0
 20
47.38974999999999
 30
0.0
 11
176.0
 21
47.38974999999999
 31
0.0
  0
LINE
  5
C1
330
1E
100
AcDbEntity
  8
0
  6
CONTINUOUS
 62
     7
100
AcDbLine
 10
176.0
 20
53.8819
 30
0.0
 11
176.0
 21
46.58975
 31
0.0
  0
LINE
  5
C2
330
1E
100
AcDbEntity
  8
0
  6
CONTINUOUS
 62
     7
100
AcDbLine
 10
170.0
 20
50.8055
 30
0.0
 11
170.0
 21
46.58975
 31
0.0
  0
LINE
  5
C3
330
1E
100
AcDbEntity
  8
0
  6
CONTINUOUS
 62
     7
100
AcDbLine
 10
174.8
 20
47.06745999999998
 30
0.0
 11
176.0
 21
47.389
 31
0.0
  0
LINE
  5
C4
330
1E
100
AcDbEntity
  8
0
  6
CONTINUOUS
 62
     7
100
AcDbLine
 10
176.0
 20
47.389
 30
0.0
 11
174.8
 21
47.71053
 31
0.0
  0
LINE
  5
C5
330
1E
100
AcDbEntity
  8
0
  6
CONTINUOUS
 62
     7
100
AcDbLine
 10
171.1999999999999
 20
47.71053
 30
0.0
 11
170.0
 21
47.389
 31
0.0
  0
LINE
  5
C6
330
1E
100
AcDbEntity
  8
0
  6
CONTINUOUS
 62
     7
100
AcDbLine
 10
170.0
 20
47.389
 30
0.0
 11
171.1999999999999
 21
47.06745999999998
 31
0.0
  0
TEXT
  5
C7
330
1E
100
AcDbEntity
  8
0
  6
CONTINUOUS
 62
     7
100
AcDbText
 10
169.1
 20
47.78974999999999
 30
0.0
 40
3.2
  1
120
 41
0.8125
  7
BIGFONT
100
AcDbText
  0
LINE
  5
C8
330
1E
100
AcDbEntity
  8
0
  6
CONTINUOUS
 62
     7
100
AcDbLine
 10
176.0
 20
47.38974999999999
 30
0.0
 11
207.5
 21
47.38974999999999
 31
0.0
  0
LINE
  5
C9
330
1E
100
AcDbEntity
  8
0
  6
CONTINUOUS
 62
     7
100
AcDbLine
 10
207.5
 20
48.5424
 30
0.0
 11
207.5
 21
46.58975
 31
0.0
  0
LINE
  5
CA
330
1E
100
AcDbEntity
  8
0
  6
CONTINUOUS
 62
     7
100
AcDbLine
 10
206.3
 20
47.06745999999998
 30
0.0
 11
207.5
 21
47.389
 31
0.0
  0
LINE
  5
CB
330
1E
100
AcDbEntity
  8
0
  6
CONTINUOUS
 62
     7
100
AcDbLine
 10
207.5
 20
47.389
 30
0.0
 11
206.3
 21
47.71053
 31
0.0
  0
LINE
  5
CC
330
1E
100
AcDbEntity
  8
0
  6
CONTINUOUS
 62
     7
100
AcDbLine
 10
177.2
 20
47.71053
 30
0.0
 11
176.0
 21
47.389
 31
0.0
  0
LINE
  5
CD
330
1E
100
AcDbEntity
  8
0
  6
CONTINUOUS
 62
     7
100
AcDbLine
 10
176.0
 20
47.389
 30
0.0
 11
177.2
 21
47.06745999999998
 31
0.0
  0
TEXT
  5
CE
330
1E
100
AcDbEntity
  8
0
  6
CONTINUOUS
 62
     7
100
AcDbText
 10
187.85
 20
47.78974999999999
 30
0.0
 40
3.2
  1
630
 41
0.8125
  7
BIGFONT
100
AcDbText
  0
LINE
  5
CF
330
1E
100
AcDbEntity
  8
0
  6
CONTINUOUS
 62
     7
100
AcDbLine
 10
170.0
 20
54.8819
 30
0.0
 11
190.0
 21
54.8819
 31
0.0
  0
LINE
  5
D0
330
1E
100
AcDbEntity
  8
0
  6
CONTINUOUS
 62
     7
100
AcDbLine
 10
190.0
 20
63.8819
 30
0.0
 11
190.0
 21
54.0819
 31
0.0
  0
LINE
  5
D1
330
1E
100
AcDbEntity
  8
0
  6
CONTINUOUS
 62
     7
100
AcDbLine
 10
170.0
 20
60.66605
 30
0.0
 11
170.0
 21
54.0819
 31
0.0
  0
LINE
  5
D2
330
1E
100
AcDbEntity
  8
0
  6
CONTINUOUS
 62
     7
100
AcDbLine
 10
188.8
 20
54.55945999999999
 30
0.0
 11
190.0
 21
54.881
 31
0.0
  0
LINE
  5
D3
330
1E
100
AcDbEntity
  8
0
  6
CONTINUOUS
 62
     7
100
AcDbLine
 10
190.0
 20
54.881
 30
0.0
 11
188.8
 21
55.20253
 31
0.0
  0
LINE
  5
D4
330
1E
100
AcDbEntity
  8
0
  6
CONTINUOUS
 62
     7
100
AcDbLine
 10
171.1999999999999
 20
55.20253
 30
0.0
 11
170.0
 21
54.881
 31
0.0
  0
LINE
  5
D5
330
1E
100
AcDbEntity
  8
0
  6
CONTINUOUS
 62
     7
100
AcDbLine
 10
170.0
 20
54.881
 30
0.0
 11
171.1999999999999
 21
54.55945999999999
 31
0.0
  0
TEXT
  5
D6
330
1E
100
AcDbEntity
  8
0
  6
CONTINUOUS
 62
     7
100
AcDbText
 10
176.0999999999999
 20
55.2819
 30
0.0
 40
3.2
  1
400
 41
0.8125
  7
BIGFONT
100
AcDbText
  0
LINE
  5
D7
330
1E
100
AcDbEntity
  8
0
  6
CONTINUOUS
 62
     7
100
AcDbLine
 10
190.0
 20
54.8819
 30
0.0
 11
207.5
 21
54.8819
 31
0.0
  0
LINE
  5
D8
330
1E
100
AcDbEntity
  8
0
  6
CONTINUOUS
 62
     7
100
AcDbLine
 10
207.5
 20
56.0491
 30
0.0
 11
207.5
 21
54.0819
 31
0.0
  0
LINE
  5
D9
330
1E
100
AcDbEntity
  8
0
  6
CONTINUOUS
 62
     7
100
AcDbLine
 10
206.3
 20
54.55945999999999
 30
0.0
 11
207.5
 21
54.881
 31
0.0
  0
LINE
  5
DA
330
1E
100
AcDbEntity
  8
0
  6
CONTINUOUS
 62
     7
100
AcDbLine
 10
207.5
 20
54.881
 30
0.0
 11
206.3
 21
55.20253
 31
0.0
  0
LINE
  5
DB
330
1E
100
AcDbEntity
  8
0
  6
CONTINUOUS
 62
     7
100
AcDbLine
 10
191.1999999999999
 20
55.20253
 30
0.0
 11
190.0
 21
54.881
 31
0.0
  0
LINE
  5
DC
330
1E
100
AcDbEntity
  8
0
  6
CONTINUOUS
 62
     7
100
AcDbLine
 10
190.0
 20
54.881
 30
0.0
 11
191.1999999999999
 21
54.55945999999999
 31
0.0
  0
TEXT
  5
DD
330
1E
100
AcDbEntity
  8
0
  6
CONTINUOUS
 62
     7
100
AcDbText
 10
194.8499999999999
 20
55.2819
 30
0.0
 40
3.2
  1
350
 41
0.8125
  7
BIGFONT
100
AcDbText
  0
LINE
  5
DE
330
1E
100
AcDbEntity
  8
0
  6
CONTINUOUS
 62
     7
100
AcDbLine
 10
145.0
 20
64.8819
 30
0.0
 11
145.0
 21
70.85635
 31
0.0
  0
LINE
  5
DF
330
1E
100
AcDbEntity
  8
0
  6
CONTINUOUS
 62
     7
100
AcDbLine
 10
148.38465
 20
70.85635
 30
0.0
 11
144.1999999999999
 21
70.85635
 31
0.0
  0
LINE
  5
E0
330
1E
100
AcDbEntity
  8
0
  6
CONTINUOUS
 62
     7
100
AcDbLine
 10
146.6749499999997
 20
64.8819
 30
0.0
 11
144.1999999999999
 21
64.8819
 31
0.0
  0
LINE
  5
E1
330
1E
100
AcDbEntity
  8
0
  6
CONTINUOUS
 62
     7
100
AcDbLine
 10
145.3215299999999
 20
69.65600000000001
 30
0.0
 11
145.0
 21
70.85599999999998
 31
0.0
  0
LINE
  5
E2
330
1E
100
AcDbEntity
  8
0
  6
CONTINUOUS
 62
     7
100
AcDbLine
 10
145.0
 20
70.85599999999998
 30
0.0
 11
144.6784599999999
 21
69.65600000000001
 31
0.0
  0
LINE
  5
E3
330
1E
100
AcDbEntity
  8
0
  6
CONTINUOUS
 62
     7
100
AcDbLine
 10
144.6784599999999
 20
66.081
 30
0.0
 11
145.0
 21
64.881
 31
0.0
  0
LINE
  5
E4
330
1E
100
AcDbEntity
  8
0
  6
CONTINUOUS
 62
     7
100
AcDbLine
 10
145.0
 20
64.881
 30
0.0
 11
145.3215299999999
 21
66.081
 31
0.0
  0
TEXT
  5
E5
330
1E
100
AcDbEntity
  8
0
  6
CONTINUOUS
 62
     7
100
AcDbText
 10
144.5999999999999
 20
63.96912
 30
0.0
 40
3.2
  1
120
 50
90.0
 41
0.8125
  7
BIGFONT
100
AcDbText
  0
LINE
  5
E6
330
1E
100
AcDbEntity
  8
0
  6
CONTINUOUS
 62
     7
100
AcDbLine
 10
145.0
 20
70.85635
 30
0.0
 11
145.0
 21
114.8819
 31
0.0
  0
LINE
  5
E7
330
1E
100
AcDbEntity
  8
0
  6
CONTINUOUS
 62
     7
100
AcDbLine
 10
145.8456999999999
 20
114.8819
 30
0.0
 11
144.1999999999999
 21
114.8819
 31
0.0
  0
LINE
  5
E8
330
1E
100
AcDbEntity
  8
0
  6
CONTINUOUS
 62
     7
100
AcDbLine
 10
145.3215299999999
 20
113.681
 30
0.0
 11
145.0
 21
114.881
 31
0.0
  0
LINE
  5
E9
330
1E
100
AcDbEntity
  8
0
  6
CONTINUOUS
 62
     7
100
AcDbLine
 10
145.0
 20
114.881
 30
0.0
 11
144.6784599999999
 21
113.681
 31
0.0
  0
LINE
  5
EA
330
1E
100
AcDbEntity
  8
0
  6
CONTINUOUS
 62
     7
100
AcDbLine
 10
144.6784599999999
 20
72.056
 30
0.0
 11
145.0
 21
70.85599999999998
 31
0.0
  0
LINE
  5
EB
330
1E
100
AcDbEntity
  8
0
  6
CONTINUOUS
 62
     7
100
AcDbLine
 10
145.0
 20
70.85599999999998
 30
0.0
 11
145.3215299999999
 21
72.056
 31
0.0
  0
TEXT
  5
EC
330
1E
100
AcDbEntity
  8
0
  6
CONTINUOUS
 62
     7
100
AcDbText
 10
144.5999999999999
 20
88.96911999999998
 30
0.0
 40
3.2
  1
880
 50
90.0
 41
0.8125
  7
BIGFONT
100
AcDbText
  0
LINE
  5
ED
330
1E
100
AcDbEntity
  8
0
  6
CONTINUOUS
 62
     7
100
AcDbLine
 10
176.0
 20
57.0134
 30
0.0
 11
176.0
 21
64.0491
 31
0.0
  0
LINE
  5
EE
330
1E
100
AcDbEntity
  8
0
  6
CONTINUOUS
 62
     7
100
AcDbLine
 10
-95.84000000000001
 20
139.3819
 30
0.0
 11
-43.3227
 21
139.3819
 31
0.0
  0
LINE
  5
EF
330
1E
100
AcDbEntity
  8
0
  6
CONTINUOUS
 62
     7
100
AcDbLine
 10
-214.69355
 20
139.3819
 30
0.0
 11
-162.24695
 21
139.3819
 31
0.0
  0
TEXT
  5
F0
330
1E
100
AcDbEntity
  8
0
  6
CONTINUOUS
 62
     7
100
AcDbText
 10
-211.5979
 20
140.0818499999999
 30
0.0
 40
6.0
  1
Ａ－Ａ
 41
0.8666665999999999
  7
BIGFONT
100
AcDbText
  0
TEXT
  5
F1
330
1E
100
AcDbEntity
  8
0
  6
CONTINUOUS
 62
     7
100
AcDbText
 10
-92.7068
 20
139.96845
 30
0.0
 40
6.0
  1
Ｂ－Ｂ
 41
0.8666665999999999
  7
BIGFONT
100
AcDbText
  0
TEXT
  5
F2
330
1E
100
AcDbEntity
  8
0
  6
CONTINUOUS
 62
     7
100
AcDbText
 10
-211.86275
 20
-0.70295
 30
0.0
 40
6.0
  1
Ｃ－Ｃ
 41
0.8666665999999999
  7
BIGFONT
100
AcDbText
  0
TEXT
  5
F3
330
1E
100
AcDbEntity
  8
0
  6
CONTINUOUS
 62
     7
100
AcDbText
 10
-92.91110000000001
 20
-0.7853
 30
0.0
 40
6.0
  1
Ｄ－Ｄ
 41
0.8666665999999999
  7
BIGFONT
100
AcDbText
  0
TEXT
  5
F4
330
1E
100
AcDbEntity
  8
0
  6
CONTINUOUS
 62
     7
100
AcDbText
 10
-69.09780000000001
 20
-0.9089999999999999
 30
0.0
 40
6.0
  1
断面図
  7
BIGFONT
100
AcDbText
  0
TEXT
  5
F5
330
1E
100
AcDbEntity
  8
0
  6
CONTINUOUS
 62
     7
100
AcDbText
 10
-188.18125
 20
-0.8498499999999998
 30
0.0
 40
6.0
  1
断面図
  7
BIGFONT
100
AcDbText
  0
TEXT
  5
F6
330
1E
100
AcDbEntity
  8
0
  6
CONTINUOUS
 62
     7
100
AcDbText
 10
-188.05775
 20
139.9929999999999
 30
0.0
 40
6.0
  1
断面図
  7
BIGFONT
100
AcDbText
  0
TEXT
  5
F7
330
1E
100
AcDbEntity
  8
0
  6
CONTINUOUS
 62
     7
100
AcDbText
 10
-69.20650000000001
 20
140.11395
 30
0.0
 40
6.0
  1
断面図
  7
BIGFONT
100
AcDbText
  0
LINE
  5
F8
330
1E
100
AcDbEntity
  8
0
  6
CONTINUOUS
 62
     7
100
AcDbLine
 10
-214.7844
 20
-1.551549999999999
 30
0.0
 11
-162.49085
 21
-1.551549999999999
 31
0.0
  0
LINE
  5
F9
330
1E
100
AcDbEntity
  8
0
  6
CONTINUOUS
 62
     7
100
AcDbLine
 10
180.0043999999999
 20
139.3819
 30
0.0
 11
206.51445
 21
139.3819
 31
0.0
  0
TEXT
  5
FA
330
1E
100
AcDbEntity
  8
0
  6
CONTINUOUS
 62
     7
100
AcDbText
 10
181.1139
 20
140.5269
 30
0.0
 40
6.2
  1
側面図
  7
BIGFONT
100
AcDbText
  0
TEXT
  5
FB
330
1E
100
AcDbEntity
  8
0
  6
CONTINUOUS
 62
     7
100
AcDbText
 10
181.1555999999999
 20
-0.3209
 30
0.0
 40
6.2
  1
平面図
  7
BIGFONT
100
AcDbText
  0
LINE
  5
FC
330
1E
100
AcDbEntity
  8
0
  6
CONTINUOUS
 62
     7
100
AcDbLine
 10
180.0043999999999
 20
-1.551549999999999
 30
0.0
 11
206.49445
 21
-1.551549999999999
 31
0.0
  0
LINE
  5
FD
330
1E
100
AcDbEntity
  8
0
  6
CONTINUOUS
 62
     7
100
AcDbLine
 10
-95.899
 20
-1.551549999999999
 30
0.0
 11
-43.60545
 21
-1.551549999999999
 31
0.0
  0
LINE
  5
FE
330
1E
100
AcDbEntity
  8
0
  6
CONTINUOUS
 62
     7
100
AcDbLine
 10
170.0
 20
-31.55155
 30
0.0
 11
217.5
 21
-31.55155
 31
0.0
  0
LINE
  5
FF
330
1E
100
AcDbEntity
  8
0
  6
CONTINUOUS
 62
     7
100
AcDbLine
 10
170.0
 20
-79.05155
 30
0.0
 11
170.0
 21
-31.55155
 31
0.0
  0
LINE
  5
100
330
1E
100
AcDbEntity
  8
0
  6
CONTINUOUS
 62
     7
100
AcDbLine
 10
170.0
 20
-79.05155
 30
0.0
 11
207.5
 21
-79.05155
 31
0.0
  0
LINE
  5
101
330
1E
100
AcDbEntity
  8
0
  6
CONTINUOUS
 62
     7
100
AcDbLine
 10
178.5
 20
-79.05155
 30
0.0
 11
178.5
 21
-46.55154999999999
 31
0.0
  0
LINE
  5
102
330
1E
100
AcDbEntity
  8
0
  6
CONTINUOUS
 62
     7
100
AcDbLine
 10
176.0
 20
-46.55154999999999
 30
0.0
 11
178.5
 21
-46.55154999999999
 31
0.0
  0
LINE
  5
103
330
1E
100
AcDbEntity
  8
0
  6
CONTINUOUS
 62
     7
100
AcDbLine
 10
185.0
 20
-40.05155
 30
0.0
 11
217.5
 21
-40.05155
 31
0.0
  0
LINE
  5
104
330
1E
100
AcDbEntity
  8
0
  6
CONTINUOUS
 62
     7
100
AcDbLine
 10
185.0
 20
-40.05155
 30
0.0
 11
185.0
 21
-37.55155
 31
0.0
  0
LINE
  5
105
330
1E
100
AcDbEntity
  8
0
  6
CONTINUOUS
 62
     7
100
AcDbLine
 10
152.5
 20
-79.05155
 30
0.0
 11
152.5
 21
-31.55155
 31
0.0
  0
LINE
  5
106
330
1E
100
AcDbEntity
  8
0
  6
CONTINUOUS
 62
     7
100
AcDbLine
 10
169.0
 20
-31.55155
 30
0.0
 11
151.6999999999999
 21
-31.55155
 31
0.0
  0
LINE
  5
107
330
1E
100
AcDbEntity
  8
0
  6
CONTINUOUS
 62
     7
100
AcDbLine
 10
169.0
 20
-79.05155
 30
0.0
 11
151.6999999999999
 21
-79.05155
 31
0.0
  0
LINE
  5
108
330
1E
100
AcDbEntity
  8
0
  6
CONTINUOUS
 62
     7
100
AcDbLine
 10
152.82153
 20
-32.751
 30
0.0
 11
152.5
 21
-31.551
 31
0.0
  0
LINE
  5
109
330
1E
100
AcDbEntity
  8
0
  6
CONTINUOUS
 62
     7
100
AcDbLine
 10
152.5
 20
-31.551
 30
0.0
 11
152.17846
 21
-32.751
 31
0.0
  0
LINE
  5
10A
330
1E
100
AcDbEntity
  8
0
  6
CONTINUOUS
 62
     7
100
AcDbLine
 10
152.17846
 20
-77.85099999999999
 30
0.0
 11
152.5
 21
-79.051
 31
0.0
  0
LINE
  5
10B
330
1E
100
AcDbEntity
  8
0
  6
CONTINUOUS
 62
     7
100
AcDbLine
 10
152.5
 20
-79.051
 30
0.0
 11
152.82153
 21
-77.85099999999999
 31
0.0
  0
TEXT
  5
10C
330
1E
100
AcDbEntity
  8
0
  6
CONTINUOUS
 62
     7
100
AcDbText
 10
152.0999999999999
 20
-59.46155
 30
0.0
 40
3.2
  1
950
 50
90.0
 41
0.8125
  7
BIGFONT
100
AcDbText
  0
LINE
  5
10D
330
1E
100
AcDbEntity
  8
0
  6
CONTINUOUS
 62
     7
100
AcDbLine
 10
160.0
 20
-79.05155
 30
0.0
 11
160.0
 21
-46.54639999999999
 31
0.0
  0
LINE
  5
10E
330
1E
100
AcDbEntity
  8
0
  6
CONTINUOUS
 62
     7
100
AcDbLine
 10
169.0
 20
-46.54639999999999
 30
0.0
 11
159.1999999999998
 21
-46.54639999999999
 31
0.0
  0
LINE
  5
10F
330
1E
100
AcDbEntity
  8
0
  6
CONTINUOUS
 62
     7
100
AcDbLine
 10
160.82785
 20
-79.05155
 30
0.0
 11
159.1999999999998
 21
-79.05155
 31
0.0
  0
LINE
  5
110
330
1E
100
AcDbEntity
  8
0
  6
CONTINUOUS
 62
     7
100
AcDbLine
 10
160.32153
 20
-47.746
 30
0.0
 11
160.0
 21
-46.54600000000001
 31
0.0
  0
LINE
  5
111
330
1E
100
AcDbEntity
  8
0
  6
CONTINUOUS
 62
     7
100
AcDbLine
 10
160.0
 20
-46.54600000000001
 30
0.0
 11
159.67846
 21
-47.746
 31
0.0
  0
LINE
  5
112
330
1E
100
AcDbEntity
  8
0
  6
CONTINUOUS
 62
     7
100
AcDbLine
 10
159.67846
 20
-77.85099999999999
 30
0.0
 11
160.0
 21
-79.051
 31
0.0
  0
LINE
  5
113
330
1E
100
AcDbEntity
  8
0
  6
CONTINUOUS
 62
     7
100
AcDbLine
 10
160.0
 20
-79.051
 30
0.0
 11
160.32153
 21
-77.85099999999999
 31
0.0
  0
TEXT
  5
114
330
1E
100
AcDbEntity
  8
0
  6
CONTINUOUS
 62
     7
100
AcDbText
 10
159.6
 20
-65.39896999999999
 30
0.0
 40
3.2
  1
650
 50
90.0
 41
0.8125
  7
BIGFONT
100
AcDbText
  0
LINE
  5
115
330
1E
100
AcDbEntity
  8
0
  6
CONTINUOUS
 62
     7
100
AcDbLine
 10
170.0
 20
-96.55155
 30
0.0
 11
207.5
 21
-96.55155
 31
0.0
  0
LINE
  5
116
330
1E
100
AcDbEntity
  8
0
  6
CONTINUOUS
 62
     7
100
AcDbLine
 10
207.5
 20
-80.05155
 30
0.0
 11
207.5
 21
-97.35155
 31
0.0
  0
LINE
  5
117
330
1E
100
AcDbEntity
  8
0
  6
CONTINUOUS
 62
     7
100
AcDbLine
 10
170.0
 20
-80.05155
 30
0.0
 11
170.0
 21
-97.35155
 31
0.0
  0
LINE
  5
118
330
1E
100
AcDbEntity
  8
0
  6
CONTINUOUS
 62
     7
100
AcDbLine
 10
206.3
 20
-96.87253
 30
0.0
 11
207.5
 21
-96.551
 31
0.0
  0
LINE
  5
119
330
1E
100
AcDbEntity
  8
0
  6
CONTINUOUS
 62
     7
100
AcDbLine
 10
207.5
 20
-96.551
 30
0.0
 11
206.3
 21
-96.22946
 31
0.0
  0
LINE
  5
11A
330
1E
100
AcDbEntity
  8
0
  6
CONTINUOUS
 62
     7
100
AcDbLine
 10
171.1999999999999
 20
-96.22946
 30
0.0
 11
170.0
 21
-96.551
 31
0.0
  0
LINE
  5
11B
330
1E
100
AcDbEntity
  8
0
  6
CONTINUOUS
 62
     7
100
AcDbLine
 10
170.0
 20
-96.551
 30
0.0
 11
171.1999999999999
 21
-96.87253
 31
0.0
  0
TEXT
  5
11C
330
1E
100
AcDbEntity
  8
0
  6
CONTINUOUS
 62
     7
100
AcDbText
 10
184.8499999999999
 20
-96.15155000000001
 30
0.0
 40
3.2
  1
750
 41
0.8125
  7
BIGFONT
100
AcDbText
  0
LINE
  5
11D
330
1E
100
AcDbEntity
  8
0
  6
CONTINUOUS
 62
     7
100
AcDbLine
 10
170.0
 20
-89.05155
 30
0.0
 11
176.0
 21
-89.05155
 31
0.0
  0
LINE
  5
11E
330
1E
100
AcDbEntity
  8
0
  6
CONTINUOUS
 62
     7
100
AcDbLine
 10
176.0
 20
-80.05155
 30
0.0
 11
176.0
 21
-89.85155
 31
0.0
  0
LINE
  5
11F
330
1E
100
AcDbEntity
  8
0
  6
CONTINUOUS
 62
     7
100
AcDbLine
 10
170.0
 20
-86.91325
 30
0.0
 11
170.0
 21
-89.85155
 31
0.0
  0
LINE
  5
120
330
1E
100
AcDbEntity
  8
0
  6
CONTINUOUS
 62
     7
100
AcDbLine
 10
174.8
 20
-89.37253
 30
0.0
 11
176.0
 21
-89.051
 31
0.0
  0
LINE
  5
121
330
1E
100
AcDbEntity
  8
0
  6
CONTINUOUS
 62
     7
100
AcDbLine
 10
176.0
 20
-89.051
 30
0.0
 11
174.8
 21
-88.72946
 31
0.0
  0
LINE
  5
122
330
1E
100
AcDbEntity
  8
0
  6
CONTINUOUS
 62
     7
100
AcDbLine
 10
171.1999999999999
 20
-88.72946
 30
0.0
 11
170.0
 21
-89.051
 31
0.0
  0
LINE
  5
123
330
1E
100
AcDbEntity
  8
0
  6
CONTINUOUS
 62
     7
100
AcDbLine
 10
170.0
 20
-89.051
 30
0.0
 11
171.1999999999999
 21
-89.37253
 31
0.0
  0
TEXT
  5
124
330
1E
100
AcDbEntity
  8
0
  6
CONTINUOUS
 62
     7
100
AcDbText
 10
169.1
 20
-88.65154999999999
 30
0.0
 40
3.2
  1
120
 41
0.8125
  7
BIGFONT
100
AcDbText
  0
LINE
  5
125
330
1E
100
AcDbEntity
  8
0
  6
CONTINUOUS
 62
     7
100
AcDbLine
 10
176.0
 20
-89.05155
 30
0.0
 11
178.5
 21
-89.05155
 31
0.0
  0
LINE
  5
126
330
1E
100
AcDbEntity
  8
0
  6
CONTINUOUS
 62
     7
100
AcDbLine
 10
178.5
 20
-80.05155
 30
0.0
 11
178.5
 21
-89.85155
 31
0.0
  0
LINE
  5
127
330
1E
100
AcDbEntity
  8
0
  6
CONTINUOUS
 62
     7
100
AcDbLine
 10
180.9
 20
-89.05155
 30
0.0
 11
178.5
 21
-89.05155
 31
0.0
  0
LINE
  5
128
330
1E
100
AcDbEntity
  8
0
  6
CONTINUOUS
 62
     7
100
AcDbLine
 10
179.6999999999999
 20
-88.72946
 30
0.0
 11
178.5
 21
-89.051
 31
0.0
  0
LINE
  5
129
330
1E
100
AcDbEntity
  8
0
  6
CONTINUOUS
 62
     7
100
AcDbLine
 10
178.5
 20
-89.051
 30
0.0
 11
179.6999999999999
 21
-89.37253
 31
0.0
  0
LINE
  5
12A
330
1E
100
AcDbEntity
  8
0
  6
CONTINUOUS
 62
     7
100
AcDbLine
 10
176.0
 20
-89.05155
 30
0.0
 11
173.5999999999999
 21
-89.05155
 31
0.0
  0
LINE
  5
12B
330
1E
100
AcDbEntity
  8
0
  6
CONTINUOUS
 62
     7
100
AcDbLine
 10
174.8
 20
-89.37253
 30
0.0
 11
176.0
 21
-89.051
 31
0.0
  0
LINE
  5
12C
330
1E
100
AcDbEntity
  8
0
  6
CONTINUOUS
 62
     7
100
AcDbLine
 10
176.0
 20
-89.051
 30
0.0
 11
174.8
 21
-88.72946
 31
0.0
  0
LINE
  5
12D
330
1E
100
AcDbEntity
  8
0
  6
CONTINUOUS
 62
     7
100
AcDbLine
 10
180.9
 20
-89.05155
 30
0.0
 11
186.3
 21
-89.05155
 31
0.0
  0
TEXT
  5
12E
330
1E
100
AcDbEntity
  8
0
  6
CONTINUOUS
 62
     7
100
AcDbText
 10
181.0999999999999
 20
-88.65154999999999
 30
0.0
 40
3.2
  1
50
 41
0.8125
  7
BIGFONT
100
AcDbText
  0
ARC
  5
12F
330
1E
100
AcDbEntity
  8
0
  6
CONTINUOUS
 62
     7
100
AcDbCircle
 10
170.0
 20
-31.55155
 30
0.0
 40
6.774499999999997
100
AcDbArc
 50
270.0
 51
0.0
  0
ARC
  5
130
330
1E
100
AcDbEntity
  8
0
  6
CONTINUOUS
 62
     7
100
AcDbCircle
 10
168.2465
 20
-31.78185
 30
0.0
 40
6.775
100
AcDbArc
 50
285.0
 51
295.1483299999998
  0
ARC
  5
131
330
1E
100
AcDbEntity
  8
0
  6
CONTINUOUS
 62
     7
100
AcDbCircle
 10
171.7534899999999
 20
-31.78185
 30
0.0
 40
6.775
100
AcDbArc
 50
255.0
 51
265.1483299999999
  0
ARC
  5
132
330
1E
100
AcDbEntity
  8
0
  6
CONTINUOUS
 62
     7
100
AcDbCircle
 10
170.23081
 20
-33.30424
 30
0.0
 40
6.774
100
AcDbArc
 50
4.8501719
 51
15.0
  0
ARC
  5
133
330
1E
100
AcDbEntity
  8
0
  6
CONTINUOUS
 62
     7
100
AcDbCircle
 10
170.23081
 20
-29.79775
 30
0.0
 40
6.774
100
AcDbArc
 50
334.8501699999999
 51
345.0
  0
TEXT
  5
134
330
1E
100
AcDbEntity
  8
0
  6
CONTINUOUS
 62
     7
100
AcDbText
 10
175.1065499999999
 20
-40.9916
 30
0.0
 40
3.2
  1
90°
 50
45.0
  7
BIGFONT
100
AcDbText
  0
LINE
  5
135
330
1E
100
AcDbEntity
  8
0
  6
CONTINUOUS
 62
     7
100
AcDbLine
 10
232.56605
 20
64.8819
 30
0.0
 11
232.56605
 21
70.8819
 31
0.0
  0
LINE
  5
136
330
1E
100
AcDbEntity
  8
0
  6
CONTINUOUS
 62
     7
100
AcDbLine
 10
218.5
 20
70.8819
 30
0.0
 11
233.36605
 21
70.8819
 31
0.0
  0
LINE
  5
137
330
1E
100
AcDbEntity
  8
0
  6
CONTINUOUS
 62
     7
100
AcDbLine
 10
218.5
 20
64.8819
 30
0.0
 11
233.36605
 21
64.8819
 31
0.0
  0
LINE
  5
138
330
1E
100
AcDbEntity
  8
0
  6
CONTINUOUS
 62
     7
100
AcDbLine
 10
232.8875299999999
 20
69.68099999999999
 30
0.0
 11
232.5659999999999
 21
70.881
 31
0.0
  0
LINE
  5
139
330
1E
100
AcDbEntity
  8
0
  6
CONTINUOUS
 62
     7
100
AcDbLine
 10
232.5659999999999
 20
70.881
 30
0.0
 11
232.24446
 21
69.68099999999999
 31
0.0
  0
LINE
  5
13A
330
1E
100
AcDbEntity
  8
0
  6
CONTINUOUS
 62
     7
100
AcDbLine
 10
232.24446
 20
66.081
 30
0.0
 11
232.5659999999999
 21
64.881
 31
0.0
  0
LINE
  5
13B
330
1E
100
AcDbEntity
  8
0
  6
CONTINUOUS
 62
     7
100
AcDbLine
 10
232.5659999999999
 20
64.881
 30
0.0
 11
232.8875299999999
 21
66.081
 31
0.0
  0
TEXT
  5
13C
330
1E
100
AcDbEntity
  8
0
  6
CONTINUOUS
 62
     7
100
AcDbText
 10
232.16605
 20
63.9819
 30
0.0
 40
3.2
  1
120
 50
90.0
 41
0.8125
  7
BIGFONT
100
AcDbText
  0
LINE
  5
13D
330
1E
100
AcDbEntity
  8
0
  6
CONTINUOUS
 62
     7
100
AcDbLine
 10
170.0
 20
131.9842999999997
 30
0.0
 11
175.9985499999999
 21
131.9842999999997
 31
0.0
  0
LINE
  5
13E
330
1E
100
AcDbEntity
  8
0
  6
CONTINUOUS
 62
     7
100
AcDbLine
 10
175.9985499999999
 20
115.8819
 30
0.0
 11
175.9985499999999
 21
132.7843
 31
0.0
  0
LINE
  5
13F
330
1E
100
AcDbEntity
  8
0
  6
CONTINUOUS
 62
     7
100
AcDbLine
 10
170.0
 20
115.8819
 30
0.0
 11
170.0
 21
132.7843
 31
0.0
  0
LINE
  5
140
330
1E
100
AcDbEntity
  8
0
  6
CONTINUOUS
 62
     7
100
AcDbLine
 10
174.798
 20
131.66246
 30
0.0
 11
175.9979999999999
 21
131.984
 31
0.0
  0
LINE
  5
141
330
1E
100
AcDbEntity
  8
0
  6
CONTINUOUS
 62
     7
100
AcDbLine
 10
175.9979999999999
 20
131.984
 30
0.0
 11
174.798
 21
132.30553
 31
0.0
  0
LINE
  5
142
330
1E
100
AcDbEntity
  8
0
  6
CONTINUOUS
 62
     7
100
AcDbLine
 10
171.1999999999999
 20
132.30553
 30
0.0
 11
170.0
 21
131.984
 31
0.0
  0
LINE
  5
143
330
1E
100
AcDbEntity
  8
0
  6
CONTINUOUS
 62
     7
100
AcDbLine
 10
170.0
 20
131.984
 30
0.0
 11
171.1999999999999
 21
131.66246
 31
0.0
  0
TEXT
  5
144
330
1E
100
AcDbEntity
  8
0
  6
CONTINUOUS
 62
     7
100
AcDbText
 10
169.0992699999999
 20
132.3842999999999
 30
0.0
 40
3.2
  1
120
 41
0.8125
  7
BIGFONT
100
AcDbText
  0
LINE
  5
145
330
1E
100
AcDbEntity
  8
0
  6
CONTINUOUS
 62
     7
100
AcDbLine
 10
175.9985499999999
 20
131.9842999999997
 30
0.0
 11
178.459
 21
131.9842999999997
 31
0.0
  0
LINE
  5
146
330
1E
100
AcDbEntity
  8
0
  6
CONTINUOUS
 62
     7
100
AcDbLine
 10
178.459
 20
115.8819
 30
0.0
 11
178.459
 21
132.7843
 31
0.0
  0
LINE
  5
147
330
1E
100
AcDbEntity
  8
0
  6
CONTINUOUS
 62
     7
100
AcDbLine
 10
180.859
 20
131.9842999999997
 30
0.0
 11
178.459
 21
131.9842999999997
 31
0.0
  0
LINE
  5
148
330
1E
100
AcDbEntity
  8
0
  6
CONTINUOUS
 62
     7
100
AcDbLine
 10
179.6589999999999
 20
132.30553
 30
0.0
 11
178.459
 21
131.984
 31
0.0
  0
LINE
  5
149
330
1E
100
AcDbEntity
  8
0
  6
CONTINUOUS
 62
     7
100
AcDbLine
 10
178.459
 20
131.984
 30
0.0
 11
179.6589999999999
 21
131.66246
 31
0.0
  0
LINE
  5
14A
330
1E
100
AcDbEntity
  8
0
  6
CONTINUOUS
 62
     7
100
AcDbLine
 10
175.9985499999999
 20
131.9842999999997
 30
0.0
 11
173.5985499999999
 21
131.9842999999997
 31
0.0
  0
LINE
  5
14B
330
1E
100
AcDbEntity
  8
0
  6
CONTINUOUS
 62
     7
100
AcDbLine
 10
174.798
 20
131.66246
 30
0.0
 11
175.9979999999999
 21
131.984
 31
0.0
  0
LINE
  5
14C
330
1E
100
AcDbEntity
  8
0
  6
CONTINUOUS
 62
     7
100
AcDbLine
 10
175.9979999999999
 20
131.984
 30
0.0
 11
174.798
 21
132.30553
 31
0.0
  0
LINE
  5
14D
330
1E
100
AcDbEntity
  8
0
  6
CONTINUOUS
 62
     7
100
AcDbLine
 10
180.859
 20
131.9842999999997
 30
0.0
 11
186.2589999999999
 21
131.9842999999997
 31
0.0
  0
TEXT
  5
14E
330
1E
100
AcDbEntity
  8
0
  6
CONTINUOUS
 62
     7
100
AcDbText
 10
181.0589999999999
 20
132.3842999999999
 30
0.0
 40
3.2
  1
50
 41
0.8125
  7
BIGFONT
100
AcDbText
  0
LINE
  5
14F
330
1E
100
AcDbEntity
  8
0
  6
CONTINUOUS
 62
     7
100
AcDbLine
 10
217.5
 20
67.59170000000001
 30
0.0
 11
217.5
 21
77.3819
 31
0.0
  0
LINE
  5
150
330
1E
100
AcDbEntity
  8
0
  6
CONTINUOUS
 62
     7
100
AcDbLine
 10
170.4499999999999
 20
114.8819
 30
0.0
 11
217.5
 21
114.8819
 31
0.0
  0
LINE
  5
151
330
1E
100
AcDbEntity
  8
0
  6
CONTINUOUS
 62
     7
100
AcDbLine
 10
82.59999999999998
 20
77.5319
 30
0.0
 11
82.75
 21
77.3819
 31
0.0
  0
LINE
  5
152
330
1E
100
AcDbEntity
  8
0
  6
CONTINUOUS
 62
     7
100
AcDbLine
 10
82.59999999999998
 20
77.5319
 30
0.0
 11
82.59999999999998
 21
94.6138
 31
0.0
  0
LINE
  5
153
330
1E
100
AcDbEntity
  8
0
  6
CONTINUOUS
 62
     7
100
AcDbLine
 10
82.75
 20
94.7638
 30
0.0
 11
82.75
 21
114.8819
 31
0.0
  0
LINE
  5
154
330
1E
100
AcDbEntity
  8
0
  6
CONTINUOUS
 62
     7
100
AcDbLine
 10
82.59999999999998
 20
94.6138
 30
0.0
 11
82.75
 21
94.7638
 31
0.0
  0
LINE
  5
155
330
1E
100
AcDbEntity
  8
0
  6
CONTINUOUS
 62
     7
100
AcDbLine
 10
82.75
 20
64.8819
 30
0.0
 11
82.75
 21
70.8819
 31
0.0
  0
LINE
  5
156
330
1E
100
AcDbEntity
  8
0
  6
CONTINUOUS
 62
     7
100
AcDbLine
 10
72.75
 20
64.8819
 30
0.0
 11
72.75
 21
70.8819
 31
0.0
  0
LINE
  5
157
330
1E
100
AcDbEntity
  8
0
  6
CONTINUOUS
 62
     7
100
AcDbLine
 10
82.75
 20
67.59170000000001
 30
0.0
 11
82.75
 21
77.3819
 31
0.0
  0
LINE
  5
158
330
1E
100
AcDbEntity
  8
0
  6
CONTINUOUS
 62
     7
100
AcDbLine
 10
41.24165
 20
114.4402499999999
 30
0.0
 11
41.25
 21
114.4319
 31
0.0
  0
LINE
  5
159
330
1E
100
AcDbEntity
  8
0
  6
CONTINUOUS
 62
     7
100
AcDbLine
 10
41.24165
 20
114.8819
 30
0.0
 11
82.75
 21
114.8819
 31
0.0
  0
LINE
  5
15A
330
1E
100
AcDbEntity
  8
0
  6
CONTINUOUS
 62
     7
100
AcDbLine
 10
41.24
 20
114.4419
 30
0.0
 11
41.24165
 21
114.4402499999999
 31
0.0
  0
LINE
  5
15B
330
1E
100
AcDbEntity
  8
0
  6
CONTINUOUS
 62
     7
100
AcDbLine
 10
41.24
 20
114.8819
 30
0.0
 11
41.24165
 21
114.8819
 31
0.0
  0
LINE
  5
15C
330
1E
100
AcDbEntity
  8
0
  6
CONTINUOUS
 62
     7
100
AcDbLine
 10
72.73545
 20
64.8819
 30
0.0
 11
82.75
 21
64.8819
 31
0.0
  0
LINE
  5
15D
330
1E
100
AcDbEntity
  8
0
  6
CONTINUOUS
 62
     7
100
AcDbLine
 10
72.73545
 20
70.8819
 30
0.0
 11
82.75
 21
70.8819
 31
0.0
  0
LINE
  5
15E
330
1E
100
AcDbEntity
  8
0
  6
CONTINUOUS
 62
     7
100
AcDbLine
 10
-93.625
 20
65.4864
 30
0.0
 11
-93.625
 21
80.38639999999999
 31
0.0
  0
LINE
  5
15F
330
1E
100
AcDbEntity
  8
0
  6
CONTINUOUS
 62
     7
100
AcDbLine
 10
-93.625
 20
80.38639999999999
 30
0.0
 11
-93.475
 21
80.53639999999999
 31
0.0
  0
LINE
  5
160
330
1E
100
AcDbEntity
  8
0
  6
CONTINUOUS
 62
     7
100
AcDbLine
 10
-93.475
 20
80.53639999999999
 30
0.0
 11
-93.475
 21
94.73640000000001
 31
0.0
  0
LINE
  5
161
330
1E
100
AcDbEntity
  8
0
  6
CONTINUOUS
 62
     7
100
AcDbLine
 10
-93.625
 20
94.8864
 30
0.0
 11
-93.475
 21
94.73640000000001
 31
0.0
  0
LINE
  5
162
330
1E
100
AcDbEntity
  8
0
  6
CONTINUOUS
 62
     7
100
AcDbLine
 10
-93.625
 20
94.8864
 30
0.0
 11
-93.625
 21
114.8819
 31
0.0
  0
LINE
  5
163
330
1E
100
AcDbEntity
  8
0
  6
CONTINUOUS
 62
     7
100
AcDbLine
 10
-93.625
 20
114.8819
 30
0.0
 11
-46.12499999999999
 21
114.8819
 31
0.0
  0
LINE
  5
164
330
1E
100
AcDbEntity
  8
0
  6
CONTINUOUS
 62
     7
100
AcDbLine
 10
-46.12499999999999
 20
77.3864
 30
0.0
 11
-46.12499999999999
 21
114.8819
 31
0.0
  0
LINE
  5
165
330
1E
100
AcDbEntity
  8
0
  6
CONTINUOUS
 62
     7
100
AcDbLine
 10
-46.12499999999999
 20
65.4864
 30
0.0
 11
-46.12499999999999
 21
80.38639999999999
 31
0.0
  0
LINE
  5
166
330
1E
100
AcDbEntity
  8
0
  6
CONTINUOUS
 62
     7
100
AcDbLine
 10
-93.625
 20
65.4864
 30
0.0
 11
-93.025
 21
64.8864
 31
0.0
  0
LINE
  5
167
330
1E
100
AcDbEntity
  8
0
  6
CONTINUOUS
 62
     7
100
AcDbLine
 10
-46.725
 20
64.8864
 30
0.0
 11
-46.12499999999999
 21
65.4864
 31
0.0
  0
LINE
  5
168
330
1E
100
AcDbEntity
  8
0
  6
CONTINUOUS
 62
     7
100
AcDbLine
 10
-212.4839
 20
65.4864
 30
0.0
 11
-212.4839
 21
80.38639999999999
 31
0.0
  0
LINE
  5
169
330
1E
100
AcDbEntity
  8
0
  6
CONTINUOUS
 62
     7
100
AcDbLine
 10
-212.4839
 20
80.38639999999999
 30
0.0
 11
-212.3339
 21
80.53639999999999
 31
0.0
  0
LINE
  5
16A
330
1E
100
AcDbEntity
  8
0
  6
CONTINUOUS
 62
     7
100
AcDbLine
 10
-212.3339
 20
80.53639999999999
 30
0.0
 11
-212.3339
 21
94.73640000000001
 31
0.0
  0
LINE
  5
16B
330
1E
100
AcDbEntity
  8
0
  6
CONTINUOUS
 62
     7
100
AcDbLine
 10
-212.4839
 20
94.8864
 30
0.0
 11
-212.3339
 21
94.73640000000001
 31
0.0
  0
LINE
  5
16C
330
1E
100
AcDbEntity
  8
0
  6
CONTINUOUS
 62
     7
100
AcDbLine
 10
-212.4839
 20
94.8864
 30
0.0
 11
-212.4839
 21
114.8819
 31
0.0
  0
LINE
  5
16D
330
1E
100
AcDbEntity
  8
0
  6
CONTINUOUS
 62
     7
100
AcDbLine
 10
-212.4839
 20
114.8819
 30
0.0
 11
-164.9839
 21
114.8819
 31
0.0
  0
LINE
  5
16E
330
1E
100
AcDbEntity
  8
0
  6
CONTINUOUS
 62
     7
100
AcDbLine
 10
-211.8839
 20
64.8864
 30
0.0
 11
-165.5839
 21
64.8864
 31
0.0
  0
LINE
  5
16F
330
1E
100
AcDbEntity
  8
0
  6
CONTINUOUS
 62
     7
100
AcDbLine
 10
-212.4839
 20
65.4864
 30
0.0
 11
-211.8839
 21
64.8864
 31
0.0
  0
LINE
  5
170
330
1E
100
AcDbEntity
  8
0
  6
CONTINUOUS
 62
     7
100
AcDbLine
 10
-165.5839
 20
64.8864
 30
0.0
 11
-164.9839
 21
65.4864
 31
0.0
  0
LINE
  5
171
330
1E
100
AcDbEntity
  8
0
  6
DASHED
 62
     1
100
AcDbLine
 10
-209.4838999999999
 20
67.01055
 30
0.0
 11
-209.4838999999999
 21
77.81055000000002
 31
0.0
  0
LINE
  5
172
330
1E
100
AcDbEntity
  8
0
  6
CONTINUOUS
 62
     7
100
AcDbLine
 10
-93.025
 20
64.8864
 30
0.0
 11
-92.27540000000001
 21
64.8864
 31
0.0
  0
LINE
  5
173
330
1E
100
AcDbEntity
  8
0
  6
CONTINUOUS
 62
     7
100
AcDbLine
 10
-164.9839
 20
77.3864
 30
0.0
 11
-164.9839
 21
112.8961
 31
0.0
  0
LINE
  5
174
330
1E
100
AcDbEntity
  8
0
  6
CONTINUOUS
 62
     7
100
AcDbLine
 10
-164.9839
 20
112.8961
 30
0.0
 11
-164.9839
 21
114.8819
 31
0.0
  0
LINE
  5
175
330
1E
100
AcDbEntity
  8
0
  6
CONTINUOUS
 62
     7
100
AcDbLine
 10
-164.9839
 20
65.4864
 30
0.0
 11
-164.9839
 21
66.3245
 31
0.0
  0
LINE
  5
176
330
1E
100
AcDbEntity
  8
0
  6
CONTINUOUS
 62
     7
100
AcDbLine
 10
-164.9839
 20
66.3245
 30
0.0
 11
-164.9839
 21
80.38639999999999
 31
0.0
  0
LINE
  5
177
330
1E
100
AcDbEntity
  8
0
  6
CONTINUOUS
 62
     7
100
AcDbLine
 10
-92.27540000000001
 20
64.8864
 30
0.0
 11
-46.725
 21
64.8864
 31
0.0
  0
LINE
  5
178
330
1E
100
AcDbEntity
  8
0
  6
CONTINUOUS
 62
     7
100
AcDbLine
 10
-111.125
 20
64.8819
 30
0.0
 11
-111.125
 21
114.8819
 31
0.0
  0
LINE
  5
179
330
1E
100
AcDbEntity
  8
0
  6
CONTINUOUS
 62
     7
100
AcDbLine
 10
-94.625
 20
114.8819
 30
0.0
 11
-111.925
 21
114.8819
 31
0.0
  0
LINE
  5
17A
330
1E
100
AcDbEntity
  8
0
  6
CONTINUOUS
 62
     7
100
AcDbLine
 10
-94.625
 20
64.8819
 30
0.0
 11
-111.925
 21
64.8819
 31
0.0
  0
LINE
  5
17B
330
1E
100
AcDbEntity
  8
0
  6
CONTINUOUS
 62
     7
100
AcDbLine
 10
-110.80346
 20
113.681
 30
0.0
 11
-111.125
 21
114.881
 31
0.0
  0
LINE
  5
17C
330
1E
100
AcDbEntity
  8
0
  6
CONTINUOUS
 62
     7
100
AcDbLine
 10
-111.125
 20
114.881
 30
0.0
 11
-111.44653
 21
113.681
 31
0.0
  0
LINE
  5
17D
330
1E
100
AcDbEntity
  8
0
  6
CONTINUOUS
 62
     7
100
AcDbLine
 10
-111.44653
 20
66.081
 30
0.0
 11
-111.125
 21
64.881
 31
0.0
  0
LINE
  5
17E
330
1E
100
AcDbEntity
  8
0
  6
CONTINUOUS
 62
     7
100
AcDbLine
 10
-111.125
 20
64.881
 30
0.0
 11
-110.80346
 21
66.081
 31
0.0
  0
TEXT
  5
17F
330
1E
100
AcDbEntity
  8
0
  6
CONTINUOUS
 62
     7
100
AcDbText
 10
-111.525
 20
84.68189999999998
 30
0.0
 40
3.2
  1
1000
 50
90.0
 41
0.8125
  7
BIGFONT
100
AcDbText
  0
LINE
  5
180
330
1E
100
AcDbEntity
  8
0
  6
CONTINUOUS
 62
     1
100
AcDbLine
 10
-209.9839
 20
67.0364
 30
0.0
 11
-209.9839
 21
94.8864
 31
0.0
  0
LINE
  5
181
330
1E
100
AcDbEntity
  8
0
  6
CONTINUOUS
 62
     1
100
AcDbLine
 10
-91.125
 20
67.0364
 30
0.0
 11
-91.125
 21
112.3819
 31
0.0
  0
LINE
  5
182
330
1E
100
AcDbEntity
  8
0
  6
CONTINUOUS
 62
     7
100
AcDbLine
 10
-229.9838999999999
 20
64.8819
 30
0.0
 11
-229.9838999999999
 21
94.8864
 31
0.0
  0
LINE
  5
183
330
1E
100
AcDbEntity
  8
0
  6
CONTINUOUS
 62
     7
100
AcDbLine
 10
-213.4838999999999
 20
94.8864
 30
0.0
 11
-230.7838999999999
 21
94.8864
 31
0.0
  0
LINE
  5
184
330
1E
100
AcDbEntity
  8
0
  6
CONTINUOUS
 62
     7
100
AcDbLine
 10
-213.4838999999999
 20
64.8819
 30
0.0
 11
-230.7838999999999
 21
64.8819
 31
0.0
  0
LINE
  5
185
330
1E
100
AcDbEntity
  8
0
  6
CONTINUOUS
 62
     7
100
AcDbLine
 10
-229.66146
 20
93.686
 30
0.0
 11
-229.983
 21
94.88599999999999
 31
0.0
  0
LINE
  5
186
330
1E
100
AcDbEntity
  8
0
  6
CONTINUOUS
 62
     7
100
AcDbLine
 10
-229.983
 20
94.88599999999999
 30
0.0
 11
-230.3045299999999
 21
93.686
 31
0.0
  0
LINE
  5
187
330
1E
100
AcDbEntity
  8
0
  6
CONTINUOUS
 62
     7
100
AcDbLine
 10
-230.3045299999999
 20
66.081
 30
0.0
 11
-229.983
 21
64.881
 31
0.0
  0
LINE
  5
188
330
1E
100
AcDbEntity
  8
0
  6
CONTINUOUS
 62
     7
100
AcDbLine
 10
-229.983
 20
64.881
 30
0.0
 11
-229.66146
 21
66.081
 31
0.0
  0
TEXT
  5
189
330
1E
100
AcDbEntity
  8
0
  6
CONTINUOUS
 62
     7
100
AcDbText
 10
-230.3838999999999
 20
75.98415
 30
0.0
 40
3.2
  1
600
 50
90.0
 41
0.8125
  7
BIGFONT
100
AcDbText
  0
LINE
  5
18A
330
1E
100
AcDbEntity
  8
0
  6
CONTINUOUS
 62
     7
100
AcDbLine
 10
35.25
 20
64.8819
 30
0.0
 11
35.25
 21
114.4319
 31
0.0
  0
LINE
  5
18B
330
1E
100
AcDbEntity
  8
0
  6
CONTINUOUS
 62
     7
100
AcDbLine
 10
35.25
 20
114.4319
 30
0.0
 11
35.7
 21
114.8819
 31
0.0
  0
LINE
  5
18C
330
1E
100
AcDbEntity
  8
0
  6
CONTINUOUS
 62
     7
100
AcDbLine
 10
41.25
 20
73.3819
 30
0.0
 11
41.25
 21
114.4319
 31
0.0
  0
LINE
  5
18D
330
1E
100
AcDbEntity
  8
0
  6
CONTINUOUS
 62
     7
100
AcDbLine
 10
41.25
 20
73.3819
 30
0.0
 11
43.75
 21
70.8819
 31
0.0
  0
LINE
  5
18E
330
1E
100
AcDbEntity
  8
0
  6
CONTINUOUS
 62
     7
100
AcDbLine
 10
72.75
 20
64.8819
 30
0.0
 11
72.75
 21
70.8819
 31
0.0
  0
ARC
  5
18F
330
1E
100
AcDbEntity
  8
0
  6
CONTINUOUS
 62
     1
100
AcDbCircle
 10
38.9
 20
68.53189999999999
 30
0.0
 40
1.5
100
AcDbArc
 50
180.0
 51
270.0
  0
ARC
  5
190
330
1E
100
AcDbEntity
  8
0
  6
CONTINUOUS
 62
     1
100
AcDbCircle
 10
38.9
 20
70.1319
 30
0.0
 40
1.5
100
AcDbArc
 50
180.0
 51
270.0
  0
LINE
  5
191
330
1E
100
AcDbEntity
  8
0
  6
CONTINUOUS
 62
     1
100
AcDbLine
 10
37.4
 20
68.53189999999999
 30
0.0
 11
37.4
 21
70.72735
 31
0.0
  0
ARC
  5
192
330
1E
100
AcDbEntity
  8
0
  6
CONTINUOUS
 62
     1
100
AcDbCircle
 10
40.25
 20
68.53189999999999
 30
0.0
 40
1.5
100
AcDbArc
 50
180.0
 51
270.0
  0
LINE
  5
193
330
1E
100
AcDbEntity
  8
0
  6
CONTINUOUS
 62
     1
100
AcDbLine
 10
38.9
 20
67.03189999999999
 30
0.0
 11
41.34835
 21
67.03189999999999
 31
0.0
  0
LINE
  5
194
330
1E
100
AcDbEntity
  8
0
  6
CONTINUOUS
 62
     1
100
AcDbLine
 10
37.4
 20
74.21945
 30
0.0
 11
44.58755
 21
67.03189999999999
 31
0.0
  0
LINE
  5
195
330
1E
100
AcDbEntity
  8
0
  6
CONTINUOUS
 62
     7
100
AcDbLine
 10
40.8
 20
114.8819
 30
0.0
 11
41.0102
 21
114.6716999999999
 31
0.0
  0
LINE
  5
196
330
1E
100
AcDbEntity
  8
0
  6
CONTINUOUS
 62
     7
100
AcDbLine
 10
41.0102
 20
114.6716999999999
 30
0.0
 11
41.25
 21
114.4319
 31
0.0
  0
LINE
  5
197
330
1E
100
AcDbEntity
  8
0
  6
CONTINUOUS
 62
     7
100
AcDbLine
 10
35.7
 20
114.8819
 30
0.0
 11
36.4963
 21
114.8819
 31
0.0
  0
LINE
  5
198
330
1E
100
AcDbEntity
  8
0
  6
CONTINUOUS
 62
     7
100
AcDbLine
 10
36.4963
 20
114.8819
 30
0.0
 11
41.22444999999999
 21
114.8819
 31
0.0
  0
LINE
  5
199
330
1E
100
AcDbEntity
  8
0
  6
CONTINUOUS
 62
     1
100
AcDbLine
 10
38.75
 20
68.53189999999999
 30
0.0
 11
38.75
 21
112.8319
 31
0.0
  0
LINE
  5
19A
330
1E
100
AcDbEntity
  8
0
  6
CONTINUOUS
 62
     1
100
AcDbLine
 10
37.4
 20
70.1319
 30
0.0
 11
37.4
 21
94.88190000000001
 31
0.0
  0
LINE
  5
19B
330
1E
100
AcDbEntity
  8
0
  6
CONTINUOUS
 62
     1
100
AcDbLine
 10
40.49999999999999
 20
67.03189999999999
 30
0.0
 11
57.75
 21
67.03189999999999
 31
0.0
  0
POINT
  5
19C
330
1E
100
AcDbEntity
  8
0
  6
CONTINUOUS
 62
     7
100
AcDbPoint
 10
39.2
 20
112.3819
 30
0.0
  0
POINT
  5
19D
330
1E
100
AcDbEntity
  8
0
  6
CONTINUOUS
 62
     7
100
AcDbPoint
 10
37.85
 20
84.1374
 30
0.0
  0
POINT
  5
19E
330
1E
100
AcDbEntity
  8
0
  6
CONTINUOUS
 62
     1
100
AcDbPoint
 10
38.1647
 20
69.24625
 30
0.0
  0
LINE
  5
19F
330
1E
100
AcDbEntity
  8
0
  6
CONTINUOUS
 62
     7
100
AcDbLine
 10
17.75
 20
64.8819
 30
0.0
 11
17.75
 21
67.0347
 31
0.0
  0
LINE
  5
1A0
330
1E
100
AcDbEntity
  8
0
  6
CONTINUOUS
 62
     7
100
AcDbLine
 10
34.25
 20
67.0347
 30
0.0
 11
16.95
 21
67.0347
 31
0.0
  0
LINE
  5
1A1
330
1E
100
AcDbEntity
  8
0
  6
CONTINUOUS
 62
     7
100
AcDbLine
 10
34.25
 20
64.8819
 30
0.0
 11
16.95
 21
64.8819
 31
0.0
  0
LINE
  5
1A2
330
1E
100
AcDbEntity
  8
0
  6
CONTINUOUS
 62
     7
100
AcDbLine
 10
17.75
 20
69.43470000000001
 30
0.0
 11
17.75
 21
67.0347
 31
0.0
  0
LINE
  5
1A3
330
1E
100
AcDbEntity
  8
0
  6
CONTINUOUS
 62
     7
100
AcDbLine
 10
17.42846
 20
68.23399999999999
 30
0.0
 11
17.75
 21
67.03400000000001
 31
0.0
  0
LINE
  5
1A4
330
1E
100
AcDbEntity
  8
0
  6
CONTINUOUS
 62
     7
100
AcDbLine
 10
17.75
 20
67.03400000000001
 30
0.0
 11
18.07152999999998
 21
68.23399999999999
 31
0.0
  0
LINE
  5
1A5
330
1E
100
AcDbEntity
  8
0
  6
CONTINUOUS
 62
     7
100
AcDbLine
 10
17.75
 20
64.8819
 30
0.0
 11
17.75
 21
62.48190000000001
 31
0.0
  0
LINE
  5
1A6
330
1E
100
AcDbEntity
  8
0
  6
CONTINUOUS
 62
     7
100
AcDbLine
 10
18.07152999999998
 20
63.681
 30
0.0
 11
17.75
 21
64.881
 31
0.0
  0
LINE
  5
1A7
330
1E
100
AcDbEntity
  8
0
  6
CONTINUOUS
 62
     7
100
AcDbLine
 10
17.75
 20
64.881
 30
0.0
 11
17.42846
 21
63.681
 31
0.0
  0
LINE
  5
1A8
330
1E
100
AcDbEntity
  8
0
  6
CONTINUOUS
 62
     7
100
AcDbLine
 10
17.75
 20
62.48190000000001
 30
0.0
 11
17.75
 21
57.0819
 31
0.0
  0
TEXT
  5
1A9
330
1E
100
AcDbEntity
  8
0
  6
CONTINUOUS
 62
     7
100
AcDbText
 10
17.35
 20
57.0819
 30
0.0
 40
3.2
  1
45
 50
90.0
 41
0.8125
  7
BIGFONT
100
AcDbText
  0
LINE
  5
1AA
330
1E
100
AcDbEntity
  8
0
  6
CONTINUOUS
 62
     7
100
AcDbLine
 10
17.75
 20
67.0347
 30
0.0
 11
17.75
 21
112.3819
 31
0.0
  0
LINE
  5
1AB
330
1E
100
AcDbEntity
  8
0
  6
CONTINUOUS
 62
     7
100
AcDbLine
 10
34.25
 20
112.3819
 30
0.0
 11
16.95
 21
112.3819
 31
0.0
  0
LINE
  5
1AC
330
1E
100
AcDbEntity
  8
0
  6
CONTINUOUS
 62
     7
100
AcDbLine
 10
18.07152999999998
 20
111.1809999999999
 30
0.0
 11
17.75
 21
112.3809999999999
 31
0.0
  0
LINE
  5
1AD
330
1E
100
AcDbEntity
  8
0
  6
CONTINUOUS
 62
     7
100
AcDbLine
 10
17.75
 20
112.3809999999999
 30
0.0
 11
17.42846
 21
111.1809999999999
 31
0.0
  0
LINE
  5
1AE
330
1E
100
AcDbEntity
  8
0
  6
CONTINUOUS
 62
     7
100
AcDbLine
 10
17.42846
 20
68.23399999999999
 30
0.0
 11
17.75
 21
67.03400000000001
 31
0.0
  0
LINE
  5
1AF
330
1E
100
AcDbEntity
  8
0
  6
CONTINUOUS
 62
     7
100
AcDbLine
 10
17.75
 20
67.03400000000001
 30
0.0
 11
18.07152999999998
 21
68.23399999999999
 31
0.0
  0
TEXT
  5
1B0
330
1E
100
AcDbEntity
  8
0
  6
CONTINUOUS
 62
     7
100
AcDbText
 10
17.35
 20
85.8083
 30
0.0
 40
3.2
  1
905
 50
90.0
 41
0.8125
  7
BIGFONT
100
AcDbText
  0
LINE
  5
1B1
330
1E
100
AcDbEntity
  8
0
  6
CONTINUOUS
 62
     7
100
AcDbLine
 10
17.75
 20
112.3819
 30
0.0
 11
17.75
 21
114.8819
 31
0.0
  0
LINE
  5
1B2
330
1E
100
AcDbEntity
  8
0
  6
CONTINUOUS
 62
     7
100
AcDbLine
 10
34.25
 20
114.8819
 30
0.0
 11
16.95
 21
114.8819
 31
0.0
  0
LINE
  5
1B3
330
1E
100
AcDbEntity
  8
0
  6
CONTINUOUS
 62
     7
100
AcDbLine
 10
17.75
 20
117.2819
 30
0.0
 11
17.75
 21
114.8819
 31
0.0
  0
LINE
  5
1B4
330
1E
100
AcDbEntity
  8
0
  6
CONTINUOUS
 62
     7
100
AcDbLine
 10
17.42846
 20
116.081
 30
0.0
 11
17.75
 21
114.881
 31
0.0
  0
LINE
  5
1B5
330
1E
100
AcDbEntity
  8
0
  6
CONTINUOUS
 62
     7
100
AcDbLine
 10
17.75
 20
114.881
 30
0.0
 11
18.07152999999998
 21
116.081
 31
0.0
  0
LINE
  5
1B6
330
1E
100
AcDbEntity
  8
0
  6
CONTINUOUS
 62
     7
100
AcDbLine
 10
17.75
 20
112.3819
 30
0.0
 11
17.75
 21
109.9818999999999
 31
0.0
  0
LINE
  5
1B7
330
1E
100
AcDbEntity
  8
0
  6
CONTINUOUS
 62
     7
100
AcDbLine
 10
18.07152999999998
 20
111.1809999999999
 30
0.0
 11
17.75
 21
112.3809999999999
 31
0.0
  0
LINE
  5
1B8
330
1E
100
AcDbEntity
  8
0
  6
CONTINUOUS
 62
     7
100
AcDbLine
 10
17.75
 20
112.3809999999999
 30
0.0
 11
17.42846
 21
111.1809999999999
 31
0.0
  0
LINE
  5
1B9
330
1E
100
AcDbEntity
  8
0
  6
CONTINUOUS
 62
     7
100
AcDbLine
 10
17.75
 20
117.2819
 30
0.0
 11
17.75
 21
122.6819
 31
0.0
  0
TEXT
  5
1BA
330
1E
100
AcDbEntity
  8
0
  6
CONTINUOUS
 62
     7
100
AcDbText
 10
17.35
 20
117.4819
 30
0.0
 40
3.2
  1
50
 50
90.0
 41
0.8125
  7
BIGFONT
100
AcDbText
  0
LINE
  5
1BB
330
1E
100
AcDbEntity
  8
0
  6
CONTINUOUS
 62
     7
100
AcDbLine
 10
35.25
 20
39.88215
 30
0.0
 11
72.75
 21
39.88215
 31
0.0
  0
LINE
  5
1BC
330
1E
100
AcDbEntity
  8
0
  6
CONTINUOUS
 62
     7
100
AcDbLine
 10
72.75
 20
63.8819
 30
0.0
 11
72.75
 21
39.08215
 31
0.0
  0
LINE
  5
1BD
330
1E
100
AcDbEntity
  8
0
  6
CONTINUOUS
 62
     7
100
AcDbLine
 10
35.25
 20
63.8819
 30
0.0
 11
35.25
 21
39.08215
 31
0.0
  0
LINE
  5
1BE
330
1E
100
AcDbEntity
  8
0
  6
CONTINUOUS
 62
     7
100
AcDbLine
 10
71.55
 20
39.56046
 30
0.0
 11
72.75
 21
39.88199999999999
 31
0.0
  0
LINE
  5
1BF
330
1E
100
AcDbEntity
  8
0
  6
CONTINUOUS
 62
     7
100
AcDbLine
 10
72.75
 20
39.88199999999999
 30
0.0
 11
71.55
 21
40.20353
 31
0.0
  0
LINE
  5
1C0
330
1E
100
AcDbEntity
  8
0
  6
CONTINUOUS
 62
     7
100
AcDbLine
 10
36.45
 20
40.20353
 30
0.0
 11
35.25
 21
39.88199999999999
 31
0.0
  0
LINE
  5
1C1
330
1E
100
AcDbEntity
  8
0
  6
CONTINUOUS
 62
     7
100
AcDbLine
 10
35.25
 20
39.88199999999999
 30
0.0
 11
36.45
 21
39.56046
 31
0.0
  0
TEXT
  5
1C2
330
1E
100
AcDbEntity
  8
0
  6
CONTINUOUS
 62
     7
100
AcDbText
 10
50.1
 20
40.28215
 30
0.0
 40
3.2
  1
750
 41
0.8125
  7
BIGFONT
100
AcDbText
  0
LINE
  5
1C3
330
1E
100
AcDbEntity
  8
0
  6
CONTINUOUS
 62
     7
100
AcDbLine
 10
35.25
 20
47.3819
 30
0.0
 11
37.3915
 21
47.3819
 31
0.0
  0
LINE
  5
1C4
330
1E
100
AcDbEntity
  8
0
  6
CONTINUOUS
 62
     7
100
AcDbLine
 10
37.3915
 20
63.8819
 30
0.0
 11
37.3915
 21
46.5819
 31
0.0
  0
LINE
  5
1C5
330
1E
100
AcDbEntity
  8
0
  6
CONTINUOUS
 62
     7
100
AcDbLine
 10
35.25
 20
48.8784
 30
0.0
 11
35.25
 21
46.5819
 31
0.0
  0
LINE
  5
1C6
330
1E
100
AcDbEntity
  8
0
  6
CONTINUOUS
 62
     7
100
AcDbLine
 10
39.7915
 20
47.3819
 30
0.0
 11
37.3915
 21
47.3819
 31
0.0
  0
LINE
  5
1C7
330
1E
100
AcDbEntity
  8
0
  6
CONTINUOUS
 62
     7
100
AcDbLine
 10
38.591
 20
47.70252999999999
 30
0.0
 11
37.391
 21
47.381
 31
0.0
  0
LINE
  5
1C8
330
1E
100
AcDbEntity
  8
0
  6
CONTINUOUS
 62
     7
100
AcDbLine
 10
37.391
 20
47.381
 30
0.0
 11
38.591
 21
47.05945999999999
 31
0.0
  0
LINE
  5
1C9
330
1E
100
AcDbEntity
  8
0
  6
CONTINUOUS
 62
     7
100
AcDbLine
 10
35.25
 20
47.3819
 30
0.0
 11
32.85
 21
47.3819
 31
0.0
  0
LINE
  5
1CA
330
1E
100
AcDbEntity
  8
0
  6
CONTINUOUS
 62
     7
100
AcDbLine
 10
34.04999999999999
 20
47.05945999999999
 30
0.0
 11
35.25
 21
47.381
 31
0.0
  0
LINE
  5
1CB
330
1E
100
AcDbEntity
  8
0
  6
CONTINUOUS
 62
     7
100
AcDbLine
 10
35.25
 20
47.381
 30
0.0
 11
34.04999999999999
 21
47.70252999999999
 31
0.0
  0
LINE
  5
1CC
330
1E
100
AcDbEntity
  8
0
  6
CONTINUOUS
 62
     7
100
AcDbLine
 10
32.85
 20
47.3819
 30
0.0
 11
27.45
 21
47.3819
 31
0.0
  0
TEXT
  5
1CD
330
1E
100
AcDbEntity
  8
0
  6
CONTINUOUS
 62
     7
100
AcDbText
 10
27.45
 20
47.7819
 30
0.0
 40
3.2
  1
45
 41
0.8125
  7
BIGFONT
100
AcDbText
  0
LINE
  5
1CE
330
1E
100
AcDbEntity
  8
0
  6
CONTINUOUS
 62
     7
100
AcDbLine
 10
37.3915
 20
47.3819
 30
0.0
 11
72.75
 21
47.3819
 31
0.0
  0
LINE
  5
1CF
330
1E
100
AcDbEntity
  8
0
  6
CONTINUOUS
 62
     7
100
AcDbLine
 10
72.75
 20
49.86965
 30
0.0
 11
72.75
 21
46.5819
 31
0.0
  0
LINE
  5
1D0
330
1E
100
AcDbEntity
  8
0
  6
CONTINUOUS
 62
     7
100
AcDbLine
 10
71.55
 20
47.05945999999999
 30
0.0
 11
72.75
 21
47.381
 31
0.0
  0
LINE
  5
1D1
330
1E
100
AcDbEntity
  8
0
  6
CONTINUOUS
 62
     7
100
AcDbLine
 10
72.75
 20
47.381
 30
0.0
 11
71.55
 21
47.70252999999999
 31
0.0
  0
LINE
  5
1D2
330
1E
100
AcDbEntity
  8
0
  6
CONTINUOUS
 62
     7
100
AcDbLine
 10
38.591
 20
47.70252999999999
 30
0.0
 11
37.391
 21
47.381
 31
0.0
  0
LINE
  5
1D3
330
1E
100
AcDbEntity
  8
0
  6
CONTINUOUS
 62
     7
100
AcDbLine
 10
37.391
 20
47.381
 30
0.0
 11
38.591
 21
47.05945999999999
 31
0.0
  0
TEXT
  5
1D4
330
1E
100
AcDbEntity
  8
0
  6
CONTINUOUS
 62
     7
100
AcDbText
 10
51.17074999999999
 20
47.7819
 30
0.0
 40
3.2
  1
705
 41
0.8125
  7
BIGFONT
100
AcDbText
  0
LINE
  5
1D5
330
1E
100
AcDbEntity
  8
0
  6
CONTINUOUS
 62
     7
100
AcDbLine
 10
0.24065
 20
68.6319
 30
0.0
 11
14.05829999999999
 21
68.6319
 31
0.0
  0
LINE
  5
1D6
330
1E
100
AcDbEntity
  8
0
  6
CONTINUOUS
 62
     7
100
AcDbLine
 10
5.237149999999997
 20
67.8258
 30
0.0
 11
14.0111
 21
67.8258
 31
0.0
  0
LINE
  5
1D7
330
1E
100
AcDbEntity
  8
0
  6
CONTINUOUS
 62
     7
100
AcDbLine
 10
86.49984999999999
 20
68.6319
 30
0.0
 11
100.3174999999999
 21
68.6319
 31
0.0
  0
LINE
  5
1D8
330
1E
100
AcDbEntity
  8
0
  6
CONTINUOUS
 62
     7
100
AcDbLine
 10
86.54329999999999
 20
67.8408
 30
0.0
 11
95.31724999999999
 21
67.8408
 31
0.0
  0
TEXT
  5
1D9
330
1E
100
AcDbEntity
  8
0
  6
CONTINUOUS
 62
     7
100
AcDbText
 10
93.74540000000001
 20
58.2623
 30
0.0
 40
4.2
  1
Ｃ
 41
0.8333332999999999
  7
BIGFONT
100
AcDbText
  0
TEXT
  5
1DA
330
1E
100
AcDbEntity
  8
0
  6
CONTINUOUS
 62
     7
100
AcDbText
 10
98.8709
 20
58.25095000000001
 30
0.0
 40
4.2
  1
Ｄ
 41
0.8333332999999999
  7
BIGFONT
100
AcDbText
  0
TEXT
  5
1DB
330
1E
100
AcDbEntity
  8
0
  6
CONTINUOUS
 62
     7
100
AcDbText
 10
-1.105999999999998
 20
58.39285
 30
0.0
 40
4.2
  1
Ｄ
 41
0.8333332999999999
  7
BIGFONT
100
AcDbText
  0
TEXT
  5
1DC
330
1E
100
AcDbEntity
  8
0
  6
CONTINUOUS
 62
     7
100
AcDbText
 10
3.578149999999998
 20
58.38174999999999
 30
0.0
 40
4.2
  1
Ｃ
 41
0.8333332999999999
  7
BIGFONT
100
AcDbText
  0
TEXT
  5
1DD
330
1E
100
AcDbEntity
  8
0
  6
CONTINUOUS
 62
     7
100
AcDbText
 10
28.02535
 20
25.3581
 30
0.0
 40
4.2
  1
Ａ
 41
0.8333332999999999
  7
BIGFONT
100
AcDbText
  0
TEXT
  5
1DE
330
1E
100
AcDbEntity
  8
0
  6
CONTINUOUS
 62
     7
100
AcDbText
 10
28.263
 20
130.5082999999999
 30
0.0
 40
4.2
  1
Ｂ
 41
0.8333332999999999
  7
BIGFONT
100
AcDbText
  0
TEXT
  5
1DF
330
1E
100
AcDbEntity
  8
0
  6
CONTINUOUS
 62
     7
100
AcDbText
 10
28.0496
 20
125.2358499999999
 30
0.0
 40
4.2
  1
Ａ
 41
0.8333332999999999
  7
BIGFONT
100
AcDbText
  0
LINE
  5
1E0
330
1E
100
AcDbEntity
  8
0
  6
CONTINUOUS
 62
     7
100
AcDbLine
 10
38.61265
 20
118.6319
 30
0.0
 11
38.61265
 21
132.9122999999997
 31
0.0
  0
LINE
  5
1E1
330
1E
100
AcDbEntity
  8
0
  6
CONTINUOUS
 62
     7
100
AcDbLine
 10
37.4379
 20
118.6319
 30
0.0
 11
37.4379
 21
127.4047499999999
 31
0.0
  0
LINE
  5
1E2
330
1E
100
AcDbEntity
  8
0
  6
CONTINUOUS
 62
     7
100
AcDbLine
 10
38.61265
 20
21.87685
 30
0.0
 11
38.61265
 21
36.15724999999999
 31
0.0
  0
LINE
  5
1E3
330
1E
100
AcDbEntity
  8
0
  6
CONTINUOUS
 62
     7
100
AcDbLine
 10
37.4379
 20
27.3758
 30
0.0
 11
37.4379
 21
36.14865
 31
0.0
  0
TEXT
  5
1E4
330
1E
100
AcDbEntity
  8
0
  6
CONTINUOUS
 62
     7
100
AcDbText
 10
28.20745
 20
19.5399
 30
0.0
 40
4.2
  1
Ｂ
 41
0.8333332999999999
  7
BIGFONT
100
AcDbText
  0
LINE
  5
1E5
330
1E
100
AcDbEntity
  8
0
  6
CONTINUOUS
 62
     7
100
AcDbLine
 10
100.3174999999999
 20
68.6319
 30
0.0
 11
100.3157499999999
 21
63.60575
 31
0.0
  0
LINE
  5
1E6
330
1E
100
AcDbEntity
  8
0
  6
CONTINUOUS
 62
     7
100
AcDbLine
 10
99.99387
 20
64.80510999999999
 30
0.0
 11
100.3149999999999
 21
63.605
 31
0.0
  0
LINE
  5
1E7
330
1E
100
AcDbEntity
  8
0
  6
CONTINUOUS
 62
     7
100
AcDbLine
 10
100.3149999999999
 20
63.605
 30
0.0
 11
100.6369499999999
 21
64.80488000000001
 31
0.0
  0
LINE
  5
1E8
330
1E
100
AcDbEntity
  8
0
  6
CONTINUOUS
 62
     7
100
AcDbLine
 10
95.31724999999999
 20
67.8408
 30
0.0
 11
95.31724999999999
 21
63.60575
 31
0.0
  0
LINE
  5
1E9
330
1E
100
AcDbEntity
  8
0
  6
CONTINUOUS
 62
     7
100
AcDbLine
 10
94.99546
 20
64.80500000000001
 30
0.0
 11
95.31699999999998
 21
63.605
 31
0.0
  0
LINE
  5
1EA
330
1E
100
AcDbEntity
  8
0
  6
CONTINUOUS
 62
     7
100
AcDbLine
 10
95.31699999999998
 20
63.605
 30
0.0
 11
95.63852999999999
 21
64.80500000000001
 31
0.0
  0
LINE
  5
1EB
330
1E
100
AcDbEntity
  8
0
  6
CONTINUOUS
 62
     7
100
AcDbLine
 10
5.237149999999997
 20
67.8258
 30
0.0
 11
5.237149999999997
 21
63.59075
 31
0.0
  0
LINE
  5
1EC
330
1E
100
AcDbEntity
  8
0
  6
CONTINUOUS
 62
     7
100
AcDbLine
 10
4.915459999999998
 20
64.79
 30
0.0
 11
5.237
 21
63.59
 31
0.0
  0
LINE
  5
1ED
330
1E
100
AcDbEntity
  8
0
  6
CONTINUOUS
 62
     7
100
AcDbLine
 10
5.237
 20
63.59
 30
0.0
 11
5.55853
 21
64.79
 31
0.0
  0
LINE
  5
1EE
330
1E
100
AcDbEntity
  8
0
  6
CONTINUOUS
 62
     7
100
AcDbLine
 10
0.24065
 20
68.6319
 30
0.0
 11
0.2378
 21
63.59075
 31
0.0
  0
LINE
  5
1EF
330
1E
100
AcDbEntity
  8
0
  6
CONTINUOUS
 62
     7
100
AcDbLine
 10
-0.08386
 20
64.79018
 30
0.0
 11
0.237
 21
63.59
 31
0.0
  0
LINE
  5
1F0
330
1E
100
AcDbEntity
  8
0
  6
CONTINUOUS
 62
     7
100
AcDbLine
 10
0.237
 20
63.59
 30
0.0
 11
0.5592100000000002
 21
64.78981
 31
0.0
  0
LINE
  5
1F1
330
1E
100
AcDbEntity
  8
0
  6
CONTINUOUS
 62
     7
100
AcDbLine
 10
38.61265
 20
132.9122999999997
 30
0.0
 11
32.5324
 21
132.9220999999999
 31
0.0
  0
LINE
  5
1F2
330
1E
100
AcDbEntity
  8
0
  6
CONTINUOUS
 62
     7
100
AcDbLine
 10
33.73250999999999
 20
133.2416
 30
0.0
 11
32.53199999999999
 21
132.922
 31
0.0
  0
LINE
  5
1F3
330
1E
100
AcDbEntity
  8
0
  6
CONTINUOUS
 62
     7
100
AcDbLine
 10
32.53199999999999
 20
132.922
 30
0.0
 11
33.73148
 21
132.59852
 31
0.0
  0
LINE
  5
1F4
330
1E
100
AcDbEntity
  8
0
  6
CONTINUOUS
 62
     7
100
AcDbLine
 10
37.4379
 20
127.4047499999999
 30
0.0
 11
32.5324
 21
127.41955
 31
0.0
  0
LINE
  5
1F5
330
1E
100
AcDbEntity
  8
0
  6
CONTINUOUS
 62
     7
100
AcDbLine
 10
33.73295999999999
 20
127.73691
 30
0.0
 11
32.53199999999999
 21
127.4189999999999
 31
0.0
  0
LINE
  5
1F6
330
1E
100
AcDbEntity
  8
0
  6
CONTINUOUS
 62
     7
100
AcDbLine
 10
32.53199999999999
 20
127.4189999999999
 30
0.0
 11
33.73102
 21
127.0938399999999
 31
0.0
  0
LINE
  5
1F7
330
1E
100
AcDbEntity
  8
0
  6
CONTINUOUS
 62
     7
100
AcDbLine
 10
37.4379
 20
27.3758
 30
0.0
 11
32.5324
 21
27.3758
 31
0.0
  0
LINE
  5
1F8
330
1E
100
AcDbEntity
  8
0
  6
CONTINUOUS
 62
     7
100
AcDbLine
 10
33.732
 20
27.69652999999999
 30
0.0
 11
32.53199999999999
 21
27.375
 31
0.0
  0
LINE
  5
1F9
330
1E
100
AcDbEntity
  8
0
  6
CONTINUOUS
 62
     7
100
AcDbLine
 10
32.53199999999999
 20
27.375
 30
0.0
 11
33.732
 21
27.05346
 31
0.0
  0
LINE
  5
1FA
330
1E
100
AcDbEntity
  8
0
  6
CONTINUOUS
 62
     7
100
AcDbLine
 10
38.61265
 20
21.87685
 30
0.0
 11
32.5324
 21
21.87685
 31
0.0
  0
LINE
  5
1FB
330
1E
100
AcDbEntity
  8
0
  6
CONTINUOUS
 62
     7
100
AcDbLine
 10
33.732
 20
22.19753
 30
0.0
 11
32.53199999999999
 21
21.87599999999999
 31
0.0
  0
LINE
  5
1FC
330
1E
100
AcDbEntity
  8
0
  6
CONTINUOUS
 62
     7
100
AcDbLine
 10
32.53199999999999
 20
21.87599999999999
 30
0.0
 11
33.732
 21
21.55445999999999
 31
0.0
  0
LINE
  5
1FD
330
1E
100
AcDbEntity
  8
0
  6
CONTINUOUS
 62
     7
100
AcDbLine
 10
43.75
 20
70.8819
 30
0.0
 11
72.75
 21
70.8819
 31
0.0
  0
LINE
  5
1FE
330
1E
100
AcDbEntity
  8
0
  6
CONTINUOUS
 62
     7
100
AcDbLine
 10
35.25
 20
64.8819
 30
0.0
 11
72.75
 21
64.8819
 31
0.0
  0
LINE
  5
1FF
330
1E
100
AcDbEntity
  8
0
  6
CONTINUOUS
 62
     7
100
AcDbLine
 10
-212.4845
 20
39.8819
 30
0.0
 11
-164.9845
 21
39.8819
 31
0.0
  0
LINE
  5
200
330
1E
100
AcDbEntity
  8
0
  6
CONTINUOUS
 62
     7
100
AcDbLine
 10
-164.9845
 20
63.8819
 30
0.0
 11
-164.9845
 21
39.08189999999999
 31
0.0
  0
LINE
  5
201
330
1E
100
AcDbEntity
  8
0
  6
CONTINUOUS
 62
     7
100
AcDbLine
 10
-212.4845
 20
63.8819
 30
0.0
 11
-212.4845
 21
39.08189999999999
 31
0.0
  0
LINE
  5
202
330
1E
100
AcDbEntity
  8
0
  6
CONTINUOUS
 62
     7
100
AcDbLine
 10
-166.1839999999999
 20
39.55945999999999
 30
0.0
 11
-164.984
 21
39.881
 31
0.0
  0
LINE
  5
203
330
1E
100
AcDbEntity
  8
0
  6
CONTINUOUS
 62
     7
100
AcDbLine
 10
-164.984
 20
39.881
 30
0.0
 11
-166.1839999999999
 21
40.20252999999999
 31
0.0
  0
LINE
  5
204
330
1E
100
AcDbEntity
  8
0
  6
CONTINUOUS
 62
     7
100
AcDbLine
 10
-211.2839999999999
 20
40.20252999999999
 30
0.0
 11
-212.484
 21
39.881
 31
0.0
  0
LINE
  5
205
330
1E
100
AcDbEntity
  8
0
  6
CONTINUOUS
 62
     7
100
AcDbLine
 10
-212.484
 20
39.881
 30
0.0
 11
-211.2839999999999
 21
39.55945999999999
 31
0.0
  0
TEXT
  5
206
330
1E
100
AcDbEntity
  8
0
  6
CONTINUOUS
 62
     7
100
AcDbText
 10
-192.6344999999999
 20
40.2819
 30
0.0
 40
3.2
  1
950
 41
0.8125
  7
BIGFONT
100
AcDbText
  0
LINE
  5
207
330
1E
100
AcDbEntity
  8
0
  6
CONTINUOUS
 62
     7
100
AcDbLine
 10
-93.625
 20
39.8819
 30
0.0
 11
-46.12499999999999
 21
39.8819
 31
0.0
  0
LINE
  5
208
330
1E
100
AcDbEntity
  8
0
  6
CONTINUOUS
 62
     7
100
AcDbLine
 10
-46.12499999999999
 20
63.8819
 30
0.0
 11
-46.12499999999999
 21
39.08189999999999
 31
0.0
  0
LINE
  5
209
330
1E
100
AcDbEntity
  8
0
  6
CONTINUOUS
 62
     7
100
AcDbLine
 10
-93.625
 20
63.8819
 30
0.0
 11
-93.625
 21
39.08189999999999
 31
0.0
  0
LINE
  5
20A
330
1E
100
AcDbEntity
  8
0
  6
CONTINUOUS
 62
     7
100
AcDbLine
 10
-47.325
 20
39.55945999999999
 30
0.0
 11
-46.12499999999999
 21
39.881
 31
0.0
  0
LINE
  5
20B
330
1E
100
AcDbEntity
  8
0
  6
CONTINUOUS
 62
     7
100
AcDbLine
 10
-46.12499999999999
 20
39.881
 30
0.0
 11
-47.325
 21
40.20252999999999
 31
0.0
  0
LINE
  5
20C
330
1E
100
AcDbEntity
  8
0
  6
CONTINUOUS
 62
     7
100
AcDbLine
 10
-92.42499999999999
 20
40.20252999999999
 30
0.0
 11
-93.625
 21
39.881
 31
0.0
  0
LINE
  5
20D
330
1E
100
AcDbEntity
  8
0
  6
CONTINUOUS
 62
     7
100
AcDbLine
 10
-93.625
 20
39.881
 30
0.0
 11
-92.42499999999999
 21
39.55945999999999
 31
0.0
  0
TEXT
  5
20E
330
1E
100
AcDbEntity
  8
0
  6
CONTINUOUS
 62
     7
100
AcDbText
 10
-73.77500000000002
 20
40.2819
 30
0.0
 40
3.2
  1
950
 41
0.8125
  7
BIGFONT
100
AcDbText
  0
LINE
  5
20F
330
1E
100
AcDbEntity
  8
0
  6
CONTINUOUS
 62
     7
100
AcDbLine
 10
-93.625
 20
-31.55155
 30
0.0
 11
-46.12499999999999
 21
-31.55155
 31
0.0
  0
LINE
  5
210
330
1E
100
AcDbEntity
  8
0
  6
CONTINUOUS
 62
     7
100
AcDbLine
 10
-93.625
 20
-79.05155
 30
0.0
 11
-93.625
 21
-31.55155
 31
0.0
  0
LINE
  5
211
330
1E
100
AcDbEntity
  8
0
  6
CONTINUOUS
 62
     7
100
AcDbLine
 10
-212.4845
 20
-31.55155
 30
0.0
 11
-164.9845
 21
-31.55155
 31
0.0
  0
LINE
  5
212
330
1E
100
AcDbEntity
  8
0
  6
CONTINUOUS
 62
     7
100
AcDbLine
 10
-212.4845
 20
-79.05155
 30
0.0
 11
-212.4845
 21
-31.55155
 31
0.0
  0
LINE
  5
213
330
1E
100
AcDbEntity
  8
0
  6
CONTINUOUS
 62
     1
100
AcDbLine
 10
-49.875
 20
67.0364
 30
0.0
 11
-49.875
 21
112.3819
 31
0.0
  0
LINE
  5
214
330
1E
100
AcDbEntity
  8
0
  6
CONTINUOUS
 62
     1
100
AcDbLine
 10
-91.125
 20
68.13639999999999
 30
0.0
 11
-49.875
 21
68.13639999999999
 31
0.0
  0
LINE
  5
215
330
1E
100
AcDbEntity
  8
0
  6
CONTINUOUS
 62
     1
100
AcDbLine
 10
-91.125
 20
112.3863999999999
 30
0.0
 11
-49.89135
 21
112.3863999999999
 31
0.0
  0
LINE
  5
216
330
1E
100
AcDbEntity
  8
0
  6
CONTINUOUS
 62
     1
100
AcDbLine
 10
-209.9839
 20
69.1364
 30
0.0
 11
-166.7339
 21
69.1364
 31
0.0
  0
LINE
  5
217
330
1E
100
AcDbEntity
  8
0
  6
CONTINUOUS
 62
     1
100
AcDbLine
 10
-209.9839
 20
84.13639999999999
 30
0.0
 11
-166.7339
 21
84.13639999999999
 31
0.0
  0
LINE
  5
218
330
1E
100
AcDbEntity
  8
0
  6
DASHED
 62
     1
100
AcDbLine
 10
-210.3345
 20
-76.05155
 30
0.0
 11
-199.5415
 21
-76.05155
 31
0.0
  0
LINE
  5
219
330
1E
100
AcDbEntity
  8
0
  6
DASHED
 62
     1
100
AcDbLine
 10
-167.9845
 20
-44.49454999999999
 30
0.0
 11
-167.9845
 21
-33.70155
 31
0.0
  0
POINT
  5
21A
330
1E
100
AcDbEntity
  8
0
  6
CONTINUOUS
 62
     7
100
AcDbPoint
 10
42.75
 20
67.49484999999999
 30
0.0
  0
LINE
  5
21B
330
1E
100
AcDbEntity
  8
0
  6
CONTINUOUS
 62
     1
100
AcDbLine
 10
-89.375
 20
-34.30155
 30
0.0
 11
-48.625
 21
-34.30155
 31
0.0
  0
LINE
  5
21C
330
1E
100
AcDbEntity
  8
0
  6
CONTINUOUS
 62
     1
100
AcDbLine
 10
-90.875
 20
-76.55155
 30
0.0
 11
-57.1605
 21
-76.55155
 31
0.0
  0
LINE
  5
21D
330
1E
100
AcDbEntity
  8
0
  6
CONTINUOUS
 62
     1
100
AcDbLine
 10
-90.875
 20
-76.55155
 30
0.0
 11
-90.875
 21
-35.80154999999999
 31
0.0
  0
ARC
  5
21E
330
1E
100
AcDbEntity
  8
0
  6
CONTINUOUS
 62
     1
100
AcDbCircle
 10
-89.375
 20
-35.80154999999999
 30
0.0
 40
1.5
100
AcDbArc
 50
90.0
 51
180.0
  0
LINE
  5
21F
330
1E
100
AcDbEntity
  8
0
  6
CONTINUOUS
 62
     1
100
AcDbLine
 10
38.9
 20
68.6319
 30
0.0
 11
71.7145
 21
68.6319
 31
0.0
  0
LINE
  5
220
330
1E
100
AcDbEntity
  8
0
  6
CONTINUOUS
 62
     7
100
AcDbLine
 10
72.75
 20
64.8819
 30
0.0
 11
72.75
 21
70.8819
 31
0.0
  0
POINT
  5
221
330
1E
100
AcDbEntity
  8
0
  6
CONTINUOUS
 62
     1
100
AcDbPoint
 10
67.75
 20
68.193
 30
0.0
  0
POINT
  5
222
330
1E
100
AcDbEntity
  8
0
  6
CONTINUOUS
 62
     7
100
AcDbPoint
 10
55.25
 20
68.19289999999999
 30
0.0
  0
CIRCLE
  5
223
330
1E
100
AcDbEntity
  8
0
  6
CONTINUOUS
 62
     7
100
AcDbCircle
 10
174.2499999999999
 20
98.3669
 30
0.0
 40
0.75
  0
LINE
  5
224
330
1E
100
AcDbEntity
  8
0
  6
CONTINUOUS
 62
     7
100
AcDbLine
 10
174.2499999999999
 20
96.36690000000001
 30
0.0
 11
174.2499999999999
 21
100.3668999999999
 31
0.0
  0
LINE
  5
225
330
1E
100
AcDbEntity
  8
0
  6
CONTINUOUS
 62
     7
100
AcDbLine
 10
172.25
 20
98.3669
 30
0.0
 11
176.25
 21
98.3669
 31
0.0
  0
LINE
  5
226
330
1E
100
AcDbEntity
  8
0
  6
CONTINUOUS
 62
     7
100
AcDbLine
 10
170.0
 20
87.57315
 30
0.0
 11
174.2499999999999
 21
87.57315
 31
0.0
  0
LINE
  5
227
330
1E
100
AcDbEntity
  8
0
  6
CONTINUOUS
 62
     7
100
AcDbLine
 10
174.2499999999999
 20
95.7458
 30
0.0
 11
174.2499999999999
 21
86.77315
 31
0.0
  0
LINE
  5
228
330
1E
100
AcDbEntity
  8
0
  6
CONTINUOUS
 62
     7
100
AcDbLine
 10
170.0
 20
94.49695
 30
0.0
 11
170.0
 21
86.77315
 31
0.0
  0
LINE
  5
229
330
1E
100
AcDbEntity
  8
0
  6
CONTINUOUS
 62
     7
100
AcDbLine
 10
176.65
 20
87.57315
 30
0.0
 11
174.2499999999999
 21
87.57315
 31
0.0
  0
LINE
  5
22A
330
1E
100
AcDbEntity
  8
0
  6
CONTINUOUS
 62
     7
100
AcDbLine
 10
175.4499999999999
 20
87.89452999999998
 30
0.0
 11
174.2499999999999
 21
87.57299999999998
 31
0.0
  0
LINE
  5
22B
330
1E
100
AcDbEntity
  8
0
  6
CONTINUOUS
 62
     7
100
AcDbLine
 10
174.2499999999999
 20
87.57299999999998
 30
0.0
 11
175.4499999999999
 21
87.25146
 31
0.0
  0
LINE
  5
22C
330
1E
100
AcDbEntity
  8
0
  6
CONTINUOUS
 62
     7
100
AcDbLine
 10
170.0
 20
87.57315
 30
0.0
 11
167.5999999999999
 21
87.57315
 31
0.0
  0
LINE
  5
22D
330
1E
100
AcDbEntity
  8
0
  6
CONTINUOUS
 62
     7
100
AcDbLine
 10
168.8
 20
87.25146
 30
0.0
 11
170.0
 21
87.57299999999998
 31
0.0
  0
LINE
  5
22E
330
1E
100
AcDbEntity
  8
0
  6
CONTINUOUS
 62
     7
100
AcDbLine
 10
170.0
 20
87.57299999999998
 30
0.0
 11
168.8
 21
87.89452999999998
 31
0.0
  0
LINE
  5
22F
330
1E
100
AcDbEntity
  8
0
  6
CONTINUOUS
 62
     7
100
AcDbLine
 10
167.5999999999999
 20
87.57315
 30
0.0
 11
164.02
 21
87.57315
 31
0.0
  0
TEXT
  5
230
330
1E
100
AcDbEntity
  8
0
  6
CONTINUOUS
 62
     7
100
AcDbText
 10
164.02
 20
87.97315000000002
 30
0.0
 40
3.2
  1
85
 41
0.8125
  7
BIGFONT
100
AcDbText
  0
LINE
  5
231
330
1E
100
AcDbEntity
  8
0
  6
CONTINUOUS
 62
     7
100
AcDbLine
 10
-93.625
 20
-14.05155
 30
0.0
 11
-46.12499999999999
 21
-14.05155
 31
0.0
  0
LINE
  5
232
330
1E
100
AcDbEntity
  8
0
  6
CONTINUOUS
 62
     7
100
AcDbLine
 10
-46.12499999999999
 20
-30.55155
 30
0.0
 11
-46.12499999999999
 21
-13.25155
 31
0.0
  0
LINE
  5
233
330
1E
100
AcDbEntity
  8
0
  6
CONTINUOUS
 62
     7
100
AcDbLine
 10
-93.625
 20
-30.55155
 30
0.0
 11
-93.625
 21
-13.25155
 31
0.0
  0
LINE
  5
234
330
1E
100
AcDbEntity
  8
0
  6
CONTINUOUS
 62
     7
100
AcDbLine
 10
-47.325
 20
-14.37253
 30
0.0
 11
-46.12499999999999
 21
-14.051
 31
0.0
  0
LINE
  5
235
330
1E
100
AcDbEntity
  8
0
  6
CONTINUOUS
 62
     7
100
AcDbLine
 10
-46.12499999999999
 20
-14.051
 30
0.0
 11
-47.325
 21
-13.72946
 31
0.0
  0
LINE
  5
236
330
1E
100
AcDbEntity
  8
0
  6
CONTINUOUS
 62
     7
100
AcDbLine
 10
-92.42499999999999
 20
-13.72946
 30
0.0
 11
-93.625
 21
-14.051
 31
0.0
  0
LINE
  5
237
330
1E
100
AcDbEntity
  8
0
  6
CONTINUOUS
 62
     7
100
AcDbLine
 10
-93.625
 20
-14.051
 30
0.0
 11
-92.42499999999999
 21
-14.37253
 31
0.0
  0
TEXT
  5
238
330
1E
100
AcDbEntity
  8
0
  6
CONTINUOUS
 62
     7
100
AcDbText
 10
-73.77500000000002
 20
-13.65155
 30
0.0
 40
3.2
  1
950
 41
0.8125
  7
BIGFONT
100
AcDbText
  0
LINE
  5
239
330
1E
100
AcDbEntity
  8
0
  6
CONTINUOUS
 62
     7
100
AcDbLine
 10
-212.4845
 20
-14.05155
 30
0.0
 11
-164.9845
 21
-14.05155
 31
0.0
  0
LINE
  5
23A
330
1E
100
AcDbEntity
  8
0
  6
CONTINUOUS
 62
     7
100
AcDbLine
 10
-164.9845
 20
-30.55155
 30
0.0
 11
-164.9845
 21
-13.25155
 31
0.0
  0
LINE
  5
23B
330
1E
100
AcDbEntity
  8
0
  6
CONTINUOUS
 62
     7
100
AcDbLine
 10
-212.4845
 20
-30.55155
 30
0.0
 11
-212.4845
 21
-13.25155
 31
0.0
  0
LINE
  5
23C
330
1E
100
AcDbEntity
  8
0
  6
CONTINUOUS
 62
     7
100
AcDbLine
 10
-166.1839999999999
 20
-14.37253
 30
0.0
 11
-164.984
 21
-14.051
 31
0.0
  0
LINE
  5
23D
330
1E
100
AcDbEntity
  8
0
  6
CONTINUOUS
 62
     7
100
AcDbLine
 10
-164.984
 20
-14.051
 30
0.0
 11
-166.1839999999999
 21
-13.72946
 31
0.0
  0
LINE
  5
23E
330
1E
100
AcDbEntity
  8
0
  6
CONTINUOUS
 62
     7
100
AcDbLine
 10
-211.2839999999999
 20
-13.72946
 30
0.0
 11
-212.484
 21
-14.051
 31
0.0
  0
LINE
  5
23F
330
1E
100
AcDbEntity
  8
0
  6
CONTINUOUS
 62
     7
100
AcDbLine
 10
-212.484
 20
-14.051
 30
0.0
 11
-211.2839999999999
 21
-14.37253
 31
0.0
  0
TEXT
  5
240
330
1E
100
AcDbEntity
  8
0
  6
CONTINUOUS
 62
     7
100
AcDbText
 10
-192.6344999999999
 20
-13.65155
 30
0.0
 40
3.2
  1
950
 41
0.8125
  7
BIGFONT
100
AcDbText
  0
LINE
  5
241
330
1E
100
AcDbEntity
  8
0
  6
CONTINUOUS
 62
     7
100
AcDbLine
 10
-197.4839
 20
89.29630000000001
 30
0.0
 11
-209.9839
 21
89.29630000000001
 31
0.0
  0
LINE
  5
242
330
1E
100
AcDbEntity
  8
0
  6
CONTINUOUS
 62
     7
100
AcDbLine
 10
-208.7829999999999
 20
89.61752999999999
 30
0.0
 11
-209.9829999999999
 21
89.296
 31
0.0
  0
LINE
  5
243
330
1E
100
AcDbEntity
  8
0
  6
CONTINUOUS
 62
     7
100
AcDbLine
 10
-209.9829999999999
 20
89.296
 30
0.0
 11
-208.7829999999999
 21
88.97446
 31
0.0
  0
LINE
  5
244
330
1E
100
AcDbEntity
  8
0
  6
CONTINUOUS
 62
     7
100
AcDbLine
 10
-202.9688999999999
 20
-89.06859999999998
 30
0.0
 11
-202.9688999999999
 21
-76.05155
 31
0.0
  0
LINE
  5
245
330
1E
100
AcDbEntity
  8
0
  6
CONTINUOUS
 62
     7
100
AcDbLine
 10
-202.64646
 20
-77.25100000000002
 30
0.0
 11
-202.9679999999999
 21
-76.051
 31
0.0
  0
LINE
  5
246
330
1E
100
AcDbEntity
  8
0
  6
CONTINUOUS
 62
     7
100
AcDbLine
 10
-202.9679999999999
 20
-76.051
 30
0.0
 11
-203.28953
 21
-77.25100000000002
 31
0.0
  0
LINE
  5
247
330
1E
100
AcDbEntity
  8
0
  6
CONTINUOUS
 62
     7
100
AcDbLine
 10
-195.71255
 20
-89.05155
 30
0.0
 11
-195.71255
 21
-76.55155
 31
0.0
  0
LINE
  5
248
330
1E
100
AcDbEntity
  8
0
  6
CONTINUOUS
 62
     7
100
AcDbLine
 10
-195.39046
 20
-77.75100000000001
 30
0.0
 11
-195.7119999999999
 21
-76.551
 31
0.0
  0
LINE
  5
249
330
1E
100
AcDbEntity
  8
0
  6
CONTINUOUS
 62
     7
100
AcDbLine
 10
-195.7119999999999
 20
-76.551
 30
0.0
 11
-196.03353
 21
-77.75100000000001
 31
0.0
  0
LINE
  5
24A
330
1E
100
AcDbEntity
  8
0
  6
CONTINUOUS
 62
     7
100
AcDbLine
 10
-202.9688999999999
 20
-76.08895
 30
0.0
 11
-202.9688999999999
 21
-63.56860000000001
 31
0.0
  0
LINE
  5
24B
330
1E
100
AcDbEntity
  8
0
  6
CONTINUOUS
 62
     7
100
AcDbLine
 10
-202.64646
 20
-64.768
 30
0.0
 11
-202.9679999999999
 21
-63.56799999999999
 31
0.0
  0
LINE
  5
24C
330
1E
100
AcDbEntity
  8
0
  6
CONTINUOUS
 62
     7
100
AcDbLine
 10
-202.9679999999999
 20
-63.56799999999999
 30
0.0
 11
-203.28953
 21
-64.768
 31
0.0
  0
LINE
  5
24D
330
1E
100
AcDbEntity
  8
0
  6
CONTINUOUS
 62
     7
100
AcDbLine
 10
-195.71255
 20
-76.5626
 30
0.0
 11
-195.71255
 21
-64.05155
 31
0.0
  0
LINE
  5
24E
330
1E
100
AcDbEntity
  8
0
  6
CONTINUOUS
 62
     7
100
AcDbLine
 10
-195.39046
 20
-65.25100000000001
 30
0.0
 11
-195.7119999999999
 21
-64.051
 31
0.0
  0
LINE
  5
24F
330
1E
100
AcDbEntity
  8
0
  6
CONTINUOUS
 62
     7
100
AcDbLine
 10
-195.7119999999999
 20
-64.051
 30
0.0
 11
-196.03353
 21
-65.25100000000001
 31
0.0
  0
LINE
  5
250
330
1E
100
AcDbEntity
  8
0
  6
CONTINUOUS
 62
     7
100
AcDbLine
 10
-167.4844999999999
 20
-48.71265
 30
0.0
 11
-179.9844999999999
 21
-48.71265
 31
0.0
  0
LINE
  5
251
330
1E
100
AcDbEntity
  8
0
  6
CONTINUOUS
 62
     7
100
AcDbLine
 10
-178.7839999999999
 20
-48.39045999999999
 30
0.0
 11
-179.984
 21
-48.71199999999999
 31
0.0
  0
LINE
  5
252
330
1E
100
AcDbEntity
  8
0
  6
CONTINUOUS
 62
     7
100
AcDbLine
 10
-179.984
 20
-48.71199999999999
 30
0.0
 11
-178.7839999999999
 21
-49.03353
 31
0.0
  0
LINE
  5
253
330
1E
100
AcDbEntity
  8
0
  6
CONTINUOUS
 62
     7
100
AcDbLine
 10
-153.24865
 20
-48.71265
 30
0.0
 11
-167.4844999999999
 21
-48.71265
 31
0.0
  0
LINE
  5
254
330
1E
100
AcDbEntity
  8
0
  6
CONTINUOUS
 62
     7
100
AcDbLine
 10
-166.2839999999999
 20
-48.39045999999999
 30
0.0
 11
-167.484
 21
-48.71199999999999
 31
0.0
  0
LINE
  5
255
330
1E
100
AcDbEntity
  8
0
  6
CONTINUOUS
 62
     7
100
AcDbLine
 10
-167.484
 20
-48.71199999999999
 30
0.0
 11
-166.2839999999999
 21
-49.03353
 31
0.0
  0
LINE
  5
256
330
1E
100
AcDbEntity
  8
0
  6
CONTINUOUS
 62
     7
100
AcDbLine
 10
-167.9845
 20
-41.16165
 30
0.0
 11
-180.4845
 21
-41.16165
 31
0.0
  0
LINE
  5
257
330
1E
100
AcDbEntity
  8
0
  6
CONTINUOUS
 62
     7
100
AcDbLine
 10
-179.2839999999999
 20
-40.83946
 30
0.0
 11
-180.484
 21
-41.161
 31
0.0
  0
LINE
  5
258
330
1E
100
AcDbEntity
  8
0
  6
CONTINUOUS
 62
     7
100
AcDbLine
 10
-180.484
 20
-41.161
 30
0.0
 11
-179.2839999999999
 21
-41.48252999999999
 31
0.0
  0
LINE
  5
259
330
1E
100
AcDbEntity
  8
0
  6
CONTINUOUS
 62
     7
100
AcDbLine
 10
-153.24865
 20
-41.16165
 30
0.0
 11
-167.9845
 21
-41.16165
 31
0.0
  0
LINE
  5
25A
330
1E
100
AcDbEntity
  8
0
  6
CONTINUOUS
 62
     7
100
AcDbLine
 10
-166.7839999999999
 20
-40.83946
 30
0.0
 11
-167.984
 21
-41.161
 31
0.0
  0
LINE
  5
25B
330
1E
100
AcDbEntity
  8
0
  6
CONTINUOUS
 62
     7
100
AcDbLine
 10
-167.984
 20
-41.161
 30
0.0
 11
-166.7839999999999
 21
-41.48252999999999
 31
0.0
  0
CIRCLE
  5
25C
330
1E
100
AcDbEntity
  8
0
  6
CONTINUOUS
 62
     7
100
AcDbCircle
 10
-36.8648
 20
91.46404999999999
 30
0.0
 40
2.5
  0
TEXT
  5
25D
330
1E
100
AcDbEntity
  8
0
  6
CONTINUOUS
 62
     7
100
AcDbText
 10
-35.1
 20
89.87579999999999
 30
0.0
 40
3.2
  1
１
 50
90.0
  7
BIGFONT
100
AcDbText
  0
TEXT
  5
25E
330
1E
100
AcDbEntity
  8
0
  6
CONTINUOUS
 62
     7
100
AcDbText
 10
-35.1006
 20
94.6874
 30
0.0
 40
3.2
  1
D10
 50
90.0
  7
BIGFONT
100
AcDbText
  0
LINE
  5
25F
330
1E
100
AcDbEntity
  8
0
  6
CONTINUOUS
 62
     7
100
AcDbLine
 10
-34.369
 20
87.88639999999999
 30
0.0
 11
-34.369
 21
102.8864
 31
0.0
  0
LINE
  5
260
330
1E
100
AcDbEntity
  8
0
  6
CONTINUOUS
 62
     7
100
AcDbLine
 10
-72.3508
 20
93.13639999999999
 30
0.0
 11
-72.3508
 21
80.63639999999997
 31
0.0
  0
LINE
  5
261
330
1E
100
AcDbEntity
  8
0
  6
CONTINUOUS
 62
     7
100
AcDbLine
 10
-72.67153
 20
81.836
 30
0.0
 11
-72.34999999999998
 21
80.63599999999999
 31
0.0
  0
LINE
  5
262
330
1E
100
AcDbEntity
  8
0
  6
CONTINUOUS
 62
     7
100
AcDbLine
 10
-72.34999999999998
 20
80.63599999999999
 30
0.0
 11
-72.02846
 21
81.836
 31
0.0
  0
LINE
  5
263
330
1E
100
AcDbEntity
  8
0
  6
CONTINUOUS
 62
     7
100
AcDbLine
 10
-78.625
 20
87.88639999999999
 30
0.0
 11
-91.125
 21
87.88639999999999
 31
0.0
  0
LINE
  5
264
330
1E
100
AcDbEntity
  8
0
  6
CONTINUOUS
 62
     7
100
AcDbLine
 10
-89.92499999999997
 20
88.20753000000001
 30
0.0
 11
-91.125
 21
87.886
 31
0.0
  0
LINE
  5
265
330
1E
100
AcDbEntity
  8
0
  6
CONTINUOUS
 62
     7
100
AcDbLine
 10
-91.125
 20
87.886
 30
0.0
 11
-89.92499999999997
 21
87.56446
 31
0.0
  0
LINE
  5
266
330
1E
100
AcDbEntity
  8
0
  6
CONTINUOUS
 62
     7
100
AcDbLine
 10
-66.125
 20
87.88639999999999
 30
0.0
 11
-78.63365
 21
87.88639999999999
 31
0.0
  0
LINE
  5
267
330
1E
100
AcDbEntity
  8
0
  6
CONTINUOUS
 62
     7
100
AcDbLine
 10
-77.43300000000002
 20
88.20753000000001
 30
0.0
 11
-78.63299999999998
 21
87.886
 31
0.0
  0
LINE
  5
268
330
1E
100
AcDbEntity
  8
0
  6
CONTINUOUS
 62
     7
100
AcDbLine
 10
-78.63299999999998
 20
87.886
 30
0.0
 11
-77.43300000000002
 21
87.56446
 31
0.0
  0
LINE
  5
269
330
1E
100
AcDbEntity
  8
0
  6
CONTINUOUS
 62
     7
100
AcDbLine
 10
-43.97895
 20
-81.0477
 30
0.0
 11
-52.8178
 21
-72.20884999999999
 31
0.0
  0
LINE
  5
26A
330
1E
100
AcDbEntity
  8
0
  6
CONTINUOUS
 62
     7
100
AcDbLine
 10
-51.7411
 20
-72.82916
 30
0.0
 11
-52.817
 21
-72.208
 31
0.0
  0
LINE
  5
26B
330
1E
100
AcDbEntity
  8
0
  6
CONTINUOUS
 62
     7
100
AcDbLine
 10
-52.817
 20
-72.208
 30
0.0
 11
-52.19583
 21
-73.28389
 31
0.0
  0
LINE
  5
26C
330
1E
100
AcDbEntity
  8
0
  6
CONTINUOUS
 62
     7
100
AcDbLine
 10
-190.56645
 20
84.13639999999999
 30
0.0
 11
-190.56645
 21
69.1364
 31
0.0
  0
LINE
  5
26D
330
1E
100
AcDbEntity
  8
0
  6
CONTINUOUS
 62
     7
100
AcDbLine
 10
-190.88753
 20
70.33599999999998
 30
0.0
 11
-190.5659999999999
 21
69.13599999999999
 31
0.0
  0
LINE
  5
26E
330
1E
100
AcDbEntity
  8
0
  6
CONTINUOUS
 62
     7
100
AcDbLine
 10
-190.5659999999999
 20
69.13599999999999
 30
0.0
 11
-190.24446
 21
70.33599999999998
 31
0.0
  0
LINE
  5
26F
330
1E
100
AcDbEntity
  8
0
  6
CONTINUOUS
 62
     7
100
AcDbLine
 10
-190.56645
 20
105.4026499999999
 30
0.0
 11
-190.56645
 21
84.1305
 31
0.0
  0
LINE
  5
270
330
1E
100
AcDbEntity
  8
0
  6
CONTINUOUS
 62
     7
100
AcDbLine
 10
-190.88753
 20
85.32999999999999
 30
0.0
 11
-190.5659999999999
 21
84.13
 31
0.0
  0
LINE
  5
271
330
1E
100
AcDbEntity
  8
0
  6
CONTINUOUS
 62
     7
100
AcDbLine
 10
-190.5659999999999
 20
84.13
 30
0.0
 11
-190.24446
 21
85.32999999999999
 31
0.0
  0
CIRCLE
  5
272
330
1E
100
AcDbEntity
  8
0
  6
CONTINUOUS
 62
     7
100
AcDbCircle
 10
49.8438
 20
102.5325
 30
0.0
 40
2.5
  0
TEXT
  5
273
330
1E
100
AcDbEntity
  8
0
  6
CONTINUOUS
 62
     7
100
AcDbText
 10
48.25555
 20
100.9077499999999
 30
0.0
 40
3.2
  1
１
  7
BIGFONT
100
AcDbText
  0
TEXT
  5
274
330
1E
100
AcDbEntity
  8
0
  6
CONTINUOUS
 62
     7
100
AcDbText
 10
53.06715
 20
100.90835
 30
0.0
 40
3.2
  1
D10
  7
BIGFONT
100
AcDbText
  0
LINE
  5
275
330
1E
100
AcDbEntity
  8
0
  6
CONTINUOUS
 62
     7
100
AcDbLine
 10
26.8026
 20
71.4745
 30
0.0
 11
37.4
 21
71.47
 31
0.0
  0
LINE
  5
276
330
1E
100
AcDbEntity
  8
0
  6
CONTINUOUS
 62
     7
100
AcDbLine
 10
36.19986
 20
71.14896999999998
 30
0.0
 11
37.4
 21
71.47
 31
0.0
  0
LINE
  5
277
330
1E
100
AcDbEntity
  8
0
  6
CONTINUOUS
 62
     7
100
AcDbLine
 10
37.4
 20
71.47
 30
0.0
 11
36.20013
 21
71.79204
 31
0.0
  0
LINE
  5
278
330
1E
100
AcDbEntity
  8
0
  6
CONTINUOUS
 62
     7
100
AcDbLine
 10
26.79899999999999
 20
91.6394
 30
0.0
 11
37.85
 21
84.1374
 31
0.0
  0
LINE
  5
279
330
1E
100
AcDbEntity
  8
0
  6
CONTINUOUS
 62
     7
100
AcDbLine
 10
36.67655999999999
 20
84.54496
 30
0.0
 11
37.85
 21
84.137
 31
0.0
  0
LINE
  5
27A
330
1E
100
AcDbEntity
  8
0
  6
CONTINUOUS
 62
     7
100
AcDbLine
 10
37.85
 20
84.137
 30
0.0
 11
37.03775
 21
85.07702
 31
0.0
  0
LINE
  5
27B
330
1E
100
AcDbEntity
  8
0
  6
CONTINUOUS
 62
     7
100
AcDbLine
 10
62.5537
 20
100.0324999999999
 30
0.0
 11
38.75
 21
100.0324999999999
 31
0.0
  0
LINE
  5
27C
330
1E
100
AcDbEntity
  8
0
  6
CONTINUOUS
 62
     7
100
AcDbLine
 10
39.95
 20
100.35353
 30
0.0
 11
38.75
 21
100.0319999999999
 31
0.0
  0
LINE
  5
27D
330
1E
100
AcDbEntity
  8
0
  6
CONTINUOUS
 62
     7
100
AcDbLine
 10
38.75
 20
100.0319999999999
 30
0.0
 11
39.95
 21
99.71046000000001
 31
0.0
  0
CIRCLE
  5
27E
330
1E
100
AcDbEntity
  8
0
  6
CONTINUOUS
 62
     7
100
AcDbCircle
 10
190.00555
 20
68.5819
 30
0.0
 40
0.75
  0
LINE
  5
27F
330
1E
100
AcDbEntity
  8
0
  6
CONTINUOUS
 62
     7
100
AcDbLine
 10
190.00555
 20
66.58190000000001
 30
0.0
 11
190.00555
 21
70.5819
 31
0.0
  0
LINE
  5
280
330
1E
100
AcDbEntity
  8
0
  6
CONTINUOUS
 62
     7
100
AcDbLine
 10
188.00555
 20
68.5819
 30
0.0
 11
192.00555
 21
68.5819
 31
0.0
  0
LINE
  5
281
330
1E
100
AcDbEntity
  8
0
  6
CONTINUOUS
 62
     7
100
AcDbLine
 10
202.9564499999999
 20
64.8819
 30
0.0
 11
202.9564499999999
 21
68.5819
 31
0.0
  0
LINE
  5
282
330
1E
100
AcDbEntity
  8
0
  6
CONTINUOUS
 62
     7
100
AcDbLine
 10
192.6057
 20
68.5819
 30
0.0
 11
203.75645
 21
68.5819
 31
0.0
  0
LINE
  5
283
330
1E
100
AcDbEntity
  8
0
  6
CONTINUOUS
 62
     7
100
AcDbLine
 10
201.45645
 20
64.8819
 30
0.0
 11
203.75645
 21
64.8819
 31
0.0
  0
LINE
  5
284
330
1E
100
AcDbEntity
  8
0
  6
CONTINUOUS
 62
     7
100
AcDbLine
 10
202.9564499999999
 20
70.98189999999998
 30
0.0
 11
202.9564499999999
 21
68.5819
 31
0.0
  0
LINE
  5
285
330
1E
100
AcDbEntity
  8
0
  6
CONTINUOUS
 62
     7
100
AcDbLine
 10
202.63446
 20
69.78100000000001
 30
0.0
 11
202.956
 21
68.581
 31
0.0
  0
LINE
  5
286
330
1E
100
AcDbEntity
  8
0
  6
CONTINUOUS
 62
     7
100
AcDbLine
 10
202.956
 20
68.581
 30
0.0
 11
203.2775299999999
 21
69.78100000000001
 31
0.0
  0
LINE
  5
287
330
1E
100
AcDbEntity
  8
0
  6
CONTINUOUS
 62
     7
100
AcDbLine
 10
202.9564499999999
 20
64.8819
 30
0.0
 11
202.9564499999999
 21
62.48190000000001
 31
0.0
  0
LINE
  5
288
330
1E
100
AcDbEntity
  8
0
  6
CONTINUOUS
 62
     7
100
AcDbLine
 10
203.2775299999999
 20
63.681
 30
0.0
 11
202.956
 21
64.881
 31
0.0
  0
LINE
  5
289
330
1E
100
AcDbEntity
  8
0
  6
CONTINUOUS
 62
     7
100
AcDbLine
 10
202.956
 20
64.881
 30
0.0
 11
202.63446
 21
63.681
 31
0.0
  0
LINE
  5
28A
330
1E
100
AcDbEntity
  8
0
  6
CONTINUOUS
 62
     7
100
AcDbLine
 10
202.9564499999999
 20
70.98189999999998
 30
0.0
 11
202.9564499999999
 21
76.1219
 31
0.0
  0
TEXT
  5
28B
330
1E
100
AcDbEntity
  8
0
  6
CONTINUOUS
 62
     7
100
AcDbText
 10
202.55645
 20
70.92189999999998
 30
0.0
 40
3.2
  1
74
 50
90.0
 41
0.8125
  7
BIGFONT
100
AcDbText
  0
LINE
  5
28C
330
1E
100
AcDbEntity
  8
0
  6
CONTINUOUS
 62
     1
100
AcDbLine
 10
-210.3345
 20
-76.55155
 30
0.0
 11
-189.9845
 21
-76.55155
 31
0.0
  0
TEXT
  5
28D
330
1E
100
AcDbEntity
  8
0
  6
CONTINUOUS
 62
     7
100
AcDbText
 10
190.9642
 20
123.95585
 30
0.0
 40
3.2
  1
4-埋め込みインサート
  7
BIGFONT
100
AcDbText
  0
TEXT
  5
28E
330
1E
100
AcDbEntity
  8
0
  6
CONTINUOUS
 62
     7
100
AcDbText
 10
191.30905
 20
119.6322499999999
 30
0.0
 40
3.2
  1
W1/2
  7
BIGFONT
100
AcDbText
  0
LINE
  5
28F
330
1E
100
AcDbEntity
  8
0
  6
CONTINUOUS
 62
     7
100
AcDbLine
 10
189.7855999999999
 20
123.5032499999999
 30
0.0
 11
231.8917900457492
 21
123.5032499999999
 31
0.0
  0
LINE
  5
290
330
1E
100
AcDbEntity
  8
0
  6
CONTINUOUS
 62
     7
100
AcDbLine
 10
189.7855999999999
 20
123.5032499999999
 30
0.0
 11
174.79615
 21
98.78010000000001
 31
0.0
  0
LINE
  5
291
330
1E
100
AcDbEntity
  8
0
  6
CONTINUOUS
 62
     7
100
AcDbLine
 10
175.1431799999999
 20
99.97283000000001
 30
0.0
 11
174.7959999999999
 21
98.78
 31
0.0
  0
LINE
  5
292
330
1E
100
AcDbEntity
  8
0
  6
CONTINUOUS
 62
     7
100
AcDbLine
 10
174.7959999999999
 20
98.78
 30
0.0
 11
175.69308
 21
99.63943
 31
0.0
  0
LINE
  5
293
330
1E
100
AcDbEntity
  8
0
  6
CONTINUOUS
 62
     7
100
AcDbLine
 10
-72.3508
 20
105.6363999999999
 30
0.0
 11
-72.3508
 21
93.12269999999999
 31
0.0
  0
LINE
  5
294
330
1E
100
AcDbEntity
  8
0
  6
CONTINUOUS
 62
     7
100
AcDbLine
 10
-72.67153
 20
94.32199999999999
 30
0.0
 11
-72.34999999999998
 21
93.12200000000002
 31
0.0
  0
LINE
  5
295
330
1E
100
AcDbEntity
  8
0
  6
CONTINUOUS
 62
     7
100
AcDbLine
 10
-72.34999999999998
 20
93.12200000000002
 30
0.0
 11
-72.02846
 21
94.32199999999999
 31
0.0
  0
LINE
  5
296
330
1E
100
AcDbEntity
  8
0
  6
CONTINUOUS
 62
     7
100
AcDbLine
 10
-72.3508
 20
124.8863999999999
 30
0.0
 11
-72.3508
 21
112.3863999999999
 31
0.0
  0
LINE
  5
297
330
1E
100
AcDbEntity
  8
0
  6
CONTINUOUS
 62
     7
100
AcDbLine
 10
-72.67153
 20
113.586
 30
0.0
 11
-72.34999999999998
 21
112.386
 31
0.0
  0
LINE
  5
298
330
1E
100
AcDbEntity
  8
0
  6
CONTINUOUS
 62
     7
100
AcDbLine
 10
-72.34999999999998
 20
112.386
 30
0.0
 11
-72.02846
 21
113.586
 31
0.0
  0
CIRCLE
  5
299
330
1E
100
AcDbEntity
  8
0
  6
CONTINUOUS
 62
     7
100
AcDbCircle
 10
-92.30870000000001
 20
-86.5113
 30
0.0
 40
2.5
  0
TEXT
  5
29A
330
1E
100
AcDbEntity
  8
0
  6
CONTINUOUS
 62
     7
100
AcDbText
 10
-93.86665
 20
-88.1052
 30
0.0
 40
3.2
  1
２
  7
BIGFONT
100
AcDbText
  0
TEXT
  5
29B
330
1E
100
AcDbEntity
  8
0
  6
CONTINUOUS
 62
     7
100
AcDbText
 10
-89.0689
 20
-88.17449999999999
 30
0.0
 40
3.2
  1
D10
  7
BIGFONT
100
AcDbText
  0
LINE
  5
29C
330
1E
100
AcDbEntity
  8
0
  6
CONTINUOUS
 62
     7
100
AcDbLine
 10
-94.8699
 20
-89.04085
 30
0.0
 11
-79.8699
 21
-89.04085
 31
0.0
  0
CIRCLE
  5
29D
330
1E
100
AcDbEntity
  8
0
  6
CONTINUOUS
 62
     7
100
AcDbCircle
 10
-36.83565
 20
-41.74034999999999
 30
0.0
 40
2.5
  0
TEXT
  5
29E
330
1E
100
AcDbEntity
  8
0
  6
CONTINUOUS
 62
     7
100
AcDbText
 10
-35.24175
 20
-43.2983
 30
0.0
 40
3.2
  1
２
 50
90.0
  7
BIGFONT
100
AcDbText
  0
TEXT
  5
29F
330
1E
100
AcDbEntity
  8
0
  6
CONTINUOUS
 62
     7
100
AcDbText
 10
-35.17244999999999
 20
-38.50054999999999
 30
0.0
 40
3.2
  1
D10
 50
90.0
  7
BIGFONT
100
AcDbText
  0
LINE
  5
2A0
330
1E
100
AcDbEntity
  8
0
  6
CONTINUOUS
 62
     7
100
AcDbLine
 10
-34.3061
 20
-45.30154999999999
 30
0.0
 11
-34.3061
 21
-30.30155
 31
0.0
  0
LINE
  5
2A1
330
1E
100
AcDbEntity
  8
0
  6
CONTINUOUS
 62
     7
100
AcDbLine
 10
232.56605
 20
70.8819
 30
0.0
 11
232.56605
 21
73.40049999999997
 31
0.0
  0
LINE
  5
2A2
330
1E
100
AcDbEntity
  8
0
  6
CONTINUOUS
 62
     7
100
AcDbLine
 10
218.5
 20
73.40049999999997
 30
0.0
 11
233.36605
 21
73.40049999999997
 31
0.0
  0
LINE
  5
2A3
330
1E
100
AcDbEntity
  8
0
  6
CONTINUOUS
 62
     7
100
AcDbLine
 10
228.9623499999999
 20
70.8819
 30
0.0
 11
233.36605
 21
70.8819
 31
0.0
  0
LINE
  5
2A4
330
1E
100
AcDbEntity
  8
0
  6
CONTINUOUS
 62
     7
100
AcDbLine
 10
232.56605
 20
75.80049999999999
 30
0.0
 11
232.56605
 21
73.40049999999997
 31
0.0
  0
LINE
  5
2A5
330
1E
100
AcDbEntity
  8
0
  6
CONTINUOUS
 62
     7
100
AcDbLine
 10
232.24446
 20
74.59999999999998
 30
0.0
 11
232.5659999999999
 21
73.4
 31
0.0
  0
LINE
  5
2A6
330
1E
100
AcDbEntity
  8
0
  6
CONTINUOUS
 62
     7
100
AcDbLine
 10
232.5659999999999
 20
73.4
 30
0.0
 11
232.8875299999999
 21
74.59999999999998
 31
0.0
  0
LINE
  5
2A7
330
1E
100
AcDbEntity
  8
0
  6
CONTINUOUS
 62
     7
100
AcDbLine
 10
232.56605
 20
70.8819
 30
0.0
 11
232.56605
 21
68.48189999999999
 31
0.0
  0
LINE
  5
2A8
330
1E
100
AcDbEntity
  8
0
  6
CONTINUOUS
 62
     7
100
AcDbLine
 10
232.8875299999999
 20
69.68099999999999
 30
0.0
 11
232.5659999999999
 21
70.881
 31
0.0
  0
LINE
  5
2A9
330
1E
100
AcDbEntity
  8
0
  6
CONTINUOUS
 62
     7
100
AcDbLine
 10
232.5659999999999
 20
70.881
 30
0.0
 11
232.24446
 21
69.68099999999999
 31
0.0
  0
LINE
  5
2AA
330
1E
100
AcDbEntity
  8
0
  6
CONTINUOUS
 62
     7
100
AcDbLine
 10
232.56605
 20
75.80049999999999
 30
0.0
 11
232.56605
 21
81.2005
 31
0.0
  0
TEXT
  5
2AB
330
1E
100
AcDbEntity
  8
0
  6
CONTINUOUS
 62
     7
100
AcDbText
 10
232.16605
 20
76.0005
 30
0.0
 40
3.2
  1
50
 50
90.0
 41
0.8125
  7
BIGFONT
100
AcDbText
  0
TEXT
  5
2AC
330
1E
100
AcDbEntity
  8
3
  6
CONTINUOUS
 62
     7
100
AcDbText
 10
243.794
 20
-156.4289999999999
 30
0.0
 40
3.799999999999998
  1
ＫＬ－３１０２
 41
0.7
  7
BIGFONT
100
AcDbText
  0
TEXT
  5
2AD
330
1E
100
AcDbEntity
  8
1
  6
CONTINUOUS
 62
     7
100
AcDbText
 10
-100.49186
 20
-171.4889
 30
0.0
 40
3.2
  1
Ｌ
  7
BIGFONT
100
AcDbText
  0
TEXT
  5
2AE
330
1E
100
AcDbEntity
  8
1
  6
CONTINUOUS
 62
     7
100
AcDbText
 10
-97.4821
 20
-171.3128199999998
 30
0.0
 40
2.2
  1
１
 41
1.1363636
  7
BIGFONT
100
AcDbText
  0
LINE
  5
2AF
330
1E
100
AcDbEntity
  8
1
  6
CONTINUOUS
 62
     1
100
AcDbLine
 10
-106.36636
 20
-164.1060399999998
 30
0.0
 11
-89.76635999999997
 21
-164.1060399999998
 31
0.0
  0
LINE
  5
2B0
330
1E
100
AcDbEntity
  8
1
  6
CONTINUOUS
 62
     7
100
AcDbLine
 10
-106.36636
 20
-172.10574
 30
0.0
 11
-89.76635999999997
 21
-172.10574
 31
0.0
  0
LINE
  5
2B1
330
1E
100
AcDbEntity
  8
1
  6
CONTINUOUS
 62
     7
100
AcDbLine
 10
-89.76635999999997
 20
-165.1060399999998
 30
0.0
 11
-89.76635999999997
 21
-172.9057399999999
 31
0.0
  0
LINE
  5
2B2
330
1E
100
AcDbEntity
  8
1
  6
CONTINUOUS
 62
     7
100
AcDbLine
 10
-106.36636
 20
-165.1060399999998
 30
0.0
 11
-106.36636
 21
-172.9057399999999
 31
0.0
  0
LINE
  5
2B3
330
1E
100
AcDbEntity
  8
1
  6
CONTINUOUS
 62
     7
100
AcDbLine
 10
-90.966
 20
-172.42653
 30
0.0
 11
-89.76600000000003
 21
-172.1049999999999
 31
0.0
  0
LINE
  5
2B4
330
1E
100
AcDbEntity
  8
1
  6
CONTINUOUS
 62
     7
100
AcDbLine
 10
-89.76600000000003
 20
-172.1049999999999
 30
0.0
 11
-90.966
 21
-171.78346
 31
0.0
  0
LINE
  5
2B5
330
1E
100
AcDbEntity
  8
1
  6
CONTINUOUS
 62
     7
100
AcDbLine
 10
-105.166
 20
-171.78346
 30
0.0
 11
-106.366
 21
-172.1049999999999
 31
0.0
  0
LINE
  5
2B6
330
1E
100
AcDbEntity
  8
1
  6
CONTINUOUS
 62
     7
100
AcDbLine
 10
-106.366
 20
-172.1049999999999
 30
0.0
 11
-105.166
 21
-172.42653
 31
0.0
  0
CIRCLE
  5
2B7
330
1E
100
AcDbEntity
  8
1
  6
CONTINUOUS
 62
     7
100
AcDbCircle
 10
-97.94432
 20
-155.46348
 30
0.0
 40
2.497799999999998
  0
TEXT
  5
2B8
330
1E
100
AcDbEntity
  8
1
  6
CONTINUOUS
 62
     7
100
AcDbText
 10
-99.64736
 20
-157.30886
 30
0.0
 40
3.2
  1
７
  7
BIGFONT
100
AcDbText
  0
LINE
  5
2B9
330
1E
100
AcDbEntity
  8
1
  6
CONTINUOUS
 62
     7
100
AcDbLine
 10
-103.14182
 20
-157.9310399999999
 30
0.0
 11
-92.61799999999999
 21
-157.9310399999999
 31
0.0
  0
TEXT
  5
2BA
330
1E
100
AcDbEntity
  8
1
  6
CONTINUOUS
 62
     7
100
AcDbText
 10
-201.34142
 20
-129.8015
 30
0.0
 40
4.5
  1
鉄筋加工図
  7
BIGFONT
100
AcDbText
  0
LINE
  5
2BB
330
1E
100
AcDbEntity
  8
1
  6
CONTINUOUS
 62
     7
100
AcDbLine
 10
-202.6595799999999
 20
-130.6086
 30
0.0
 11
-166.37576
 21
-130.6086
 31
0.0
  0
LINE
  5
2BC
330
1E
100
AcDbEntity
  8
1
  6
CONTINUOUS
 62
     7
100
AcDbLine
 10
-174.37576
 20
-130.6086
 30
0.0
 11
-173.66716
 21
-130.6086
 31
0.0
  0
LINE
  5
2BD
330
1E
100
AcDbEntity
  8
1
  6
CONTINUOUS
 62
     1
100
AcDbLine
 10
-235.47052
 20
-164.1060399999998
 30
0.0
 11
-226.1465
 21
-164.1060399999998
 31
0.0
  0
LINE
  5
2BE
330
1E
100
AcDbEntity
  8
1
  6
CONTINUOUS
 62
     7
100
AcDbLine
 10
-235.47052
 20
-172.0734
 30
0.0
 11
-226.1465
 21
-172.0734
 31
0.0
  0
LINE
  5
2BF
330
1E
100
AcDbEntity
  8
1
  6
CONTINUOUS
 62
     7
100
AcDbLine
 10
-226.1465
 20
-165.1060399999998
 30
0.0
 11
-226.1465
 21
-172.8734
 31
0.0
  0
LINE
  5
2C0
330
1E
100
AcDbEntity
  8
1
  6
CONTINUOUS
 62
     7
100
AcDbLine
 10
-235.47052
 20
-164.43046
 30
0.0
 11
-235.47052
 21
-172.8734
 31
0.0
  0
LINE
  5
2C1
330
1E
100
AcDbEntity
  8
1
  6
CONTINUOUS
 62
     7
100
AcDbLine
 10
-227.3459999999999
 20
-172.39453
 30
0.0
 11
-226.146
 21
-172.0729999999999
 31
0.0
  0
LINE
  5
2C2
330
1E
100
AcDbEntity
  8
1
  6
CONTINUOUS
 62
     7
100
AcDbLine
 10
-226.146
 20
-172.0729999999999
 30
0.0
 11
-227.3459999999999
 21
-171.75146
 31
0.0
  0
LINE
  5
2C3
330
1E
100
AcDbEntity
  8
1
  6
CONTINUOUS
 62
     7
100
AcDbLine
 10
-234.27
 20
-171.75146
 30
0.0
 11
-235.47
 21
-172.0729999999999
 31
0.0
  0
LINE
  5
2C4
330
1E
100
AcDbEntity
  8
1
  6
CONTINUOUS
 62
     7
100
AcDbLine
 10
-235.47
 20
-172.0729999999999
 30
0.0
 11
-234.27
 21
-172.39453
 31
0.0
  0
LINE
  5
2C5
330
1E
100
AcDbEntity
  8
1
  6
CONTINUOUS
 62
     1
100
AcDbLine
 10
-204.97052
 20
-164.1060399999998
 30
0.0
 11
-170.9705199999999
 21
-164.1060399999998
 31
0.0
  0
LINE
  5
2C6
330
1E
100
AcDbEntity
  8
1
  6
CONTINUOUS
 62
     7
100
AcDbLine
 10
-204.97052
 20
-172.0756199999999
 30
0.0
 11
-170.9705199999999
 21
-172.0756199999999
 31
0.0
  0
LINE
  5
2C7
330
1E
100
AcDbEntity
  8
1
  6
CONTINUOUS
 62
     7
100
AcDbLine
 10
-170.9705199999999
 20
-165.1060399999998
 30
0.0
 11
-170.9705199999999
 21
-172.87562
 31
0.0
  0
LINE
  5
2C8
330
1E
100
AcDbEntity
  8
1
  6
CONTINUOUS
 62
     7
100
AcDbLine
 10
-204.97052
 20
-164.43046
 30
0.0
 11
-204.97052
 21
-172.87562
 31
0.0
  0
LINE
  5
2C9
330
1E
100
AcDbEntity
  8
1
  6
CONTINUOUS
 62
     7
100
AcDbLine
 10
-172.17
 20
-172.39653
 30
0.0
 11
-170.9699999999999
 21
-172.0749999999999
 31
0.0
  0
LINE
  5
2CA
330
1E
100
AcDbEntity
  8
1
  6
CONTINUOUS
 62
     7
100
AcDbLine
 10
-170.9699999999999
 20
-172.0749999999999
 30
0.0
 11
-172.17
 21
-171.75346
 31
0.0
  0
LINE
  5
2CB
330
1E
100
AcDbEntity
  8
1
  6
CONTINUOUS
 62
     7
100
AcDbLine
 10
-203.77
 20
-171.75346
 30
0.0
 11
-204.97
 21
-172.0749999999999
 31
0.0
  0
LINE
  5
2CC
330
1E
100
AcDbEntity
  8
1
  6
CONTINUOUS
 62
     7
100
AcDbLine
 10
-204.97
 20
-172.0749999999999
 30
0.0
 11
-203.77
 21
-172.39653
 31
0.0
  0
LINE
  5
2CD
330
1E
100
AcDbEntity
  8
1
  6
CONTINUOUS
 62
     1
100
AcDbLine
 10
-149.8654799999999
 20
-164.1060399999998
 30
0.0
 11
-122.4654799999999
 21
-164.1060399999998
 31
0.0
  0
LINE
  5
2CE
330
1E
100
AcDbEntity
  8
1
  6
CONTINUOUS
 62
     1
100
AcDbLine
 10
-150.46548
 20
-163.5060399999999
 30
0.0
 11
-150.46548
 21
-139.1060399999997
 31
0.0
  0
ARC
  5
2CF
330
1E
100
AcDbEntity
  8
1
  6
CONTINUOUS
 62
     1
100
AcDbCircle
 10
-149.8654799999999
 20
-163.5060399999999
 30
0.0
 40
0.6
100
AcDbArc
 50
180.0
 51
270.0
  0
LINE
  5
2D0
330
1E
100
AcDbEntity
  8
1
  6
CONTINUOUS
 62
     7
100
AcDbLine
 10
-149.9671399999999
 20
-172.0756199999999
 30
0.0
 11
-122.4654799999999
 21
-172.0756199999999
 31
0.0
  0
LINE
  5
2D1
330
1E
100
AcDbEntity
  8
1
  6
CONTINUOUS
 62
     7
100
AcDbLine
 10
-122.4654799999999
 20
-165.1060399999998
 30
0.0
 11
-122.4654799999999
 21
-172.87562
 31
0.0
  0
LINE
  5
2D2
330
1E
100
AcDbEntity
  8
1
  6
CONTINUOUS
 62
     7
100
AcDbLine
 10
-149.9671399999999
 20
-164.4883399999999
 30
0.0
 11
-149.9671399999999
 21
-172.87562
 31
0.0
  0
LINE
  5
2D3
330
1E
100
AcDbEntity
  8
1
  6
CONTINUOUS
 62
     7
100
AcDbLine
 10
-123.665
 20
-172.39653
 30
0.0
 11
-122.465
 21
-172.0749999999999
 31
0.0
  0
LINE
  5
2D4
330
1E
100
AcDbEntity
  8
1
  6
CONTINUOUS
 62
     7
100
AcDbLine
 10
-122.465
 20
-172.0749999999999
 30
0.0
 11
-123.665
 21
-171.75346
 31
0.0
  0
LINE
  5
2D5
330
1E
100
AcDbEntity
  8
1
  6
CONTINUOUS
 62
     7
100
AcDbLine
 10
-148.767
 20
-171.75346
 30
0.0
 11
-149.967
 21
-172.0749999999999
 31
0.0
  0
LINE
  5
2D6
330
1E
100
AcDbEntity
  8
1
  6
CONTINUOUS
 62
     7
100
AcDbLine
 10
-149.967
 20
-172.0749999999999
 30
0.0
 11
-148.767
 21
-172.39653
 31
0.0
  0
LINE
  5
2D7
330
1E
100
AcDbEntity
  8
1
  6
CONTINUOUS
 62
     7
100
AcDbLine
 10
-158.5423999999999
 20
-163.5060399999999
 30
0.0
 11
-158.5423999999999
 21
-139.1060399999997
 31
0.0
  0
LINE
  5
2D8
330
1E
100
AcDbEntity
  8
1
  6
CONTINUOUS
 62
     7
100
AcDbLine
 10
-151.5423999999998
 20
-139.1060399999997
 30
0.0
 11
-159.3423999999999
 21
-139.1060399999997
 31
0.0
  0
LINE
  5
2D9
330
1E
100
AcDbEntity
  8
1
  6
CONTINUOUS
 62
     7
100
AcDbLine
 10
-151.5423999999998
 20
-163.5060399999999
 30
0.0
 11
-159.3423999999999
 21
-163.5060399999999
 31
0.0
  0
LINE
  5
2DA
330
1E
100
AcDbEntity
  8
1
  6
CONTINUOUS
 62
     7
100
AcDbLine
 10
-158.22046
 20
-140.306
 30
0.0
 11
-158.542
 21
-139.1059999999999
 31
0.0
  0
LINE
  5
2DB
330
1E
100
AcDbEntity
  8
1
  6
CONTINUOUS
 62
     7
100
AcDbLine
 10
-158.542
 20
-139.1059999999999
 30
0.0
 11
-158.8635299999999
 21
-140.306
 31
0.0
  0
LINE
  5
2DC
330
1E
100
AcDbEntity
  8
1
  6
CONTINUOUS
 62
     7
100
AcDbLine
 10
-158.8635299999999
 20
-162.306
 30
0.0
 11
-158.542
 21
-163.506
 31
0.0
  0
LINE
  5
2DD
330
1E
100
AcDbEntity
  8
1
  6
CONTINUOUS
 62
     7
100
AcDbLine
 10
-158.542
 20
-163.506
 30
0.0
 11
-158.22046
 21
-162.306
 31
0.0
  0
ARC
  5
2DE
330
1E
100
AcDbEntity
  8
1
  6
CONTINUOUS
 62
     7
100
AcDbCircle
 10
-149.9671399999999
 20
-163.5060399999999
 30
0.0
 40
8.57526
100
AcDbArc
 50
191.5780499999999
 51
238.71324
  0
ARC
  5
2DF
330
1E
100
AcDbEntity
  8
1
  6
CONTINUOUS
 62
     7
100
AcDbCircle
 10
-149.9671399999999
 20
-163.5060399999999
 30
0.0
 40
8.57526
100
AcDbArc
 50
238.71324
 51
246.3633899999999
  0
LINE
  5
2E0
330
1E
100
AcDbEntity
  8
1
  6
CONTINUOUS
 62
     7
100
AcDbLine
 10
-149.9671399999999
 20
-171.2587599999999
 30
0.0
 11
-149.9671399999999
 21
-169.47554
 31
0.0
  0
ARC
  5
2E1
330
1E
100
AcDbEntity
  8
1
  6
CONTINUOUS
 62
     7
100
AcDbCircle
 10
-149.9671399999999
 20
-163.5060399999999
 30
0.0
 40
8.57526
100
AcDbArc
 50
246.3633899999999
 51
247.8281799999999
  0
ARC
  5
2E2
330
1E
100
AcDbEntity
  8
1
  6
CONTINUOUS
 62
     7
100
AcDbCircle
 10
-149.9671399999999
 20
-163.5060399999999
 30
0.0
 40
8.57526
100
AcDbArc
 50
247.8281799999999
 51
258.01527
  0
LINE
  5
2E3
330
1E
100
AcDbEntity
  8
1
  6
CONTINUOUS
 62
     7
100
AcDbLine
 10
-158.3838
 20
-165.1476399999999
 30
0.0
 11
-158.5423999999999
 21
-163.5060399999999
 31
0.0
  0
LINE
  5
2E4
330
1E
100
AcDbEntity
  8
1
  6
CONTINUOUS
 62
     7
100
AcDbLine
 10
-158.10655
 20
-164.66951
 30
0.0
 11
-158.542
 21
-163.506
 31
0.0
  0
LINE
  5
2E5
330
1E
100
AcDbEntity
  8
1
  6
CONTINUOUS
 62
     7
100
AcDbLine
 10
-158.542
 20
-163.506
 30
0.0
 11
-158.7466499999998
 21
-164.7313499999999
 31
0.0
  0
LINE
  5
2E6
330
1E
100
AcDbEntity
  8
1
  6
CONTINUOUS
 62
     7
100
AcDbLine
 10
-151.67954
 20
-171.90858
 30
0.0
 11
-149.9671399999999
 21
-172.0812999999999
 31
0.0
  0
LINE
  5
2E7
330
1E
100
AcDbEntity
  8
1
  6
CONTINUOUS
 62
     7
100
AcDbLine
 10
-151.19321
 20
-172.28048
 30
0.0
 11
-149.967
 21
-172.0809999999999
 31
0.0
  0
LINE
  5
2E8
330
1E
100
AcDbEntity
  8
1
  6
CONTINUOUS
 62
     7
100
AcDbLine
 10
-149.967
 20
-172.0809999999999
 30
0.0
 11
-151.12867
 21
-171.6406499999999
 31
0.0
  0
ARC
  5
2E9
330
1E
100
AcDbEntity
  8
1
  6
CONTINUOUS
 62
     7
100
AcDbCircle
 10
-149.9671399999999
 20
-163.5060399999999
 30
0.0
 40
8.57526
100
AcDbArc
 50
258.01527
 51
258.41701
  0
LINE
  5
2EA
330
1E
100
AcDbEntity
  8
1
  6
CONTINUOUS
 62
     7
100
AcDbLine
 10
-149.9671399999999
 20
-171.90384
 30
0.0
 11
-149.9671399999999
 21
-171.2587599999999
 31
0.0
  0
LINE
  5
2EB
330
1E
100
AcDbEntity
  8
1
  6
CONTINUOUS
 62
     7
100
AcDbLine
 10
-158.5423999999999
 20
-163.5060399999999
 30
0.0
 11
-158.5423999999999
 21
-159.1506799999999
 31
0.0
  0
ARC
  5
2EC
330
1E
100
AcDbEntity
  8
1
  6
CONTINUOUS
 62
     7
100
AcDbCircle
 10
-149.9671399999999
 20
-163.5060399999999
 30
0.0
 40
8.57526
100
AcDbArc
 50
191.0231699999999
 51
191.5780499999999
  0
LINE
  5
2ED
330
1E
100
AcDbEntity
  8
1
  6
CONTINUOUS
 62
     7
100
AcDbLine
 10
-149.9671399999999
 20
-165.8222
 30
0.0
 11
-149.9671399999999
 21
-163.5060399999999
 31
0.0
  0
LINE
  5
2EE
330
1E
100
AcDbEntity
  8
1
  6
CONTINUOUS
 62
     7
100
AcDbLine
 10
-152.52472
 20
-163.5060399999999
 30
0.0
 11
-149.9671399999999
 21
-163.5060399999999
 31
0.0
  0
LINE
  5
2EF
330
1E
100
AcDbEntity
  8
1
  6
CONTINUOUS
 62
     1
100
AcDbLine
 10
-92.61991999999999
 20
-137.69898
 30
0.0
 11
-89.7915
 21
-134.87056
 31
0.0
  0
LINE
  5
2F0
330
1E
100
AcDbEntity
  8
1
  6
CONTINUOUS
 62
     1
100
AcDbLine
 10
-102.6199
 20
-137.69898
 30
0.0
 11
-92.61991999999999
 21
-137.69898
 31
0.0
  0
LINE
  5
2F1
330
1E
100
AcDbEntity
  8
1
  6
CONTINUOUS
 62
     1
100
AcDbLine
 10
-105.4483399999997
 20
-134.87056
 30
0.0
 11
-102.6199
 21
-137.69898
 31
0.0
  0
LINE
  5
2F2
330
1E
100
AcDbEntity
  8
1
  6
CONTINUOUS
 62
     7
100
AcDbLine
 10
-111.1051999999999
 20
-140.52742
 30
0.0
 11
-108.2767699999999
 21
-143.35585
 31
0.0
  0
LINE
  5
2F3
330
1E
100
AcDbEntity
  8
1
  6
CONTINUOUS
 62
     7
100
AcDbLine
 10
-103.3269999999999
 20
-138.40608
 30
0.0
 11
-108.84245
 21
-143.92153
 31
0.0
  0
LINE
  5
2F4
330
1E
100
AcDbEntity
  8
1
  6
CONTINUOUS
 62
     7
100
AcDbLine
 10
-106.1554399999999
 20
-135.57766
 30
0.0
 11
-111.67088
 21
-141.0930999999999
 31
0.0
  0
LINE
  5
2F5
330
1E
100
AcDbEntity
  8
1
  6
CONTINUOUS
 62
     7
100
AcDbLine
 10
-109.35189
 20
-142.73383
 30
0.0
 11
-108.2759999999999
 21
-143.3549999999998
 31
0.0
  0
LINE
  5
2F6
330
1E
100
AcDbEntity
  8
1
  6
CONTINUOUS
 62
     7
100
AcDbLine
 10
-108.2759999999999
 20
-143.3549999999998
 30
0.0
 11
-108.89716
 21
-142.2790999999999
 31
0.0
  0
LINE
  5
2F7
330
1E
100
AcDbEntity
  8
1
  6
CONTINUOUS
 62
     7
100
AcDbLine
 10
-110.0291
 20
-141.14816
 30
0.0
 11
-111.105
 21
-140.5269999999999
 31
0.0
  0
LINE
  5
2F8
330
1E
100
AcDbEntity
  8
1
  6
CONTINUOUS
 62
     7
100
AcDbLine
 10
-111.105
 20
-140.5269999999999
 30
0.0
 11
-110.48383
 21
-141.60289
 31
0.0
  0
LINE
  5
2F9
330
1E
100
AcDbEntity
  8
1
  6
CONTINUOUS
 62
     7
100
AcDbLine
 10
-86.98458
 20
-143.3343199999999
 30
0.0
 11
-84.15615999999998
 21
-140.5059
 31
0.0
  0
LINE
  5
2FA
330
1E
100
AcDbEntity
  8
1
  6
CONTINUOUS
 62
     7
100
AcDbLine
 10
-89.08438999999999
 20
-135.57766
 30
0.0
 11
-83.59047
 21
-141.07158
 31
0.0
  0
LINE
  5
2FB
330
1E
100
AcDbEntity
  8
1
  6
CONTINUOUS
 62
     7
100
AcDbLine
 10
-91.91281
 20
-138.40608
 30
0.0
 11
-86.41889
 21
-143.9
 31
0.0
  0
LINE
  5
2FC
330
1E
100
AcDbEntity
  8
1
  6
CONTINUOUS
 62
     7
100
AcDbLine
 10
-84.77715999999999
 20
-141.5808899999998
 30
0.0
 11
-84.15600000000003
 21
-140.5049999999999
 31
0.0
  0
LINE
  5
2FD
330
1E
100
AcDbEntity
  8
1
  6
CONTINUOUS
 62
     7
100
AcDbLine
 10
-84.15600000000003
 20
-140.5049999999999
 30
0.0
 11
-85.23189
 21
-141.12616
 31
0.0
  0
LINE
  5
2FE
330
1E
100
AcDbEntity
  8
1
  6
CONTINUOUS
 62
     7
100
AcDbLine
 10
-86.36283
 20
-142.2581
 30
0.0
 11
-86.98399999999997
 21
-143.334
 31
0.0
  0
LINE
  5
2FF
330
1E
100
AcDbEntity
  8
1
  6
CONTINUOUS
 62
     7
100
AcDbLine
 10
-86.98399999999997
 20
-143.334
 30
0.0
 11
-85.90810000000002
 21
-142.7128299999999
 31
0.0
  0
LINE
  5
300
330
1E
100
AcDbEntity
  8
1
  6
CONTINUOUS
 62
     7
100
AcDbLine
 10
-102.6199
 20
-145.6989999999999
 30
0.0
 11
-92.61991999999999
 21
-145.6989999999999
 31
0.0
  0
LINE
  5
301
330
1E
100
AcDbEntity
  8
1
  6
CONTINUOUS
 62
     7
100
AcDbLine
 10
-92.61991999999999
 20
-138.69898
 30
0.0
 11
-92.61991999999999
 21
-146.499
 31
0.0
  0
LINE
  5
302
330
1E
100
AcDbEntity
  8
1
  6
CONTINUOUS
 62
     7
100
AcDbLine
 10
-102.6199
 20
-138.69898
 30
0.0
 11
-102.6199
 21
-146.499
 31
0.0
  0
LINE
  5
303
330
1E
100
AcDbEntity
  8
1
  6
CONTINUOUS
 62
     7
100
AcDbLine
 10
-93.81899999999999
 20
-146.02053
 30
0.0
 11
-92.619
 21
-145.6989999999999
 31
0.0
  0
LINE
  5
304
330
1E
100
AcDbEntity
  8
1
  6
CONTINUOUS
 62
     7
100
AcDbLine
 10
-92.619
 20
-145.6989999999999
 30
0.0
 11
-93.81899999999999
 21
-145.37746
 31
0.0
  0
LINE
  5
305
330
1E
100
AcDbEntity
  8
1
  6
CONTINUOUS
 62
     7
100
AcDbLine
 10
-101.4189999999999
 20
-145.37746
 30
0.0
 11
-102.6189999999999
 21
-145.6989999999999
 31
0.0
  0
LINE
  5
306
330
1E
100
AcDbEntity
  8
1
  6
CONTINUOUS
 62
     7
100
AcDbLine
 10
-102.6189999999999
 20
-145.6989999999999
 30
0.0
 11
-101.4189999999999
 21
-146.02053
 31
0.0
  0
TEXT
  5
307
330
1E
100
AcDbEntity
  8
1
  6
CONTINUOUS
 62
     7
100
AcDbText
 10
-235.14506
 20
-163.8086
 30
0.0
 40
3.2
  1
Ｒ
 50
2.0
  7
BIGFONT
100
AcDbText
  0
TEXT
  5
308
330
1E
100
AcDbEntity
  8
1
  6
CONTINUOUS
 62
     7
100
AcDbText
 10
-149.64168
 20
-163.88418
 30
0.0
 40
3.2
  1
Ｒ
 50
2.0
  7
BIGFONT
100
AcDbText
  0
TEXT
  5
309
330
1E
100
AcDbEntity
  8
1
  6
CONTINUOUS
 62
     7
100
AcDbText
 10
-190.44708
 20
-171.4367799999999
 30
0.0
 40
3.2
  1
Ｌ
  7
BIGFONT
100
AcDbText
  0
TEXT
  5
30A
330
1E
100
AcDbEntity
  8
1
  6
CONTINUOUS
 62
     7
100
AcDbText
 10
-187.4373199999999
 20
-171.2607
 30
0.0
 40
2.2
  1
１
 41
1.1363636
  7
BIGFONT
100
AcDbText
  0
TEXT
  5
30B
330
1E
100
AcDbEntity
  8
1
  6
CONTINUOUS
 62
     7
100
AcDbText
 10
-233.2872599999999
 20
-171.47306
 30
0.0
 40
3.2
  1
Ｌ
  7
BIGFONT
100
AcDbText
  0
TEXT
  5
30C
330
1E
100
AcDbEntity
  8
1
  6
CONTINUOUS
 62
     7
100
AcDbText
 10
-230.35642
 20
-171.30434
 30
0.0
 40
2.2
  1
３
 41
1.1363636
  7
BIGFONT
100
AcDbText
  0
TEXT
  5
30D
330
1E
100
AcDbEntity
  8
1
  6
CONTINUOUS
 62
     7
100
AcDbText
 10
-157.4449399999999
 20
-167.1118199999999
 30
0.0
 40
3.2
  1
Ｌ
 50
315.0
  7
BIGFONT
100
AcDbText
  0
TEXT
  5
30E
330
1E
100
AcDbEntity
  8
1
  6
CONTINUOUS
 62
     7
100
AcDbText
 10
-155.2434199999999
 20
-169.0765
 30
0.0
 40
2.2
  1
２
 50
315.0
 41
1.1363636
  7
BIGFONT
100
AcDbText
  0
TEXT
  5
30F
330
1E
100
AcDbEntity
  8
1
  6
CONTINUOUS
 62
     7
100
AcDbText
 10
-138.4035399999999
 20
-171.45878
 30
0.0
 40
3.2
  1
Ｌ
  7
BIGFONT
100
AcDbText
  0
TEXT
  5
310
330
1E
100
AcDbEntity
  8
1
  6
CONTINUOUS
 62
     7
100
AcDbText
 10
-135.3937799999999
 20
-171.2827
 30
0.0
 40
2.2
  1
１
 41
1.1363636
  7
BIGFONT
100
AcDbText
  0
TEXT
  5
311
330
1E
100
AcDbEntity
  8
1
  6
CONTINUOUS
 62
     7
100
AcDbText
 10
-158.9887799999999
 20
-154.4086599999999
 30
0.0
 40
3.2
  1
Ｌ
 50
90.0
  7
BIGFONT
100
AcDbText
  0
TEXT
  5
312
330
1E
100
AcDbEntity
  8
1
  6
CONTINUOUS
 62
     7
100
AcDbText
 10
-159.1574999999999
 20
-151.47782
 30
0.0
 40
2.2
  1
３
 50
90.0
 41
1.1363636
  7
BIGFONT
100
AcDbText
  0
TEXT
  5
313
330
1E
100
AcDbEntity
  8
1
  6
CONTINUOUS
 62
     7
100
AcDbText
 10
-100.5330999999999
 20
-145.2364199999998
 30
0.0
 40
3.2
  1
Ｌ
  7
BIGFONT
100
AcDbText
  0
TEXT
  5
314
330
1E
100
AcDbEntity
  8
1
  6
CONTINUOUS
 62
     7
100
AcDbText
 10
-97.58715999999999
 20
-145.0689399999999
 30
0.0
 40
2.2
  1
２
 41
1.1363636
  7
BIGFONT
100
AcDbText
  0
TEXT
  5
315
330
1E
100
AcDbEntity
  8
1
  6
CONTINUOUS
 62
     7
100
AcDbText
 10
-84.35845999999996
 20
-146.4351399999999
 30
0.0
 40
3.2
  1
Ｌ
 50
45.0
  7
BIGFONT
100
AcDbText
  0
TEXT
  5
316
330
1E
100
AcDbEntity
  8
1
  6
CONTINUOUS
 62
     7
100
AcDbText
 10
-82.35474000000001
 20
-144.18242
 30
0.0
 40
2.2
  1
１
 50
45.0
 41
1.1363636
  7
BIGFONT
100
AcDbText
  0
LINE
  5
317
330
1E
100
AcDbEntity
  8
1
  6
CONTINUOUS
 62
     1
100
AcDbLine
 10
-235.96886
 20
-163.5060399999999
 30
0.0
 11
-235.96886
 21
-130.20604
 31
0.0
  0
ARC
  5
318
330
1E
100
AcDbEntity
  8
1
  6
CONTINUOUS
 62
     1
100
AcDbCircle
 10
-235.36886
 20
-163.5060399999999
 30
0.0
 40
0.6
100
AcDbArc
 50
180.0
 51
270.0
  0
LINE
  5
319
330
1E
100
AcDbEntity
  8
1
  6
CONTINUOUS
 62
     7
100
AcDbLine
 10
-244.0457799999999
 20
-163.5060399999999
 30
0.0
 11
-244.0457799999999
 21
-130.20604
 31
0.0
  0
LINE
  5
31A
330
1E
100
AcDbEntity
  8
1
  6
CONTINUOUS
 62
     7
100
AcDbLine
 10
-237.04578
 20
-130.20604
 30
0.0
 11
-244.8457799999999
 21
-130.20604
 31
0.0
  0
LINE
  5
31B
330
1E
100
AcDbEntity
  8
1
  6
CONTINUOUS
 62
     7
100
AcDbLine
 10
-237.04578
 20
-163.5060399999999
 30
0.0
 11
-244.8457799999999
 21
-163.5060399999999
 31
0.0
  0
LINE
  5
31C
330
1E
100
AcDbEntity
  8
1
  6
CONTINUOUS
 62
     7
100
AcDbLine
 10
-243.72346
 20
-131.406
 30
0.0
 11
-244.0449999999999
 21
-130.2059999999999
 31
0.0
  0
LINE
  5
31D
330
1E
100
AcDbEntity
  8
1
  6
CONTINUOUS
 62
     7
100
AcDbLine
 10
-244.0449999999999
 20
-130.2059999999999
 30
0.0
 11
-244.3665299999999
 21
-131.406
 31
0.0
  0
LINE
  5
31E
330
1E
100
AcDbEntity
  8
1
  6
CONTINUOUS
 62
     7
100
AcDbLine
 10
-244.3665299999999
 20
-162.306
 30
0.0
 11
-244.0449999999999
 21
-163.506
 31
0.0
  0
LINE
  5
31F
330
1E
100
AcDbEntity
  8
1
  6
CONTINUOUS
 62
     7
100
AcDbLine
 10
-244.0449999999999
 20
-163.506
 30
0.0
 11
-243.72346
 21
-162.306
 31
0.0
  0
ARC
  5
320
330
1E
100
AcDbEntity
  8
1
  6
CONTINUOUS
 62
     7
100
AcDbCircle
 10
-235.47052
 20
-163.5060399999999
 30
0.0
 40
8.57526
100
AcDbArc
 50
191.5780499999999
 51
238.71324
  0
ARC
  5
321
330
1E
100
AcDbEntity
  8
1
  6
CONTINUOUS
 62
     7
100
AcDbCircle
 10
-235.47052
 20
-163.5060399999999
 30
0.0
 40
8.57526
100
AcDbArc
 50
238.71324
 51
246.3633899999999
  0
ARC
  5
322
330
1E
100
AcDbEntity
  8
1
  6
CONTINUOUS
 62
     7
100
AcDbCircle
 10
-235.47052
 20
-163.5060399999999
 30
0.0
 40
8.57526
100
AcDbArc
 50
246.3633899999999
 51
247.8281799999999
  0
ARC
  5
323
330
1E
100
AcDbEntity
  8
1
  6
CONTINUOUS
 62
     7
100
AcDbCircle
 10
-235.47052
 20
-163.5060399999999
 30
0.0
 40
8.57526
100
AcDbArc
 50
247.8281799999999
 51
258.01527
  0
LINE
  5
324
330
1E
100
AcDbEntity
  8
1
  6
CONTINUOUS
 62
     7
100
AcDbLine
 10
-243.8871799999999
 20
-165.1476399999999
 30
0.0
 11
-244.0457799999999
 21
-163.5060399999999
 31
0.0
  0
LINE
  5
325
330
1E
100
AcDbEntity
  8
1
  6
CONTINUOUS
 62
     7
100
AcDbLine
 10
-243.6095499999999
 20
-164.66951
 30
0.0
 11
-244.0449999999999
 21
-163.506
 31
0.0
  0
LINE
  5
326
330
1E
100
AcDbEntity
  8
1
  6
CONTINUOUS
 62
     7
100
AcDbLine
 10
-244.0449999999999
 20
-163.506
 30
0.0
 11
-244.24965
 21
-164.7313499999999
 31
0.0
  0
LINE
  5
327
330
1E
100
AcDbEntity
  8
1
  6
CONTINUOUS
 62
     7
100
AcDbLine
 10
-237.18292
 20
-171.90858
 30
0.0
 11
-235.47052
 21
-172.0812999999999
 31
0.0
  0
LINE
  5
328
330
1E
100
AcDbEntity
  8
1
  6
CONTINUOUS
 62
     7
100
AcDbLine
 10
-236.69621
 20
-172.28048
 30
0.0
 11
-235.47
 21
-172.0809999999999
 31
0.0
  0
LINE
  5
329
330
1E
100
AcDbEntity
  8
1
  6
CONTINUOUS
 62
     7
100
AcDbLine
 10
-235.47
 20
-172.0809999999999
 30
0.0
 11
-236.63167
 21
-171.6406499999999
 31
0.0
  0
ARC
  5
32A
330
1E
100
AcDbEntity
  8
1
  6
CONTINUOUS
 62
     7
100
AcDbCircle
 10
-235.47052
 20
-163.5060399999999
 30
0.0
 40
8.57526
100
AcDbArc
 50
258.01527
 51
258.41701
  0
LINE
  5
32B
330
1E
100
AcDbEntity
  8
1
  6
CONTINUOUS
 62
     7
100
AcDbLine
 10
-244.0457799999999
 20
-163.5060399999999
 30
0.0
 11
-244.0457799999999
 21
-159.1506799999999
 31
0.0
  0
ARC
  5
32C
330
1E
100
AcDbEntity
  8
1
  6
CONTINUOUS
 62
     7
100
AcDbCircle
 10
-235.47052
 20
-163.5060399999999
 30
0.0
 40
8.57526
100
AcDbArc
 50
191.0231699999999
 51
191.5780499999999
  0
LINE
  5
32D
330
1E
100
AcDbEntity
  8
1
  6
CONTINUOUS
 62
     7
100
AcDbLine
 10
-238.0281
 20
-163.5060399999999
 30
0.0
 11
-235.47052
 21
-163.5060399999999
 31
0.0
  0
TEXT
  5
32E
330
1E
100
AcDbEntity
  8
1
  6
CONTINUOUS
 62
     7
100
AcDbText
 10
-242.94832
 20
-167.1118199999999
 30
0.0
 40
3.2
  1
Ｌ
 50
315.0
  7
BIGFONT
100
AcDbText
  0
TEXT
  5
32F
330
1E
100
AcDbEntity
  8
1
  6
CONTINUOUS
 62
     7
100
AcDbText
 10
-240.7468
 20
-169.0765
 30
0.0
 40
2.2
  1
２
 50
315.0
 41
1.1363636
  7
BIGFONT
100
AcDbText
  0
LINE
  5
330
330
1E
100
AcDbEntity
  8
1
  6
CONTINUOUS
 62
     7
100
AcDbLine
 10
-235.47052
 20
-165.8326999999998
 30
0.0
 11
-235.47052
 21
-163.5060399999999
 31
0.0
  0
TEXT
  5
331
330
1E
100
AcDbEntity
  8
1
  6
CONTINUOUS
 62
     7
100
AcDbText
 10
-204.64506
 20
-163.8086
 30
0.0
 40
3.2
  1
Ｒ
 50
2.0
  7
BIGFONT
100
AcDbText
  0
LINE
  5
332
330
1E
100
AcDbEntity
  8
1
  6
CONTINUOUS
 62
     1
100
AcDbLine
 10
-205.4688599999999
 20
-163.5060399999999
 30
0.0
 11
-205.4688599999999
 21
-156.48504
 31
0.0
  0
ARC
  5
333
330
1E
100
AcDbEntity
  8
1
  6
CONTINUOUS
 62
     1
100
AcDbCircle
 10
-204.86886
 20
-163.5060399999999
 30
0.0
 40
0.6
100
AcDbArc
 50
180.0
 51
270.0
  0
LINE
  5
334
330
1E
100
AcDbEntity
  8
1
  6
CONTINUOUS
 62
     7
100
AcDbLine
 10
-213.5457799999999
 20
-163.5060399999999
 30
0.0
 11
-213.5457799999999
 21
-156.48504
 31
0.0
  0
LINE
  5
335
330
1E
100
AcDbEntity
  8
1
  6
CONTINUOUS
 62
     7
100
AcDbLine
 10
-206.5457799999999
 20
-156.48504
 30
0.0
 11
-214.3457799999999
 21
-156.48504
 31
0.0
  0
LINE
  5
336
330
1E
100
AcDbEntity
  8
1
  6
CONTINUOUS
 62
     7
100
AcDbLine
 10
-206.5457799999999
 20
-163.5060399999999
 30
0.0
 11
-214.3457799999999
 21
-163.5060399999999
 31
0.0
  0
LINE
  5
337
330
1E
100
AcDbEntity
  8
1
  6
CONTINUOUS
 62
     7
100
AcDbLine
 10
-213.22346
 20
-157.685
 30
0.0
 11
-213.545
 21
-156.485
 31
0.0
  0
LINE
  5
338
330
1E
100
AcDbEntity
  8
1
  6
CONTINUOUS
 62
     7
100
AcDbLine
 10
-213.545
 20
-156.485
 30
0.0
 11
-213.8665299999999
 21
-157.685
 31
0.0
  0
LINE
  5
339
330
1E
100
AcDbEntity
  8
1
  6
CONTINUOUS
 62
     7
100
AcDbLine
 10
-213.8665299999999
 20
-162.306
 30
0.0
 11
-213.545
 21
-163.506
 31
0.0
  0
LINE
  5
33A
330
1E
100
AcDbEntity
  8
1
  6
CONTINUOUS
 62
     7
100
AcDbLine
 10
-213.545
 20
-163.506
 30
0.0
 11
-213.22346
 21
-162.306
 31
0.0
  0
ARC
  5
33B
330
1E
100
AcDbEntity
  8
1
  6
CONTINUOUS
 62
     7
100
AcDbCircle
 10
-204.97052
 20
-163.5060399999999
 30
0.0
 40
8.57526
100
AcDbArc
 50
191.5780499999999
 51
238.71324
  0
ARC
  5
33C
330
1E
100
AcDbEntity
  8
1
  6
CONTINUOUS
 62
     7
100
AcDbCircle
 10
-204.97052
 20
-163.5060399999999
 30
0.0
 40
8.57526
100
AcDbArc
 50
238.71324
 51
246.3633899999999
  0
ARC
  5
33D
330
1E
100
AcDbEntity
  8
1
  6
CONTINUOUS
 62
     7
100
AcDbCircle
 10
-204.97052
 20
-163.5060399999999
 30
0.0
 40
8.57526
100
AcDbArc
 50
246.3633899999999
 51
247.8281799999999
  0
ARC
  5
33E
330
1E
100
AcDbEntity
  8
1
  6
CONTINUOUS
 62
     7
100
AcDbCircle
 10
-204.97052
 20
-163.5060399999999
 30
0.0
 40
8.57526
100
AcDbArc
 50
247.8281799999999
 51
258.01527
  0
LINE
  5
33F
330
1E
100
AcDbEntity
  8
1
  6
CONTINUOUS
 62
     7
100
AcDbLine
 10
-213.3871799999999
 20
-165.1476399999999
 30
0.0
 11
-213.5457799999999
 21
-163.5060399999999
 31
0.0
  0
LINE
  5
340
330
1E
100
AcDbEntity
  8
1
  6
CONTINUOUS
 62
     7
100
AcDbLine
 10
-213.10955
 20
-164.66951
 30
0.0
 11
-213.545
 21
-163.506
 31
0.0
  0
LINE
  5
341
330
1E
100
AcDbEntity
  8
1
  6
CONTINUOUS
 62
     7
100
AcDbLine
 10
-213.545
 20
-163.506
 30
0.0
 11
-213.74965
 21
-164.7313499999999
 31
0.0
  0
LINE
  5
342
330
1E
100
AcDbEntity
  8
1
  6
CONTINUOUS
 62
     7
100
AcDbLine
 10
-206.6829199999999
 20
-171.90858
 30
0.0
 11
-204.97052
 21
-172.0812999999999
 31
0.0
  0
LINE
  5
343
330
1E
100
AcDbEntity
  8
1
  6
CONTINUOUS
 62
     7
100
AcDbLine
 10
-206.19621
 20
-172.28048
 30
0.0
 11
-204.97
 21
-172.0809999999999
 31
0.0
  0
LINE
  5
344
330
1E
100
AcDbEntity
  8
1
  6
CONTINUOUS
 62
     7
100
AcDbLine
 10
-204.97
 20
-172.0809999999999
 30
0.0
 11
-206.1316699999999
 21
-171.6406499999999
 31
0.0
  0
ARC
  5
345
330
1E
100
AcDbEntity
  8
1
  6
CONTINUOUS
 62
     7
100
AcDbCircle
 10
-204.97052
 20
-163.5060399999999
 30
0.0
 40
8.57526
100
AcDbArc
 50
258.01527
 51
258.41701
  0
LINE
  5
346
330
1E
100
AcDbEntity
  8
1
  6
CONTINUOUS
 62
     7
100
AcDbLine
 10
-213.5457799999999
 20
-163.5060399999999
 30
0.0
 11
-213.5457799999999
 21
-159.1506799999999
 31
0.0
  0
ARC
  5
347
330
1E
100
AcDbEntity
  8
1
  6
CONTINUOUS
 62
     7
100
AcDbCircle
 10
-204.97052
 20
-163.5060399999999
 30
0.0
 40
8.57526
100
AcDbArc
 50
191.0231699999999
 51
191.5780499999999
  0
LINE
  5
348
330
1E
100
AcDbEntity
  8
1
  6
CONTINUOUS
 62
     7
100
AcDbLine
 10
-207.5280999999999
 20
-163.5060399999999
 30
0.0
 11
-204.97052
 21
-163.5060399999999
 31
0.0
  0
TEXT
  5
349
330
1E
100
AcDbEntity
  8
1
  6
CONTINUOUS
 62
     7
100
AcDbText
 10
-212.44832
 20
-167.1118199999999
 30
0.0
 40
3.2
  1
Ｌ
 50
315.0
  7
BIGFONT
100
AcDbText
  0
TEXT
  5
34A
330
1E
100
AcDbEntity
  8
1
  6
CONTINUOUS
 62
     7
100
AcDbText
 10
-210.2468
 20
-169.0765
 30
0.0
 40
2.2
  1
２
 50
315.0
 41
1.1363636
  7
BIGFONT
100
AcDbText
  0
TEXT
  5
34B
330
1E
100
AcDbEntity
  8
1
  6
CONTINUOUS
 62
     7
100
AcDbText
 10
-213.99216
 20
-162.69816
 30
0.0
 40
3.2
  1
Ｌ
 50
90.0
  7
BIGFONT
100
AcDbText
  0
TEXT
  5
34C
330
1E
100
AcDbEntity
  8
1
  6
CONTINUOUS
 62
     7
100
AcDbText
 10
-214.1608799999999
 20
-159.7673199999999
 30
0.0
 40
2.2
  1
３
 50
90.0
 41
1.1363636
  7
BIGFONT
100
AcDbText
  0
LINE
  5
34D
330
1E
100
AcDbEntity
  8
1
  6
CONTINUOUS
 62
     7
100
AcDbLine
 10
-204.97052
 20
-165.8326999999998
 30
0.0
 11
-204.97052
 21
-163.5060399999999
 31
0.0
  0
TEXT
  5
34E
330
1E
100
AcDbEntity
  8
1
  6
CONTINUOUS
 62
     7
100
AcDbText
 10
-114.4939399999999
 20
-142.8667
 30
0.0
 40
3.2
  1
Ｌ
 50
315.0
  7
BIGFONT
100
AcDbText
  0
TEXT
  5
34F
330
1E
100
AcDbEntity
  8
1
  6
CONTINUOUS
 62
     7
100
AcDbText
 10
-112.3022199999999
 20
-144.81982
 30
0.0
 40
2.2
  1
３
 50
315.0
 41
1.1363636
  7
BIGFONT
100
AcDbText
  0
LINE
  5
350
330
1E
100
AcDbEntity
  8
1
  6
CONTINUOUS
 62
     1
100
AcDbLine
 10
-61.22494
 20
-164.1060399999998
 30
0.0
 11
-33.82494
 21
-164.1060399999998
 31
0.0
  0
LINE
  5
351
330
1E
100
AcDbEntity
  8
1
  6
CONTINUOUS
 62
     1
100
AcDbLine
 10
-61.82494000000001
 20
-163.5060399999999
 30
0.0
 11
-61.82494000000001
 21
-139.1060399999997
 31
0.0
  0
ARC
  5
352
330
1E
100
AcDbEntity
  8
1
  6
CONTINUOUS
 62
     1
100
AcDbCircle
 10
-61.22494
 20
-163.5060399999999
 30
0.0
 40
0.6
100
AcDbArc
 50
180.0
 51
270.0
  0
LINE
  5
353
330
1E
100
AcDbEntity
  8
1
  6
CONTINUOUS
 62
     7
100
AcDbLine
 10
-61.3266
 20
-172.0756199999999
 30
0.0
 11
-33.82494
 21
-172.0756199999999
 31
0.0
  0
LINE
  5
354
330
1E
100
AcDbEntity
  8
1
  6
CONTINUOUS
 62
     7
100
AcDbLine
 10
-33.82494
 20
-165.1060399999998
 30
0.0
 11
-33.82494
 21
-172.87562
 31
0.0
  0
LINE
  5
355
330
1E
100
AcDbEntity
  8
1
  6
CONTINUOUS
 62
     7
100
AcDbLine
 10
-61.3266
 20
-164.4883399999999
 30
0.0
 11
-61.3266
 21
-172.87562
 31
0.0
  0
LINE
  5
356
330
1E
100
AcDbEntity
  8
1
  6
CONTINUOUS
 62
     7
100
AcDbLine
 10
-35.024
 20
-172.39653
 30
0.0
 11
-33.824
 21
-172.0749999999999
 31
0.0
  0
LINE
  5
357
330
1E
100
AcDbEntity
  8
1
  6
CONTINUOUS
 62
     7
100
AcDbLine
 10
-33.824
 20
-172.0749999999999
 30
0.0
 11
-35.024
 21
-171.75346
 31
0.0
  0
LINE
  5
358
330
1E
100
AcDbEntity
  8
1
  6
CONTINUOUS
 62
     7
100
AcDbLine
 10
-60.12599999999999
 20
-171.75346
 30
0.0
 11
-61.326
 21
-172.0749999999999
 31
0.0
  0
LINE
  5
359
330
1E
100
AcDbEntity
  8
1
  6
CONTINUOUS
 62
     7
100
AcDbLine
 10
-61.326
 20
-172.0749999999999
 30
0.0
 11
-60.12599999999999
 21
-172.39653
 31
0.0
  0
LINE
  5
35A
330
1E
100
AcDbEntity
  8
1
  6
CONTINUOUS
 62
     7
100
AcDbLine
 10
-69.90186
 20
-163.5060399999999
 30
0.0
 11
-69.90186
 21
-139.1060399999997
 31
0.0
  0
LINE
  5
35B
330
1E
100
AcDbEntity
  8
1
  6
CONTINUOUS
 62
     7
100
AcDbLine
 10
-62.90186
 20
-139.1060399999997
 30
0.0
 11
-70.70185999999998
 21
-139.1060399999997
 31
0.0
  0
LINE
  5
35C
330
1E
100
AcDbEntity
  8
1
  6
CONTINUOUS
 62
     7
100
AcDbLine
 10
-62.90186
 20
-163.5060399999999
 30
0.0
 11
-70.70185999999998
 21
-163.5060399999999
 31
0.0
  0
LINE
  5
35D
330
1E
100
AcDbEntity
  8
1
  6
CONTINUOUS
 62
     7
100
AcDbLine
 10
-69.57945999999999
 20
-140.306
 30
0.0
 11
-69.90099999999999
 21
-139.1059999999999
 31
0.0
  0
LINE
  5
35E
330
1E
100
AcDbEntity
  8
1
  6
CONTINUOUS
 62
     7
100
AcDbLine
 10
-69.90099999999999
 20
-139.1059999999999
 30
0.0
 11
-70.22253
 21
-140.306
 31
0.0
  0
LINE
  5
35F
330
1E
100
AcDbEntity
  8
1
  6
CONTINUOUS
 62
     7
100
AcDbLine
 10
-70.22253
 20
-162.306
 30
0.0
 11
-69.90099999999999
 21
-163.506
 31
0.0
  0
LINE
  5
360
330
1E
100
AcDbEntity
  8
1
  6
CONTINUOUS
 62
     7
100
AcDbLine
 10
-69.90099999999999
 20
-163.506
 30
0.0
 11
-69.57945999999999
 21
-162.306
 31
0.0
  0
ARC
  5
361
330
1E
100
AcDbEntity
  8
1
  6
CONTINUOUS
 62
     7
100
AcDbCircle
 10
-61.3266
 20
-163.5060399999999
 30
0.0
 40
8.57526
100
AcDbArc
 50
191.5780499999999
 51
238.71324
  0
ARC
  5
362
330
1E
100
AcDbEntity
  8
1
  6
CONTINUOUS
 62
     7
100
AcDbCircle
 10
-61.3266
 20
-163.5060399999999
 30
0.0
 40
8.57526
100
AcDbArc
 50
238.71324
 51
246.3633899999999
  0
LINE
  5
363
330
1E
100
AcDbEntity
  8
1
  6
CONTINUOUS
 62
     7
100
AcDbLine
 10
-61.3266
 20
-171.2587599999999
 30
0.0
 11
-61.3266
 21
-169.47554
 31
0.0
  0
ARC
  5
364
330
1E
100
AcDbEntity
  8
1
  6
CONTINUOUS
 62
     7
100
AcDbCircle
 10
-61.3266
 20
-163.5060399999999
 30
0.0
 40
8.57526
100
AcDbArc
 50
246.3633899999999
 51
247.8281799999999
  0
ARC
  5
365
330
1E
100
AcDbEntity
  8
1
  6
CONTINUOUS
 62
     7
100
AcDbCircle
 10
-61.3266
 20
-163.5060399999999
 30
0.0
 40
8.57526
100
AcDbArc
 50
247.8281799999999
 51
258.01527
  0
LINE
  5
366
330
1E
100
AcDbEntity
  8
1
  6
CONTINUOUS
 62
     7
100
AcDbLine
 10
-69.74325999999999
 20
-165.1476399999999
 30
0.0
 11
-69.90186
 21
-163.5060399999999
 31
0.0
  0
LINE
  5
367
330
1E
100
AcDbEntity
  8
1
  6
CONTINUOUS
 62
     7
100
AcDbLine
 10
-69.46555
 20
-164.66951
 30
0.0
 11
-69.90099999999999
 21
-163.506
 31
0.0
  0
LINE
  5
368
330
1E
100
AcDbEntity
  8
1
  6
CONTINUOUS
 62
     7
100
AcDbLine
 10
-69.90099999999999
 20
-163.506
 30
0.0
 11
-70.10564999999999
 21
-164.7313499999999
 31
0.0
  0
LINE
  5
369
330
1E
100
AcDbEntity
  8
1
  6
CONTINUOUS
 62
     7
100
AcDbLine
 10
-63.03899999999998
 20
-171.90858
 30
0.0
 11
-61.3266
 21
-172.0812999999999
 31
0.0
  0
LINE
  5
36A
330
1E
100
AcDbEntity
  8
1
  6
CONTINUOUS
 62
     7
100
AcDbLine
 10
-62.55220999999998
 20
-172.28048
 30
0.0
 11
-61.326
 21
-172.0809999999999
 31
0.0
  0
LINE
  5
36B
330
1E
100
AcDbEntity
  8
1
  6
CONTINUOUS
 62
     7
100
AcDbLine
 10
-61.326
 20
-172.0809999999999
 30
0.0
 11
-62.48766999999999
 21
-171.6406499999999
 31
0.0
  0
ARC
  5
36C
330
1E
100
AcDbEntity
  8
1
  6
CONTINUOUS
 62
     7
100
AcDbCircle
 10
-61.3266
 20
-163.5060399999999
 30
0.0
 40
8.57526
100
AcDbArc
 50
258.01527
 51
258.41701
  0
LINE
  5
36D
330
1E
100
AcDbEntity
  8
1
  6
CONTINUOUS
 62
     7
100
AcDbLine
 10
-61.3266
 20
-171.90384
 30
0.0
 11
-61.3266
 21
-171.2587599999999
 31
0.0
  0
LINE
  5
36E
330
1E
100
AcDbEntity
  8
1
  6
CONTINUOUS
 62
     7
100
AcDbLine
 10
-69.90186
 20
-163.5060399999999
 30
0.0
 11
-69.90186
 21
-159.1506799999999
 31
0.0
  0
ARC
  5
36F
330
1E
100
AcDbEntity
  8
1
  6
CONTINUOUS
 62
     7
100
AcDbCircle
 10
-61.3266
 20
-163.5060399999999
 30
0.0
 40
8.57526
100
AcDbArc
 50
191.0231699999999
 51
191.5780499999999
  0
LINE
  5
370
330
1E
100
AcDbEntity
  8
1
  6
CONTINUOUS
 62
     7
100
AcDbLine
 10
-61.3266
 20
-165.8222
 30
0.0
 11
-61.3266
 21
-163.5060399999999
 31
0.0
  0
LINE
  5
371
330
1E
100
AcDbEntity
  8
1
  6
CONTINUOUS
 62
     7
100
AcDbLine
 10
-63.88418000000001
 20
-163.5060399999999
 30
0.0
 11
-61.3266
 21
-163.5060399999999
 31
0.0
  0
TEXT
  5
372
330
1E
100
AcDbEntity
  8
1
  6
CONTINUOUS
 62
     7
100
AcDbText
 10
-61.00114
 20
-163.88418
 30
0.0
 40
3.2
  1
Ｒ
 50
2.0
  7
BIGFONT
100
AcDbText
  0
TEXT
  5
373
330
1E
100
AcDbEntity
  8
1
  6
CONTINUOUS
 62
     7
100
AcDbText
 10
-68.8044
 20
-167.1118199999999
 30
0.0
 40
3.2
  1
Ｌ
 50
315.0
  7
BIGFONT
100
AcDbText
  0
TEXT
  5
374
330
1E
100
AcDbEntity
  8
1
  6
CONTINUOUS
 62
     7
100
AcDbText
 10
-66.60288
 20
-169.0765
 30
0.0
 40
2.2
  1
２
 50
315.0
 41
1.1363636
  7
BIGFONT
100
AcDbText
  0
TEXT
  5
375
330
1E
100
AcDbEntity
  8
1
  6
CONTINUOUS
 62
     7
100
AcDbText
 10
-49.76300000000001
 20
-171.45878
 30
0.0
 40
3.2
  1
Ｌ
  7
BIGFONT
100
AcDbText
  0
TEXT
  5
376
330
1E
100
AcDbEntity
  8
1
  6
CONTINUOUS
 62
     7
100
AcDbText
 10
-46.75324
 20
-171.2827
 30
0.0
 40
2.2
  1
１
 41
1.1363636
  7
BIGFONT
100
AcDbText
  0
TEXT
  5
377
330
1E
100
AcDbEntity
  8
1
  6
CONTINUOUS
 62
     7
100
AcDbText
 10
-70.34824
 20
-154.4086599999999
 30
0.0
 40
3.2
  1
Ｌ
 50
90.0
  7
BIGFONT
100
AcDbText
  0
TEXT
  5
378
330
1E
100
AcDbEntity
  8
1
  6
CONTINUOUS
 62
     7
100
AcDbText
 10
-70.51695999999998
 20
-151.47782
 30
0.0
 40
2.2
  1
３
 50
90.0
 41
1.1363636
  7
BIGFONT
100
AcDbText
  0
CIRCLE
  5
379
330
1E
100
AcDbEntity
  8
1
  6
CONTINUOUS
 62
     7
100
AcDbCircle
 10
-226.2117799999999
 20
-149.0139399999999
 30
0.0
 40
2.497799999999998
  0
TEXT
  5
37A
330
1E
100
AcDbEntity
  8
1
  6
CONTINUOUS
 62
     7
100
AcDbText
 10
-227.74502
 20
-150.81332
 30
0.0
 40
3.2
  1
１
  7
BIGFONT
100
AcDbText
  0
LINE
  5
37B
330
1E
100
AcDbEntity
  8
1
  6
CONTINUOUS
 62
     7
100
AcDbLine
 10
-231.0633399999999
 20
-151.5321
 30
0.0
 11
-220.52626
 21
-151.5321
 31
0.0
  0
LINE
  5
37C
330
1E
100
AcDbEntity
  8
1
  6
CONTINUOUS
 62
     7
100
AcDbLine
 10
-53.47658
 20
-152.78502
 30
0.0
 11
-40.90264
 21
-152.78502
 31
0.0
  0
CIRCLE
  5
37D
330
1E
100
AcDbEntity
  8
1
  6
CONTINUOUS
 62
     7
100
AcDbCircle
 10
-190.5273799999999
 20
-154.36506
 30
0.0
 40
2.497799999999998
  0
CIRCLE
  5
37E
330
1E
100
AcDbEntity
  8
1
  6
CONTINUOUS
 62
     7
100
AcDbCircle
 10
-138.8346199999999
 20
-151.84316
 30
0.0
 40
2.497799999999998
  0
CIRCLE
  5
37F
330
1E
100
AcDbEntity
  8
1
  6
CONTINUOUS
 62
     7
100
AcDbCircle
 10
-97.86982
 20
-129.0670199999997
 30
0.0
 40
2.497799999999998
  0
CIRCLE
  5
380
330
1E
100
AcDbEntity
  8
1
  6
CONTINUOUS
 62
     7
100
AcDbCircle
 10
-49.69308
 20
-150.2774999999999
 30
0.0
 40
2.497799999999998
  0
CIRCLE
  5
381
330
1E
100
AcDbEntity
  8
1
  6
CONTINUOUS
 62
     7
100
AcDbCircle
 10
-44.69838
 20
-150.22762
 30
0.0
 40
2.497799999999998
  0
TEXT
  5
382
330
1E
100
AcDbEntity
  8
1
  6
CONTINUOUS
 62
     7
100
AcDbText
 10
-192.05928
 20
-156.15038
 30
0.0
 40
3.2
  1
２
  7
BIGFONT
100
AcDbText
  0
TEXT
  5
383
330
1E
100
AcDbEntity
  8
1
  6
CONTINUOUS
 62
     7
100
AcDbText
 10
-140.3673799999999
 20
-153.65878
 30
0.0
 40
3.2
  1
３
  7
BIGFONT
100
AcDbText
  0
TEXT
  5
384
330
1E
100
AcDbEntity
  8
1
  6
CONTINUOUS
 62
     7
100
AcDbText
 10
-99.48168000000002
 20
-130.87072
 30
0.0
 40
3.2
  1
４
  7
BIGFONT
100
AcDbText
  0
TEXT
  5
385
330
1E
100
AcDbEntity
  8
1
  6
CONTINUOUS
 62
     7
100
AcDbText
 10
-51.19512
 20
-152.10884
 30
0.0
 40
3.2
  1
５
  7
BIGFONT
100
AcDbText
  0
TEXT
  5
386
330
1E
100
AcDbEntity
  8
1
  6
CONTINUOUS
 62
     7
100
AcDbText
 10
-46.29838
 20
-152.05438
 30
0.0
 40
3.2
  1
６
  7
BIGFONT
100
AcDbText
  0
LINE
  5
387
330
1E
100
AcDbEntity
  8
1
  6
CONTINUOUS
 62
     7
100
AcDbLine
 10
-103.0526599999999
 20
-131.56482
 30
0.0
 11
-92.9128
 21
-131.56482
 31
0.0
  0
LINE
  5
388
330
1E
100
AcDbEntity
  8
1
  6
CONTINUOUS
 62
     7
100
AcDbLine
 10
-195.46672
 20
-156.8623199999999
 30
0.0
 11
-184.9296399999999
 21
-156.8623199999999
 31
0.0
  0
LINE
  5
389
330
1E
100
AcDbEntity
  8
1
  6
CONTINUOUS
 62
     7
100
AcDbLine
 10
-143.7220399999999
 20
-154.3409599999999
 30
0.0
 11
-133.18496
 21
-154.3409599999999
 31
0.0
  0
TEXT
  5
38A
330
1E
100
AcDbEntity
  8
1
  6
CONTINUOUS
 62
     7
100
AcDbText
 10
-244.44458
 20
-149.8819399999999
 30
0.0
 40
3.2
  1
Ｌ
 50
90.0
  7
BIGFONT
100
AcDbText
  0
TEXT
  5
38B
330
1E
100
AcDbEntity
  8
1
  6
CONTINUOUS
 62
     7
100
AcDbText
 10
-244.62066
 20
-146.87218
 30
0.0
 40
2.2
  1
１
 50
90.0
 41
1.1363636
  7
BIGFONT
100
AcDbText
  0
LINE
  5
38C
330
1E
100
AcDbEntity
  8
0
  6
CONTINUOUS
 62
     7
100
AcDbLine
 10
217.5
 20
-69.05155
 30
0.0
 11
217.5
 21
-31.55155
 31
0.0
  0
LINE
  5
38D
330
1E
100
AcDbEntity
  8
0
  6
CONTINUOUS
 62
     7
100
AcDbLine
 10
215.4549499999999
 20
-87.00650000000001
 30
0.0
 11
225.4549499999999
 21
-77.0065
 31
0.0
  0
LINE
  5
38E
330
1E
100
AcDbEntity
  8
0
  6
CONTINUOUS
 62
     7
100
AcDbLine
 10
218.2071
 20
-69.75865
 30
0.0
 11
226.0206299999999
 21
-77.57218
 31
0.0
  0
LINE
  5
38F
330
1E
100
AcDbEntity
  8
0
  6
CONTINUOUS
 62
     7
100
AcDbLine
 10
208.2071
 20
-79.75865
 30
0.0
 11
216.02063
 21
-87.57217999999998
 31
0.0
  0
LINE
  5
390
330
1E
100
AcDbEntity
  8
0
  6
CONTINUOUS
 62
     7
100
AcDbLine
 10
224.8328299999999
 20
-78.08189
 30
0.0
 11
225.4539999999999
 21
-77.006
 31
0.0
  0
LINE
  5
391
330
1E
100
AcDbEntity
  8
0
  6
CONTINUOUS
 62
     7
100
AcDbLine
 10
225.4539999999999
 20
-77.006
 30
0.0
 11
224.3780999999999
 21
-77.62716000000001
 31
0.0
  0
LINE
  5
392
330
1E
100
AcDbEntity
  8
0
  6
CONTINUOUS
 62
     7
100
AcDbLine
 10
216.07516
 20
-85.93009999999997
 30
0.0
 11
215.454
 21
-87.00599999999999
 31
0.0
  0
LINE
  5
393
330
1E
100
AcDbEntity
  8
0
  6
CONTINUOUS
 62
     7
100
AcDbLine
 10
215.454
 20
-87.00599999999999
 30
0.0
 11
216.5298899999999
 21
-86.38483
 31
0.0
  0
TEXT
  5
394
330
1E
100
AcDbEntity
  8
0
  6
CONTINUOUS
 62
     7
100
AcDbText
 10
217.41439
 20
-84.48137
 30
0.0
 40
3.2
  1
283
 50
45.0
 41
0.8125
  7
BIGFONT
100
AcDbText
  0
LINE
  5
395
330
1E
100
AcDbEntity
  8
0
  6
CONTINUOUS
 62
     7
100
AcDbLine
 10
-93.625
 20
-79.05155
 30
0.0
 11
-56.125
 21
-79.05155
 31
0.0
  0
LINE
  5
396
330
1E
100
AcDbEntity
  8
0
  6
CONTINUOUS
 62
     7
100
AcDbLine
 10
-46.12499999999999
 20
-69.05155
 30
0.0
 11
-46.12499999999999
 21
-31.55155
 31
0.0
  0
LINE
  5
397
330
1E
100
AcDbEntity
  8
0
  6
CONTINUOUS
 62
     7
100
AcDbLine
 10
-212.4845
 20
-79.05155
 30
0.0
 11
-174.9845
 21
-79.05155
 31
0.0
  0
LINE
  5
398
330
1E
100
AcDbEntity
  8
0
  6
CONTINUOUS
 62
     7
100
AcDbLine
 10
-164.9845
 20
-69.05155
 30
0.0
 11
-164.9845
 21
-31.55155
 31
0.0
  0
LINE
  5
399
330
1E
100
AcDbEntity
  8
0
  6
CONTINUOUS
 62
     7
100
AcDbLine
 10
185.0
 20
70.8819
 30
0.0
 11
185.0
 21
73.3819
 31
0.0
  0
LINE
  5
39A
330
1E
100
AcDbEntity
  8
0
  6
CONTINUOUS
 62
     7
100
AcDbLine
 10
185.0
 20
73.3819
 30
0.0
 11
217.5
 21
73.3819
 31
0.0
  0
CIRCLE
  5
39B
330
1E
100
AcDbEntity
  8
0
  6
CONTINUOUS
 62
     7
100
AcDbCircle
 10
51.16025
 20
127.349
 30
0.0
 40
2.5
  0
TEXT
  5
39C
330
1E
100
AcDbEntity
  8
0
  6
CONTINUOUS
 62
     7
100
AcDbText
 10
49.67185
 20
125.61655
 30
0.0
 40
3.2
  1
５
  7
BIGFONT
100
AcDbText
  0
TEXT
  5
39D
330
1E
100
AcDbEntity
  8
0
  6
CONTINUOUS
 62
     7
100
AcDbText
 10
55.95195
 20
88.7828
 30
0.0
 40
3.2
  1
D10
  7
BIGFONT
100
AcDbText
  0
LINE
  5
39E
330
1E
100
AcDbEntity
  8
0
  6
CONTINUOUS
 62
     7
100
AcDbLine
 10
49.75744999999999
 20
87.9906
 30
0.0
 11
64.75745
 21
87.9906
 31
0.0
  0
CIRCLE
  5
39F
330
1E
100
AcDbEntity
  8
0
  6
CONTINUOUS
 62
     7
100
AcDbCircle
 10
24.30379999999999
 20
94.98675
 30
0.0
 40
2.5
  0
TEXT
  5
3A0
330
1E
100
AcDbEntity
  8
0
  6
CONTINUOUS
 62
     7
100
AcDbText
 10
26.0393
 20
93.4703
 30
0.0
 40
3.2
  1
６
 50
90.0
  7
BIGFONT
100
AcDbText
  0
TEXT
  5
3A1
330
1E
100
AcDbEntity
  8
0
  6
CONTINUOUS
 62
     7
100
AcDbText
 10
25.92875
 20
98.18944999999999
 30
0.0
 40
3.2
  1
D10
 50
90.0
  7
BIGFONT
100
AcDbText
  0
LINE
  5
3A2
330
1E
100
AcDbEntity
  8
0
  6
CONTINUOUS
 62
     7
100
AcDbLine
 10
26.80039999999999
 20
91.63845
 30
0.0
 11
26.80039999999999
 21
106.63845
 31
0.0
  0
CIRCLE
  5
3A3
330
1E
100
AcDbEntity
  8
0
  6
CONTINUOUS
 62
     7
100
AcDbCircle
 10
52.65945
 20
90.48444999999999
 30
0.0
 40
2.5
  0
TEXT
  5
3A4
330
1E
100
AcDbEntity
  8
0
  6
CONTINUOUS
 62
     7
100
AcDbText
 10
51.011
 20
88.77435
 30
0.0
 40
3.2
  1
４
  7
BIGFONT
100
AcDbText
  0
CIRCLE
  5
3A5
330
1E
100
AcDbEntity
  8
0
  6
CONTINUOUS
 62
     7
100
AcDbCircle
 10
24.3052
 20
74.43229999999998
 30
0.0
 40
2.5
  0
TEXT
  5
3A6
330
1E
100
AcDbEntity
  8
0
  6
CONTINUOUS
 62
     7
100
AcDbText
 10
26.0434
 20
72.87805
 30
0.0
 40
3.2
  1
３
 50
90.0
  7
BIGFONT
100
AcDbText
  0
TEXT
  5
3A7
330
1E
100
AcDbEntity
  8
0
  6
CONTINUOUS
 62
     7
100
AcDbText
 10
25.93094999999999
 20
78.0255
 30
0.0
 40
3.2
  1
D10
 50
90.0
  7
BIGFONT
100
AcDbText
  0
LINE
  5
3A8
330
1E
100
AcDbEntity
  8
0
  6
CONTINUOUS
 62
     7
100
AcDbLine
 10
26.8026
 20
71.4745
 30
0.0
 11
26.8026
 21
86.4745
 31
0.0
  0
CIRCLE
  5
3A9
330
1E
100
AcDbEntity
  8
0
  6
CONTINUOUS
 62
     7
100
AcDbCircle
 10
68.48985
 20
81.0092
 30
0.0
 40
2.5
  0
TEXT
  5
3AA
330
1E
100
AcDbEntity
  8
0
  6
CONTINUOUS
 62
     7
100
AcDbText
 10
66.9319
 20
79.4153
 30
0.0
 40
3.2
  1
２
  7
BIGFONT
100
AcDbText
  0
CIRCLE
  5
3AB
330
1E
100
AcDbEntity
  8
0
  6
CONTINUOUS
 62
     7
100
AcDbCircle
 10
55.65705
 20
57.4354
 30
0.0
 40
2.5
  0
TEXT
  5
3AC
330
1E
100
AcDbEntity
  8
0
  6
CONTINUOUS
 62
     7
100
AcDbText
 10
54.1028
 20
55.6972
 30
0.0
 40
3.2
  1
３
  7
BIGFONT
100
AcDbText
  0
TEXT
  5
3AD
330
1E
100
AcDbEntity
  8
0
  6
CONTINUOUS
 62
     7
100
AcDbText
 10
59.25025
 20
55.80964999999999
 30
0.0
 40
3.2
  1
D10
  7
BIGFONT
100
AcDbText
  0
LINE
  5
3AE
330
1E
100
AcDbEntity
  8
0
  6
CONTINUOUS
 62
     7
100
AcDbLine
 10
52.69925
 20
54.938
 30
0.0
 11
67.69925
 21
54.938
 31
0.0
  0
TEXT
  5
3AF
330
1E
100
AcDbEntity
  8
0
  6
CONTINUOUS
 62
     7
100
AcDbText
 10
72.29734999999998
 20
79.23905000000002
 30
0.0
 40
3.2
  1
D10
  7
BIGFONT
100
AcDbText
  0
LINE
  5
3B0
330
1E
100
AcDbEntity
  8
0
  6
CONTINUOUS
 62
     7
100
AcDbLine
 10
65.6931
 20
78.4759
 30
0.0
 11
80.69309999999999
 21
78.4759
 31
0.0
  0
TEXT
  5
3B1
330
1E
100
AcDbEntity
  8
0
  6
CONTINUOUS
 62
     7
100
AcDbText
 10
54.2141
 20
125.6649
 30
0.0
 40
3.2
  1
D10
  7
BIGFONT
100
AcDbText
  0
LINE
  5
3B2
330
1E
100
AcDbEntity
  8
0
  6
CONTINUOUS
 62
     7
100
AcDbLine
 10
48.1696
 20
124.8726999999999
 30
0.0
 11
63.1696
 21
124.8726999999999
 31
0.0
  0
CIRCLE
  5
3B3
330
1E
100
AcDbEntity
  8
0
  6
CONTINUOUS
 62
     7
100
AcDbCircle
 10
-187.122
 20
107.8912
 30
0.0
 40
2.5
  0
TEXT
  5
3B4
330
1E
100
AcDbEntity
  8
0
  6
CONTINUOUS
 62
     7
100
AcDbText
 10
-188.63845
 20
106.1557
 30
0.0
 40
3.2
  1
６
  7
BIGFONT
100
AcDbText
  0
TEXT
  5
3B5
330
1E
100
AcDbEntity
  8
0
  6
CONTINUOUS
 62
     7
100
AcDbText
 10
-183.86545
 20
106.2689999999999
 30
0.0
 40
3.2
  1
D10
  7
BIGFONT
100
AcDbText
  0
LINE
  5
3B6
330
1E
100
AcDbEntity
  8
0
  6
CONTINUOUS
 62
     7
100
AcDbLine
 10
-190.56645
 20
105.4026499999999
 30
0.0
 11
-175.5664499999999
 21
105.4026499999999
 31
0.0
  0
CIRCLE
  5
3B7
330
1E
100
AcDbEntity
  8
0
  6
CONTINUOUS
 62
     7
100
AcDbCircle
 10
-155.7263499999999
 20
92.92100000000001
 30
0.0
 40
2.5
  0
CIRCLE
  5
3B8
330
1E
100
AcDbEntity
  8
0
  6
CONTINUOUS
 62
     7
100
AcDbCircle
 10
-155.7470999999999
 20
61.5955
 30
0.0
 40
2.5
  0
TEXT
  5
3B9
330
1E
100
AcDbEntity
  8
0
  6
CONTINUOUS
 62
     7
100
AcDbText
 10
-153.9881499999999
 20
91.36675
 30
0.0
 40
3.2
  1
３
 50
90.0
  7
BIGFONT
100
AcDbText
  0
TEXT
  5
3BA
330
1E
100
AcDbEntity
  8
0
  6
CONTINUOUS
 62
     7
100
AcDbText
 10
-154.037
 20
59.94704999999999
 30
0.0
 40
3.2
  1
４
 50
90.0
  7
BIGFONT
100
AcDbText
  0
TEXT
  5
3BB
330
1E
100
AcDbEntity
  8
0
  6
CONTINUOUS
 62
     7
100
AcDbText
 10
-154.115
 20
96.1973
 30
0.0
 40
3.2
  1
D10
 50
90.0
  7
BIGFONT
100
AcDbText
  0
LINE
  5
3BC
330
1E
100
AcDbEntity
  8
0
  6
CONTINUOUS
 62
     7
100
AcDbLine
 10
-153.24865
 20
89.29630000000001
 30
0.0
 11
-153.24865
 21
104.2963
 31
0.0
  0
TEXT
  5
3BD
330
1E
100
AcDbEntity
  8
0
  6
CONTINUOUS
 62
     7
100
AcDbText
 10
-154.115
 20
64.81555
 30
0.0
 40
3.2
  1
D10
 50
90.0
  7
BIGFONT
100
AcDbText
  0
LINE
  5
3BE
330
1E
100
AcDbEntity
  8
0
  6
CONTINUOUS
 62
     7
100
AcDbLine
 10
-153.24865
 20
58.96455
 30
0.0
 11
-153.24865
 21
73.96455
 31
0.0
  0
CIRCLE
  5
3BF
330
1E
100
AcDbEntity
  8
0
  6
CONTINUOUS
 62
     7
100
AcDbCircle
 10
-192.48785
 20
-86.57245000000001
 30
0.0
 40
2.5
  0
CIRCLE
  5
3C0
330
1E
100
AcDbEntity
  8
0
  6
CONTINUOUS
 62
     7
100
AcDbCircle
 10
-215.33795
 20
-86.56874999999997
 30
0.0
 40
2.5
  0
TEXT
  5
3C1
330
1E
100
AcDbEntity
  8
0
  6
CONTINUOUS
 62
     7
100
AcDbText
 10
-194.0421
 20
-88.31065
 30
0.0
 40
3.2
  1
３
  7
BIGFONT
100
AcDbText
  0
TEXT
  5
3C2
330
1E
100
AcDbEntity
  8
0
  6
CONTINUOUS
 62
     7
100
AcDbText
 10
-216.9864
 20
-88.27885
 30
0.0
 40
3.2
  1
４
  7
BIGFONT
100
AcDbText
  0
TEXT
  5
3C3
330
1E
100
AcDbEntity
  8
0
  6
CONTINUOUS
 62
     7
100
AcDbText
 10
-189.2115499999999
 20
-88.18380000000002
 30
0.0
 40
3.2
  1
D10
  7
BIGFONT
100
AcDbText
  0
LINE
  5
3C4
330
1E
100
AcDbEntity
  8
0
  6
CONTINUOUS
 62
     7
100
AcDbLine
 10
-195.71255
 20
-89.05015
 30
0.0
 11
-180.7125499999999
 21
-89.05015
 31
0.0
  0
TEXT
  5
3C5
330
1E
100
AcDbEntity
  8
0
  6
CONTINUOUS
 62
     7
100
AcDbText
 10
-212.1179
 20
-88.20085
 30
0.0
 40
3.2
  1
D10
  7
BIGFONT
100
AcDbText
  0
LINE
  5
3C6
330
1E
100
AcDbEntity
  8
0
  6
CONTINUOUS
 62
     7
100
AcDbLine
 10
-217.9688999999999
 20
-89.06719999999998
 30
0.0
 11
-202.9688999999999
 21
-89.06719999999998
 31
0.0
  0
CIRCLE
  5
3C7
330
1E
100
AcDbEntity
  8
0
  6
CONTINUOUS
 62
     7
100
AcDbCircle
 10
-155.77635
 20
-61.1491
 30
0.0
 40
2.5
  0
CIRCLE
  5
3C8
330
1E
100
AcDbEntity
  8
0
  6
CONTINUOUS
 62
     7
100
AcDbCircle
 10
-155.7971
 20
-37.6807
 30
0.0
 40
2.5
  0
TEXT
  5
3C9
330
1E
100
AcDbEntity
  8
0
  6
CONTINUOUS
 62
     7
100
AcDbText
 10
-154.03815
 20
-62.70335
 30
0.0
 40
3.2
  1
３
 50
90.0
  7
BIGFONT
100
AcDbText
  0
TEXT
  5
3CA
330
1E
100
AcDbEntity
  8
0
  6
CONTINUOUS
 62
     7
100
AcDbText
 10
-154.0869999999999
 20
-39.32914999999999
 30
0.0
 40
3.2
  1
４
 50
90.0
  7
BIGFONT
100
AcDbText
  0
TEXT
  5
3CB
330
1E
100
AcDbEntity
  8
0
  6
CONTINUOUS
 62
     7
100
AcDbText
 10
-154.1649999999999
 20
-57.87279999999999
 30
0.0
 40
3.2
  1
D10
 50
90.0
  7
BIGFONT
100
AcDbText
  0
LINE
  5
3CC
330
1E
100
AcDbEntity
  8
0
  6
CONTINUOUS
 62
     7
100
AcDbLine
 10
-153.24865
 20
-63.7738
 30
0.0
 11
-153.24865
 21
-48.7738
 31
0.0
  0
TEXT
  5
3CD
330
1E
100
AcDbEntity
  8
0
  6
CONTINUOUS
 62
     7
100
AcDbText
 10
-154.1649999999999
 20
-34.46065
 30
0.0
 40
3.2
  1
D10
 50
90.0
  7
BIGFONT
100
AcDbText
  0
LINE
  5
3CE
330
1E
100
AcDbEntity
  8
0
  6
CONTINUOUS
 62
     7
100
AcDbLine
 10
-153.24865
 20
-41.16165
 30
0.0
 11
-153.24865
 21
-26.16165
 31
0.0
  0
CIRCLE
  5
3CF
330
1E
100
AcDbEntity
  8
0
  6
CONTINUOUS
 62
     7
100
AcDbCircle
 10
-69.51055
 20
127.38285
 30
0.0
 40
2.5
  0
TEXT
  5
3D0
330
1E
100
AcDbEntity
  8
0
  6
CONTINUOUS
 62
     7
100
AcDbText
 10
-70.99895
 20
125.6504
 30
0.0
 40
3.2
  1
５
  7
BIGFONT
100
AcDbText
  0
TEXT
  5
3D1
330
1E
100
AcDbEntity
  8
0
  6
CONTINUOUS
 62
     7
100
AcDbText
 10
-66.0567
 20
125.64875
 30
0.0
 40
3.2
  1
D10
  7
BIGFONT
100
AcDbText
  0
LINE
  5
3D2
330
1E
100
AcDbEntity
  8
0
  6
CONTINUOUS
 62
     7
100
AcDbLine
 10
-72.3508
 20
124.8863999999999
 30
0.0
 11
-57.35079999999999
 21
124.8863999999999
 31
0.0
  0
CIRCLE
  5
3D3
330
1E
100
AcDbEntity
  8
0
  6
CONTINUOUS
 62
     7
100
AcDbCircle
 10
-103.65765
 20
-54.5071
 30
0.0
 40
2.5
  0
TEXT
  5
3D4
330
1E
100
AcDbEntity
  8
0
  6
CONTINUOUS
 62
     7
100
AcDbText
 10
-102.07215
 20
-56.02355
 30
0.0
 40
3.2
  1
６
 50
90.0
  7
BIGFONT
100
AcDbText
  0
TEXT
  5
3D5
330
1E
100
AcDbEntity
  8
0
  6
CONTINUOUS
 62
     7
100
AcDbText
 10
-43.0921
 20
-79.17374999999998
 30
0.0
 40
3.2
  1
７
 50
45.0
  7
BIGFONT
100
AcDbText
  0
CIRCLE
  5
3D6
330
1E
100
AcDbEntity
  8
0
  6
CONTINUOUS
 62
     7
100
AcDbCircle
 10
-43.27029999999999
 20
-76.78315000000002
 30
0.0
 40
2.5
  0
TEXT
  5
3D7
330
1E
100
AcDbEntity
  8
0
  6
CONTINUOUS
 62
     7
100
AcDbText
 10
-102.03545
 20
-51.25054999999999
 30
0.0
 40
3.2
  1
D10
 50
90.0
  7
BIGFONT
100
AcDbText
  0
LINE
  5
3D8
330
1E
100
AcDbEntity
  8
0
  6
CONTINUOUS
 62
     7
100
AcDbLine
 10
-101.1190999999999
 20
-57.80155
 30
0.0
 11
-101.1190999999999
 21
-42.80154999999999
 31
0.0
  0
TEXT
  5
3D9
330
1E
100
AcDbEntity
  8
0
  6
CONTINUOUS
 62
     7
100
AcDbText
 10
-39.69315
 20
-75.77424999999998
 30
0.0
 40
3.2
  1
D10
 50
45.0
  7
BIGFONT
100
AcDbText
  0
LINE
  5
3DA
330
1E
100
AcDbEntity
  8
0
  6
CONTINUOUS
 62
     7
100
AcDbLine
 10
-43.97725
 20
-81.05119999999997
 30
0.0
 11
-33.37064999999999
 21
-70.44459999999998
 31
0.0
  0
LINE
  5
3DB
330
1E
100
AcDbEntity
  8
0
  6
CONTINUOUS
 62
     1
100
AcDbLine
 10
-91.125
 20
80.63639999999997
 30
0.0
 11
-49.875
 21
80.63639999999997
 31
0.0
  0
LINE
  5
3DC
330
1E
100
AcDbEntity
  8
0
  6
CONTINUOUS
 62
     1
100
AcDbLine
 10
-91.125
 20
93.13639999999999
 30
0.0
 11
-49.875
 21
93.13639999999999
 31
0.0
  0
LINE
  5
3DD
330
1E
100
AcDbEntity
  8
0
  6
CONTINUOUS
 62
     1
100
AcDbLine
 10
-91.125
 20
105.6363999999999
 30
0.0
 11
-49.875
 21
105.6363999999999
 31
0.0
  0
LINE
  5
3DE
330
1E
100
AcDbEntity
  8
0
  6
CONTINUOUS
 62
     1
100
AcDbLine
 10
-49.875
 20
67.0364
 30
0.0
 11
-49.875
 21
112.3819
 31
0.0
  0
LINE
  5
3DF
330
1E
100
AcDbEntity
  8
0
  6
CONTINUOUS
 62
     1
100
AcDbLine
 10
-78.625
 20
67.0364
 30
0.0
 11
-78.625
 21
112.3819
 31
0.0
  0
LINE
  5
3E0
330
1E
100
AcDbEntity
  8
0
  6
CONTINUOUS
 62
     1
100
AcDbLine
 10
-66.125
 20
67.0364
 30
0.0
 11
-66.125
 21
112.3819
 31
0.0
  0
LINE
  5
3E1
330
1E
100
AcDbEntity
  8
0
  6
DASHED
 62
     1
100
AcDbLine
 10
-196.9839
 20
67.01055
 30
0.0
 11
-196.9839
 21
77.81055000000002
 31
0.0
  0
LINE
  5
3E2
330
1E
100
AcDbEntity
  8
0
  6
CONTINUOUS
 62
     1
100
AcDbLine
 10
-197.4839
 20
67.0364
 30
0.0
 11
-197.4839
 21
94.8864
 31
0.0
  0
LINE
  5
3E3
330
1E
100
AcDbEntity
  8
0
  6
DASHED
 62
     1
100
AcDbLine
 10
-184.4839
 20
67.01055
 30
0.0
 11
-184.4839
 21
77.81055000000002
 31
0.0
  0
LINE
  5
3E4
330
1E
100
AcDbEntity
  8
0
  6
CONTINUOUS
 62
     1
100
AcDbLine
 10
-184.9839
 20
67.0364
 30
0.0
 11
-184.9839
 21
94.8864
 31
0.0
  0
TEXT
  5
3E5
330
1E
100
AcDbEntity
  8
0
  6
CONTINUOUS
 62
     7
100
AcDbText
 10
-203.1640499999999
 20
47.79444999999999
 30
0.0
 40
3.2
  1
3×250=750
  7
BIGFONT
100
AcDbText
  0
LINE
  5
3E6
330
1E
100
AcDbEntity
  8
0
  6
CONTINUOUS
 62
     7
100
AcDbLine
 10
-184.9839
 20
89.29630000000001
 30
0.0
 11
-197.4839
 21
89.29630000000001
 31
0.0
  0
LINE
  5
3E7
330
1E
100
AcDbEntity
  8
0
  6
CONTINUOUS
 62
     7
100
AcDbLine
 10
-196.2829999999999
 20
89.61752999999999
 30
0.0
 11
-197.483
 21
89.296
 31
0.0
  0
LINE
  5
3E8
330
1E
100
AcDbEntity
  8
0
  6
CONTINUOUS
 62
     7
100
AcDbLine
 10
-197.483
 20
89.296
 30
0.0
 11
-196.2829999999999
 21
88.97446
 31
0.0
  0
LINE
  5
3E9
330
1E
100
AcDbEntity
  8
0
  6
CONTINUOUS
 62
     7
100
AcDbLine
 10
-153.24865
 20
73.96455
 30
0.0
 11
-184.4839
 21
73.96455
 31
0.0
  0
LINE
  5
3EA
330
1E
100
AcDbEntity
  8
0
  6
CONTINUOUS
 62
     7
100
AcDbLine
 10
-183.2829999999999
 20
74.28553
 30
0.0
 11
-184.4829999999999
 21
73.96399999999998
 31
0.0
  0
LINE
  5
3EB
330
1E
100
AcDbEntity
  8
0
  6
CONTINUOUS
 62
     7
100
AcDbLine
 10
-184.4829999999999
 20
73.96399999999998
 30
0.0
 11
-183.2829999999999
 21
73.64246
 31
0.0
  0
LINE
  5
3EC
330
1E
100
AcDbEntity
  8
0
  6
CONTINUOUS
 62
     7
100
AcDbLine
 10
-222.4839
 20
64.8819
 30
0.0
 11
-222.4839
 21
69.1023
 31
0.0
  0
LINE
  5
3ED
330
1E
100
AcDbEntity
  8
0
  6
CONTINUOUS
 62
     7
100
AcDbLine
 10
-213.4838999999999
 20
69.1023
 30
0.0
 11
-223.2838999999999
 21
69.1023
 31
0.0
  0
LINE
  5
3EE
330
1E
100
AcDbEntity
  8
0
  6
CONTINUOUS
 62
     7
100
AcDbLine
 10
-217.8635499999999
 20
64.8819
 30
0.0
 11
-223.2838999999999
 21
64.8819
 31
0.0
  0
LINE
  5
3EF
330
1E
100
AcDbEntity
  8
0
  6
CONTINUOUS
 62
     7
100
AcDbLine
 10
-222.16146
 20
67.902
 30
0.0
 11
-222.483
 21
69.102
 31
0.0
  0
LINE
  5
3F0
330
1E
100
AcDbEntity
  8
0
  6
CONTINUOUS
 62
     7
100
AcDbLine
 10
-222.483
 20
69.102
 30
0.0
 11
-222.8045299999999
 21
67.902
 31
0.0
  0
LINE
  5
3F1
330
1E
100
AcDbEntity
  8
0
  6
CONTINUOUS
 62
     7
100
AcDbLine
 10
-222.8045299999999
 20
66.081
 30
0.0
 11
-222.483
 21
64.881
 31
0.0
  0
LINE
  5
3F2
330
1E
100
AcDbEntity
  8
0
  6
CONTINUOUS
 62
     7
100
AcDbLine
 10
-222.483
 20
64.881
 30
0.0
 11
-222.16146
 21
66.081
 31
0.0
  0
TEXT
  5
3F3
330
1E
100
AcDbEntity
  8
0
  6
CONTINUOUS
 62
     7
100
AcDbText
 10
-222.8839
 20
64.6521
 30
0.0
 40
3.2
  1
85
 50
90.0
 41
0.8125
  7
BIGFONT
100
AcDbText
  0
LINE
  5
3F4
330
1E
100
AcDbEntity
  8
0
  6
CONTINUOUS
 62
     7
100
AcDbLine
 10
-222.4839
 20
69.1023
 30
0.0
 11
-222.4839
 21
84.17315
 31
0.0
  0
LINE
  5
3F5
330
1E
100
AcDbEntity
  8
0
  6
CONTINUOUS
 62
     7
100
AcDbLine
 10
-213.3338999999998
 20
84.17315
 30
0.0
 11
-223.2838999999999
 21
84.17315
 31
0.0
  0
LINE
  5
3F6
330
1E
100
AcDbEntity
  8
0
  6
CONTINUOUS
 62
     7
100
AcDbLine
 10
-222.16146
 20
82.97299999999998
 30
0.0
 11
-222.483
 21
84.17299999999999
 31
0.0
  0
LINE
  5
3F7
330
1E
100
AcDbEntity
  8
0
  6
CONTINUOUS
 62
     7
100
AcDbLine
 10
-222.483
 20
84.17299999999999
 30
0.0
 11
-222.8045299999999
 21
82.97299999999998
 31
0.0
  0
LINE
  5
3F8
330
1E
100
AcDbEntity
  8
0
  6
CONTINUOUS
 62
     7
100
AcDbLine
 10
-222.8045299999999
 20
70.30199999999999
 30
0.0
 11
-222.483
 21
69.102
 31
0.0
  0
LINE
  5
3F9
330
1E
100
AcDbEntity
  8
0
  6
CONTINUOUS
 62
     7
100
AcDbLine
 10
-222.483
 20
69.102
 30
0.0
 11
-222.16146
 21
70.30199999999999
 31
0.0
  0
TEXT
  5
3FA
330
1E
100
AcDbEntity
  8
0
  6
CONTINUOUS
 62
     7
100
AcDbText
 10
-222.8839
 20
72.99772
 30
0.0
 40
3.2
  1
300
 50
90.0
 41
0.8125
  7
BIGFONT
100
AcDbText
  0
LINE
  5
3FB
330
1E
100
AcDbEntity
  8
0
  6
CONTINUOUS
 62
     7
100
AcDbLine
 10
-196.9839
 20
73.96455
 30
0.0
 11
-209.4838999999999
 21
73.96455
 31
0.0
  0
LINE
  5
3FC
330
1E
100
AcDbEntity
  8
0
  6
CONTINUOUS
 62
     7
100
AcDbLine
 10
-208.2829999999999
 20
74.28553
 30
0.0
 11
-209.4829999999999
 21
73.96399999999998
 31
0.0
  0
LINE
  5
3FD
330
1E
100
AcDbEntity
  8
0
  6
CONTINUOUS
 62
     7
100
AcDbLine
 10
-209.4829999999999
 20
73.96399999999998
 30
0.0
 11
-208.2829999999999
 21
73.64246
 31
0.0
  0
LINE
  5
3FE
330
1E
100
AcDbEntity
  8
0
  6
CONTINUOUS
 62
     7
100
AcDbLine
 10
-184.4839
 20
73.96455
 30
0.0
 11
-196.9839
 21
73.96455
 31
0.0
  0
LINE
  5
3FF
330
1E
100
AcDbEntity
  8
0
  6
CONTINUOUS
 62
     7
100
AcDbLine
 10
-195.7829999999999
 20
74.28553
 30
0.0
 11
-196.983
 21
73.96399999999998
 31
0.0
  0
LINE
  5
400
330
1E
100
AcDbEntity
  8
0
  6
CONTINUOUS
 62
     7
100
AcDbLine
 10
-196.983
 20
73.96399999999998
 30
0.0
 11
-195.7829999999999
 21
73.64246
 31
0.0
  0
LINE
  5
401
330
1E
100
AcDbEntity
  8
0
  6
CONTINUOUS
 62
     7
100
AcDbLine
 10
-172.4839
 20
89.29630000000001
 30
0.0
 11
-184.99175
 21
89.29630000000001
 31
0.0
  0
LINE
  5
402
330
1E
100
AcDbEntity
  8
0
  6
CONTINUOUS
 62
     7
100
AcDbLine
 10
-183.7909999999999
 20
89.61752999999999
 30
0.0
 11
-184.9909999999999
 21
89.296
 31
0.0
  0
LINE
  5
403
330
1E
100
AcDbEntity
  8
0
  6
CONTINUOUS
 62
     7
100
AcDbLine
 10
-184.9909999999999
 20
89.296
 30
0.0
 11
-183.7909999999999
 21
88.97446
 31
0.0
  0
LINE
  5
404
330
1E
100
AcDbEntity
  8
0
  6
CONTINUOUS
 62
     7
100
AcDbLine
 10
-168.2338999999998
 20
89.29630000000001
 30
0.0
 11
-172.4967499999999
 21
89.29630000000001
 31
0.0
  0
LINE
  5
405
330
1E
100
AcDbEntity
  8
0
  6
CONTINUOUS
 62
     7
100
AcDbLine
 10
-171.2959999999999
 20
89.61752999999999
 30
0.0
 11
-172.4959999999999
 21
89.296
 31
0.0
  0
LINE
  5
406
330
1E
100
AcDbEntity
  8
0
  6
CONTINUOUS
 62
     7
100
AcDbLine
 10
-172.4959999999999
 20
89.296
 30
0.0
 11
-171.2959999999999
 21
88.97446
 31
0.0
  0
LINE
  5
407
330
1E
100
AcDbEntity
  8
0
  6
CONTINUOUS
 62
     1
100
AcDbLine
 10
-57.1605
 20
-76.55155
 30
0.0
 11
-48.625
 21
-68.01605000000001
 31
0.0
  0
LINE
  5
408
330
1E
100
AcDbEntity
  8
0
  6
CONTINUOUS
 62
     1
100
AcDbLine
 10
-48.625
 20
-68.01605000000001
 30
0.0
 11
-48.625
 21
-34.30155
 31
0.0
  0
LINE
  5
409
330
1E
100
AcDbEntity
  8
0
  6
CONTINUOUS
 62
     7
100
AcDbLine
 10
-79.8699
 20
-89.04085
 30
0.0
 11
-79.8699
 21
-76.5185
 31
0.0
  0
LINE
  5
40A
330
1E
100
AcDbEntity
  8
0
  6
CONTINUOUS
 62
     7
100
AcDbLine
 10
-79.54746
 20
-77.718
 30
0.0
 11
-79.869
 21
-76.518
 31
0.0
  0
LINE
  5
40B
330
1E
100
AcDbEntity
  8
0
  6
CONTINUOUS
 62
     7
100
AcDbLine
 10
-79.869
 20
-76.518
 30
0.0
 11
-80.19053000000003
 21
-77.718
 31
0.0
  0
LINE
  5
40C
330
1E
100
AcDbEntity
  8
0
  6
CONTINUOUS
 62
     7
100
AcDbLine
 10
-34.3061
 20
-45.30154999999999
 30
0.0
 11
-48.64695
 21
-45.30154999999999
 31
0.0
  0
LINE
  5
40D
330
1E
100
AcDbEntity
  8
0
  6
CONTINUOUS
 62
     7
100
AcDbLine
 10
-47.44600000000001
 20
-44.97945999999998
 30
0.0
 11
-48.646
 21
-45.301
 31
0.0
  0
LINE
  5
40E
330
1E
100
AcDbEntity
  8
0
  6
CONTINUOUS
 62
     7
100
AcDbLine
 10
-48.646
 20
-45.301
 30
0.0
 11
-47.44600000000001
 21
-45.62253
 31
0.0
  0
LINE
  5
40F
330
1E
100
AcDbEntity
  8
0
  6
DASHED
 62
     1
100
AcDbLine
 10
-180.4845
 20
-44.49454999999999
 30
0.0
 11
-180.4845
 21
-33.70155
 31
0.0
  0
LINE
  5
410
330
1E
100
AcDbEntity
  8
0
  6
DASHED
 62
     1
100
AcDbLine
 10
-210.3345
 20
-63.55154999999999
 30
0.0
 11
-199.5415
 21
-63.55154999999999
 31
0.0
  0
LINE
  5
411
330
1E
100
AcDbEntity
  8
0
  6
CONTINUOUS
 62
     1
100
AcDbLine
 10
-210.3345
 20
-64.05155
 30
0.0
 11
-189.9845
 21
-64.05155
 31
0.0
  0
LINE
  5
412
330
1E
100
AcDbEntity
  8
0
  6
CONTINUOUS
 62
     1
100
AcDbLine
 10
-192.4844999999999
 20
-76.55155
 30
0.0
 11
-192.4844999999999
 21
-33.70155
 31
0.0
  0
LINE
  5
413
330
1E
100
AcDbEntity
  8
0
  6
CONTINUOUS
 62
     1
100
AcDbLine
 10
-210.3345
 20
-51.55155
 30
0.0
 11
-167.4844999999999
 21
-51.55155
 31
0.0
  0
LINE
  5
414
330
1E
100
AcDbEntity
  8
0
  6
CONTINUOUS
 62
     7
100
AcDbLine
 10
-195.71255
 20
-64.0626
 30
0.0
 11
-195.71255
 21
-51.55155
 31
0.0
  0
LINE
  5
415
330
1E
100
AcDbEntity
  8
0
  6
CONTINUOUS
 62
     7
100
AcDbLine
 10
-195.39046
 20
-52.75100000000001
 30
0.0
 11
-195.7119999999999
 21
-51.551
 31
0.0
  0
LINE
  5
416
330
1E
100
AcDbEntity
  8
0
  6
CONTINUOUS
 62
     7
100
AcDbLine
 10
-195.7119999999999
 20
-51.551
 30
0.0
 11
-196.03353
 21
-52.75100000000001
 31
0.0
  0
LINE
  5
417
330
1E
100
AcDbEntity
  8
0
  6
CONTINUOUS
 62
     7
100
AcDbLine
 10
-195.71255
 20
-51.5626
 30
0.0
 11
-195.71255
 21
-39.05155
 31
0.0
  0
LINE
  5
418
330
1E
100
AcDbEntity
  8
0
  6
CONTINUOUS
 62
     7
100
AcDbLine
 10
-195.39046
 20
-40.251
 30
0.0
 11
-195.7119999999999
 21
-39.051
 31
0.0
  0
LINE
  5
419
330
1E
100
AcDbEntity
  8
0
  6
CONTINUOUS
 62
     7
100
AcDbLine
 10
-195.7119999999999
 20
-39.051
 30
0.0
 11
-196.03353
 21
-40.251
 31
0.0
  0
LINE
  5
41A
330
1E
100
AcDbEntity
  8
0
  6
CONTINUOUS
 62
     7
100
AcDbLine
 10
-202.9688999999999
 20
-63.58895
 30
0.0
 11
-202.9688999999999
 21
-51.06860000000001
 31
0.0
  0
LINE
  5
41B
330
1E
100
AcDbEntity
  8
0
  6
CONTINUOUS
 62
     7
100
AcDbLine
 10
-202.64646
 20
-52.268
 30
0.0
 11
-202.9679999999999
 21
-51.06799999999999
 31
0.0
  0
LINE
  5
41C
330
1E
100
AcDbEntity
  8
0
  6
CONTINUOUS
 62
     7
100
AcDbLine
 10
-202.9679999999999
 20
-51.06799999999999
 30
0.0
 11
-203.28953
 21
-52.268
 31
0.0
  0
LINE
  5
41D
330
1E
100
AcDbEntity
  8
0
  6
DASHED
 62
     1
100
AcDbLine
 10
-210.3345
 20
-51.05154999999999
 30
0.0
 11
-199.5415
 21
-51.05154999999999
 31
0.0
  0
LINE
  5
41E
330
1E
100
AcDbEntity
  8
0
  6
CONTINUOUS
 62
     7
100
AcDbLine
 10
-180.4845
 20
-41.16165
 30
0.0
 11
-192.9845
 21
-41.16165
 31
0.0
  0
LINE
  5
41F
330
1E
100
AcDbEntity
  8
0
  6
CONTINUOUS
 62
     7
100
AcDbLine
 10
-191.7839999999999
 20
-40.83946
 30
0.0
 11
-192.984
 21
-41.161
 31
0.0
  0
LINE
  5
420
330
1E
100
AcDbEntity
  8
0
  6
CONTINUOUS
 62
     7
100
AcDbLine
 10
-192.984
 20
-41.161
 30
0.0
 11
-191.7839999999999
 21
-41.48252999999999
 31
0.0
  0
LINE
  5
421
330
1E
100
AcDbEntity
  8
0
  6
DASHED
 62
     1
100
AcDbLine
 10
-192.9845
 20
-44.49454999999999
 30
0.0
 11
-192.9845
 21
-33.70155
 31
0.0
  0
LINE
  5
422
330
1E
100
AcDbEntity
  8
0
  6
CONTINUOUS
 62
     7
100
AcDbLine
 10
-179.9844999999999
 20
-48.71265
 30
0.0
 11
-192.4844999999999
 21
-48.71265
 31
0.0
  0
LINE
  5
423
330
1E
100
AcDbEntity
  8
0
  6
CONTINUOUS
 62
     7
100
AcDbLine
 10
-191.2839999999999
 20
-48.39045999999999
 30
0.0
 11
-192.484
 21
-48.71199999999999
 31
0.0
  0
LINE
  5
424
330
1E
100
AcDbEntity
  8
0
  6
CONTINUOUS
 62
     7
100
AcDbLine
 10
-192.484
 20
-48.71199999999999
 30
0.0
 11
-191.2839999999999
 21
-49.03353
 31
0.0
  0
LINE
  5
425
330
1E
100
AcDbEntity
  8
0
  6
CONTINUOUS
 62
     7
100
AcDbLine
 10
-192.4844999999999
 20
-48.71265
 30
0.0
 11
-204.9844999999999
 21
-48.71265
 31
0.0
  0
LINE
  5
426
330
1E
100
AcDbEntity
  8
0
  6
CONTINUOUS
 62
     7
100
AcDbLine
 10
-203.784
 20
-48.39045999999999
 30
0.0
 11
-204.984
 21
-48.71199999999999
 31
0.0
  0
LINE
  5
427
330
1E
100
AcDbEntity
  8
0
  6
CONTINUOUS
 62
     7
100
AcDbLine
 10
-204.984
 20
-48.71199999999999
 30
0.0
 11
-203.784
 21
-49.03353
 31
0.0
  0
TEXT
  5
428
330
1E
100
AcDbEntity
  8
0
  6
CONTINUOUS
 62
     7
100
AcDbText
 10
-199.2913
 20
-21.14975
 30
0.0
 40
3.2
  1
3×250=750
  7
BIGFONT
100
AcDbText
  0
POINT
  5
429
330
1E
100
AcDbEntity
  8
0
  6
CONTINUOUS
 62
     1
100
AcDbPoint
 10
39.2
 20
106.6319
 30
0.0
  0
POINT
  5
42A
330
1E
100
AcDbEntity
  8
0
  6
CONTINUOUS
 62
     1
100
AcDbPoint
 10
39.2
 20
94.1319
 30
0.0
  0
POINT
  5
42B
330
1E
100
AcDbEntity
  8
0
  6
CONTINUOUS
 62
     7
100
AcDbPoint
 10
39.2
 20
81.6319
 30
0.0
  0
POINT
  5
42C
330
1E
100
AcDbEntity
  8
0
  6
CONTINUOUS
 62
     1
100
AcDbPoint
 10
39.20609999999999
 20
68.193
 30
0.0
  0
LINE
  5
42D
330
1E
100
AcDbEntity
  8
0
  6
CONTINUOUS
 62
     1
100
AcDbLine
 10
-168.7339
 20
67.0364
 30
0.0
 11
-168.7339
 21
94.8864
 31
0.0
  0
LINE
  5
42E
330
1E
100
AcDbEntity
  8
0
  6
CONTINUOUS
 62
     7
100
AcDbLine
 10
-34.369
 20
87.88639999999999
 30
0.0
 11
-49.8778
 21
87.88639999999999
 31
0.0
  0
LINE
  5
42F
330
1E
100
AcDbEntity
  8
0
  6
CONTINUOUS
 62
     7
100
AcDbLine
 10
-48.677
 20
88.20753000000001
 30
0.0
 11
-49.877
 21
87.886
 31
0.0
  0
LINE
  5
430
330
1E
100
AcDbEntity
  8
0
  6
CONTINUOUS
 62
     7
100
AcDbLine
 10
-49.877
 20
87.886
 30
0.0
 11
-48.677
 21
87.56446
 31
0.0
  0
LINE
  5
431
330
1E
100
AcDbEntity
  8
0
  6
CONTINUOUS
 62
     1
100
AcDbLine
 10
-61.125
 20
-76.55155
 30
0.0
 11
-61.125
 21
-34.30155
 31
0.0
  0
LINE
  5
432
330
1E
100
AcDbEntity
  8
0
  6
CONTINUOUS
 62
     7
100
AcDbLine
 10
-61.14695
 20
-45.30154999999999
 30
0.0
 11
-73.64695000000001
 21
-45.30154999999999
 31
0.0
  0
LINE
  5
433
330
1E
100
AcDbEntity
  8
0
  6
CONTINUOUS
 62
     7
100
AcDbLine
 10
-72.446
 20
-44.97945999999998
 30
0.0
 11
-73.646
 21
-45.301
 31
0.0
  0
LINE
  5
434
330
1E
100
AcDbEntity
  8
0
  6
CONTINUOUS
 62
     7
100
AcDbLine
 10
-73.646
 20
-45.301
 30
0.0
 11
-72.446
 21
-45.62253
 31
0.0
  0
LINE
  5
435
330
1E
100
AcDbEntity
  8
0
  6
CONTINUOUS
 62
     1
100
AcDbLine
 10
-90.7892
 20
-35.30155
 30
0.0
 11
-48.625
 21
-35.30155
 31
0.0
  0
LINE
  5
436
330
1E
100
AcDbEntity
  8
0
  6
CONTINUOUS
 62
     1
100
AcDbLine
 10
-89.875
 20
-76.55155
 30
0.0
 11
-89.875
 21
-34.38734999999999
 31
0.0
  0
LINE
  5
437
330
1E
100
AcDbEntity
  8
0
  6
CONTINUOUS
 62
     1
100
AcDbLine
 10
-90.875
 20
-64.05155
 30
0.0
 11
-48.625
 21
-64.05155
 31
0.0
  0
LINE
  5
438
330
1E
100
AcDbEntity
  8
0
  6
CONTINUOUS
 62
     7
100
AcDbLine
 10
-101.1190999999999
 20
-57.80155
 30
0.0
 11
-90.86095
 21
-57.80155
 31
0.0
  0
LINE
  5
439
330
1E
100
AcDbEntity
  8
0
  6
CONTINUOUS
 62
     7
100
AcDbLine
 10
-92.06000000000001
 20
-58.12253000000001
 30
0.0
 11
-90.86
 21
-57.801
 31
0.0
  0
LINE
  5
43A
330
1E
100
AcDbEntity
  8
0
  6
CONTINUOUS
 62
     7
100
AcDbLine
 10
-90.86
 20
-57.801
 30
0.0
 11
-92.06000000000001
 21
-57.47945999999998
 31
0.0
  0
LINE
  5
43B
330
1E
100
AcDbEntity
  8
0
  6
CONTINUOUS
 62
     7
100
AcDbLine
 10
-79.8699
 20
-51.55155
 30
0.0
 11
-79.8699
 21
-39.05155
 31
0.0
  0
LINE
  5
43C
330
1E
100
AcDbEntity
  8
0
  6
CONTINUOUS
 62
     7
100
AcDbLine
 10
-79.54746
 20
-40.251
 30
0.0
 11
-79.869
 21
-39.051
 31
0.0
  0
LINE
  5
43D
330
1E
100
AcDbEntity
  8
0
  6
CONTINUOUS
 62
     7
100
AcDbLine
 10
-79.869
 20
-39.051
 30
0.0
 11
-80.19053000000003
 21
-40.251
 31
0.0
  0
LINE
  5
43E
330
1E
100
AcDbEntity
  8
0
  6
CONTINUOUS
 62
     7
100
AcDbLine
 10
-79.8699
 20
-64.05155
 30
0.0
 11
-79.8699
 21
-51.55155
 31
0.0
  0
LINE
  5
43F
330
1E
100
AcDbEntity
  8
0
  6
CONTINUOUS
 62
     7
100
AcDbLine
 10
-79.54746
 20
-52.75100000000001
 30
0.0
 11
-79.869
 21
-51.551
 31
0.0
  0
LINE
  5
440
330
1E
100
AcDbEntity
  8
0
  6
CONTINUOUS
 62
     7
100
AcDbLine
 10
-79.869
 20
-51.551
 30
0.0
 11
-80.19053000000003
 21
-52.75100000000001
 31
0.0
  0
POINT
  5
441
330
1E
100
AcDbEntity
  8
0
  6
CONTINUOUS
 62
     1
100
AcDbPoint
 10
39.55
 20
67.56885
 30
0.0
  0
TEXT
  5
442
330
1E
100
AcDbEntity
  8
0
  6
CONTINUOUS
 62
     7
100
AcDbText
 10
-100.5845499999999
 20
-21.1438
 30
0.0
 40
3.2
  1
55
  7
BIGFONT
100
AcDbText
  0
TEXT
  5
443
330
1E
100
AcDbEntity
  8
0
  6
CONTINUOUS
 62
     7
100
AcDbText
 10
-93.21380000000001
 20
-21.1338
 30
0.0
 40
3.2
  1
20
  7
BIGFONT
100
AcDbText
  0
POINT
  5
444
330
1E
100
AcDbEntity
  8
0
  6
CONTINUOUS
 62
     7
100
AcDbPoint
 10
-90.89679999999999
 20
-21.55155
 30
0.0
  0
LINE
  5
445
330
1E
100
AcDbEntity
  8
0
  6
CONTINUOUS
 62
     7
100
AcDbLine
 10
-100.6386999999999
 20
-21.55155
 30
0.0
 11
-93.625
 21
-21.55155
 31
0.0
  0
LINE
  5
446
330
1E
100
AcDbEntity
  8
0
  6
CONTINUOUS
 62
     7
100
AcDbLine
 10
-94.82499999999999
 20
-21.87252999999999
 30
0.0
 11
-93.625
 21
-21.551
 31
0.0
  0
LINE
  5
447
330
1E
100
AcDbEntity
  8
0
  6
CONTINUOUS
 62
     7
100
AcDbLine
 10
-93.625
 20
-21.551
 30
0.0
 11
-94.82499999999999
 21
-21.22946
 31
0.0
  0
LINE
  5
448
330
1E
100
AcDbEntity
  8
0
  6
CONTINUOUS
 62
     7
100
AcDbLine
 10
-93.625
 20
-21.55155
 30
0.0
 11
-89.74079999999998
 21
-21.55155
 31
0.0
  0
LINE
  5
449
330
1E
100
AcDbEntity
  8
0
  6
CONTINUOUS
 62
     7
100
AcDbLine
 10
-90.89679999999999
 20
-30.56665
 30
0.0
 11
-90.89679999999999
 21
-20.76869999999999
 31
0.0
  0
LINE
  5
44A
330
1E
100
AcDbEntity
  8
0
  6
CONTINUOUS
 62
     1
100
AcDbLine
 10
-172.4839
 20
67.0364
 30
0.0
 11
-172.4839
 21
94.8864
 31
0.0
  0
LINE
  5
44B
330
1E
100
AcDbEntity
  8
0
  6
CONTINUOUS
 62
     1
100
AcDbLine
 10
-204.9844999999999
 20
-76.55155
 30
0.0
 11
-204.9844999999999
 21
-33.70155
 31
0.0
  0
LINE
  5
44C
330
1E
100
AcDbEntity
  8
0
  6
CONTINUOUS
 62
     1
100
AcDbLine
 10
-208.7345
 20
-76.55155
 30
0.0
 11
-208.7345
 21
-33.70155
 31
0.0
  0
LINE
  5
44D
330
1E
100
AcDbEntity
  8
0
  6
CONTINUOUS
 62
     1
100
AcDbLine
 10
-210.3345
 20
-39.05155
 30
0.0
 11
-167.4844999999999
 21
-39.05155
 31
0.0
  0
LINE
  5
44E
330
1E
100
AcDbEntity
  8
0
  6
CONTINUOUS
 62
     1
100
AcDbLine
 10
-210.3345
 20
-35.30155
 30
0.0
 11
-167.4844999999999
 21
-35.30155
 31
0.0
  0
POINT
  5
44F
330
1E
100
AcDbEntity
  8
0
  6
CONTINUOUS
 62
     1
100
AcDbPoint
 10
55.25
 20
67.49484999999999
 30
0.0
  0
LINE
  5
450
330
1E
100
AcDbEntity
  8
0
  6
CONTINUOUS
 62
     1
100
AcDbLine
 10
-167.4844999999999
 20
-54.05155
 30
0.0
 11
-167.4844999999999
 21
-33.70155
 31
0.0
  0
LINE
  5
451
330
1E
100
AcDbEntity
  8
0
  6
CONTINUOUS
 62
     1
100
AcDbLine
 10
-179.9844999999999
 20
-54.05155
 30
0.0
 11
-179.9844999999999
 21
-33.70155
 31
0.0
  0
LINE
  5
452
330
1E
100
AcDbEntity
  8
0
  6
CONTINUOUS
 62
     7
100
AcDbLine
 10
-153.24865
 20
89.29630000000001
 30
0.0
 11
-168.7448
 21
89.29630000000001
 31
0.0
  0
LINE
  5
453
330
1E
100
AcDbEntity
  8
0
  6
CONTINUOUS
 62
     7
100
AcDbLine
 10
-167.544
 20
89.61752999999999
 30
0.0
 11
-168.744
 21
89.296
 31
0.0
  0
LINE
  5
454
330
1E
100
AcDbEntity
  8
0
  6
CONTINUOUS
 62
     7
100
AcDbLine
 10
-168.744
 20
89.296
 30
0.0
 11
-167.544
 21
88.97446
 31
0.0
  0
LINE
  5
455
330
1E
100
AcDbEntity
  8
0
  6
CONTINUOUS
 62
     7
100
AcDbLine
 10
-204.9685
 20
-48.71265
 30
0.0
 11
-208.7345
 21
-48.71265
 31
0.0
  0
LINE
  5
456
330
1E
100
AcDbEntity
  8
0
  6
CONTINUOUS
 62
     7
100
AcDbLine
 10
-207.5339999999999
 20
-48.39045999999999
 30
0.0
 11
-208.734
 21
-48.71199999999999
 31
0.0
  0
LINE
  5
457
330
1E
100
AcDbEntity
  8
0
  6
CONTINUOUS
 62
     7
100
AcDbLine
 10
-208.734
 20
-48.71199999999999
 30
0.0
 11
-207.5339999999999
 21
-49.03353
 31
0.0
  0
LINE
  5
458
330
1E
100
AcDbEntity
  8
0
  6
CONTINUOUS
 62
     7
100
AcDbLine
 10
-195.71255
 20
-39.0653
 30
0.0
 11
-195.71255
 21
-35.30155
 31
0.0
  0
LINE
  5
459
330
1E
100
AcDbEntity
  8
0
  6
CONTINUOUS
 62
     7
100
AcDbLine
 10
-195.39046
 20
-36.501
 30
0.0
 11
-195.7119999999999
 21
-35.301
 31
0.0
  0
LINE
  5
45A
330
1E
100
AcDbEntity
  8
0
  6
CONTINUOUS
 62
     7
100
AcDbLine
 10
-195.7119999999999
 20
-35.301
 30
0.0
 11
-196.03353
 21
-36.501
 31
0.0
  0
TEXT
  5
45B
330
1E
100
AcDbEntity
  8
0
  6
CONTINUOUS
 62
     7
100
AcDbText
 10
-84.30455
 20
47.79444999999999
 30
0.0
 40
3.2
  1
3×250=750
  7
BIGFONT
100
AcDbText
  0
LINE
  5
45C
330
1E
100
AcDbEntity
  8
0
  6
CONTINUOUS
 62
     1
100
AcDbLine
 10
-53.625
 20
67.0364
 30
0.0
 11
-53.625
 21
112.3819
 31
0.0
  0
LINE
  5
45D
330
1E
100
AcDbEntity
  8
0
  6
CONTINUOUS
 62
     7
100
AcDbLine
 10
-53.625
 20
87.88639999999999
 30
0.0
 11
-66.125
 21
87.88639999999999
 31
0.0
  0
LINE
  5
45E
330
1E
100
AcDbEntity
  8
0
  6
CONTINUOUS
 62
     7
100
AcDbLine
 10
-64.92499999999999
 20
88.20753000000001
 30
0.0
 11
-66.125
 21
87.886
 31
0.0
  0
LINE
  5
45F
330
1E
100
AcDbEntity
  8
0
  6
CONTINUOUS
 62
     7
100
AcDbLine
 10
-66.125
 20
87.886
 30
0.0
 11
-64.92499999999999
 21
87.56446
 31
0.0
  0
LINE
  5
460
330
1E
100
AcDbEntity
  8
0
  6
CONTINUOUS
 62
     7
100
AcDbLine
 10
-49.83859999999999
 20
87.88639999999999
 30
0.0
 11
-53.6446
 21
87.88639999999999
 31
0.0
  0
LINE
  5
461
330
1E
100
AcDbEntity
  8
0
  6
CONTINUOUS
 62
     7
100
AcDbLine
 10
-52.44399999999998
 20
88.20753000000001
 30
0.0
 11
-53.64399999999999
 21
87.886
 31
0.0
  0
LINE
  5
462
330
1E
100
AcDbEntity
  8
0
  6
CONTINUOUS
 62
     7
100
AcDbLine
 10
-53.64399999999999
 20
87.886
 30
0.0
 11
-52.44399999999998
 21
87.56446
 31
0.0
  0
LINE
  5
463
330
1E
100
AcDbEntity
  8
0
  6
CONTINUOUS
 62
     7
100
AcDbLine
 10
-89.87745
 20
-21.55155
 30
0.0
 11
-52.3909
 21
-21.55155
 31
0.0
  0
LINE
  5
464
330
1E
100
AcDbEntity
  8
0
  6
CONTINUOUS
 62
     7
100
AcDbLine
 10
-52.3909
 20
-30.55155
 30
0.0
 11
-52.3909
 21
-20.75155
 31
0.0
  0
LINE
  5
465
330
1E
100
AcDbEntity
  8
0
  6
CONTINUOUS
 62
     7
100
AcDbLine
 10
-89.87745
 20
-30.55155
 30
0.0
 11
-89.87745
 21
-20.75155
 31
0.0
  0
LINE
  5
466
330
1E
100
AcDbEntity
  8
0
  6
CONTINUOUS
 62
     7
100
AcDbLine
 10
-53.59
 20
-21.87252999999999
 30
0.0
 11
-52.39
 21
-21.551
 31
0.0
  0
LINE
  5
467
330
1E
100
AcDbEntity
  8
0
  6
CONTINUOUS
 62
     7
100
AcDbLine
 10
-52.39
 20
-21.551
 30
0.0
 11
-53.59
 21
-21.22946
 31
0.0
  0
LINE
  5
468
330
1E
100
AcDbEntity
  8
0
  6
CONTINUOUS
 62
     7
100
AcDbLine
 10
-88.67700000000002
 20
-21.22946
 30
0.0
 11
-89.87700000000002
 21
-21.551
 31
0.0
  0
LINE
  5
469
330
1E
100
AcDbEntity
  8
0
  6
CONTINUOUS
 62
     7
100
AcDbLine
 10
-89.87700000000002
 20
-21.551
 30
0.0
 11
-88.67700000000002
 21
-21.87252999999999
 31
0.0
  0
LINE
  5
46A
330
1E
100
AcDbEntity
  8
0
  6
CONTINUOUS
 62
     7
100
AcDbLine
 10
-52.3909
 20
-21.55155
 30
0.0
 11
-48.5859
 21
-21.55155
 31
0.0
  0
LINE
  5
46B
330
1E
100
AcDbEntity
  8
0
  6
CONTINUOUS
 62
     7
100
AcDbLine
 10
-48.5859
 20
-30.55155
 30
0.0
 11
-48.5859
 21
-20.75155
 31
0.0
  0
LINE
  5
46C
330
1E
100
AcDbEntity
  8
0
  6
CONTINUOUS
 62
     7
100
AcDbLine
 10
-49.785
 20
-21.87252999999999
 30
0.0
 11
-48.585
 21
-21.551
 31
0.0
  0
LINE
  5
46D
330
1E
100
AcDbEntity
  8
0
  6
CONTINUOUS
 62
     7
100
AcDbLine
 10
-48.585
 20
-21.551
 30
0.0
 11
-49.785
 21
-21.22946
 31
0.0
  0
LINE
  5
46E
330
1E
100
AcDbEntity
  8
0
  6
CONTINUOUS
 62
     7
100
AcDbLine
 10
-51.18999999999999
 20
-21.22946
 30
0.0
 11
-52.39
 21
-21.551
 31
0.0
  0
LINE
  5
46F
330
1E
100
AcDbEntity
  8
0
  6
CONTINUOUS
 62
     7
100
AcDbLine
 10
-52.39
 20
-21.551
 30
0.0
 11
-51.18999999999999
 21
-21.87252999999999
 31
0.0
  0
LINE
  5
470
330
1E
100
AcDbEntity
  8
0
  6
CONTINUOUS
 62
     7
100
AcDbLine
 10
-52.3909
 20
-21.55155
 30
0.0
 11
-53.4309
 21
-21.55155
 31
0.0
  0
TEXT
  5
471
330
1E
100
AcDbEntity
  8
0
  6
CONTINUOUS
 62
     7
100
AcDbText
 10
-53.4309
 20
-21.15155
 30
0.0
 40
3.2
  1
75
 41
0.8125
  7
BIGFONT
100
AcDbText
  0
LINE
  5
472
330
1E
100
AcDbEntity
  8
0
  6
CONTINUOUS
 62
     7
100
AcDbLine
 10
-48.5859
 20
-21.55155
 30
0.0
 11
-46.12499999999999
 21
-21.55155
 31
0.0
  0
LINE
  5
473
330
1E
100
AcDbEntity
  8
0
  6
CONTINUOUS
 62
     7
100
AcDbLine
 10
-46.12499999999999
 20
-24.42375
 30
0.0
 11
-46.12499999999999
 21
-20.75155
 31
0.0
  0
LINE
  5
474
330
1E
100
AcDbEntity
  8
0
  6
CONTINUOUS
 62
     7
100
AcDbLine
 10
-43.725
 20
-21.55155
 30
0.0
 11
-46.12499999999999
 21
-21.55155
 31
0.0
  0
LINE
  5
475
330
1E
100
AcDbEntity
  8
0
  6
CONTINUOUS
 62
     7
100
AcDbLine
 10
-44.92499999999998
 20
-21.22946
 30
0.0
 11
-46.12499999999999
 21
-21.551
 31
0.0
  0
LINE
  5
476
330
1E
100
AcDbEntity
  8
0
  6
CONTINUOUS
 62
     7
100
AcDbLine
 10
-46.12499999999999
 20
-21.551
 30
0.0
 11
-44.92499999999998
 21
-21.87252999999999
 31
0.0
  0
LINE
  5
477
330
1E
100
AcDbEntity
  8
0
  6
CONTINUOUS
 62
     7
100
AcDbLine
 10
-48.5859
 20
-21.55155
 30
0.0
 11
-50.9859
 21
-21.55155
 31
0.0
  0
LINE
  5
478
330
1E
100
AcDbEntity
  8
0
  6
CONTINUOUS
 62
     7
100
AcDbLine
 10
-49.785
 20
-21.87252999999999
 30
0.0
 11
-48.585
 21
-21.551
 31
0.0
  0
LINE
  5
479
330
1E
100
AcDbEntity
  8
0
  6
CONTINUOUS
 62
     7
100
AcDbLine
 10
-48.585
 20
-21.551
 30
0.0
 11
-49.785
 21
-21.22946
 31
0.0
  0
LINE
  5
47A
330
1E
100
AcDbEntity
  8
0
  6
CONTINUOUS
 62
     7
100
AcDbLine
 10
-43.725
 20
-21.55155
 30
0.0
 11
-39.885
 21
-21.55155
 31
0.0
  0
TEXT
  5
47B
330
1E
100
AcDbEntity
  8
0
  6
CONTINUOUS
 62
     7
100
AcDbText
 10
-45.085
 20
-21.15155
 30
0.0
 40
3.2
  1
50
 41
0.8125
  7
BIGFONT
100
AcDbText
  0
TEXT
  5
47C
330
1E
100
AcDbEntity
  8
0
  6
CONTINUOUS
 62
     7
100
AcDbText
 10
-82.92035
 20
-21.14685
 30
0.0
 40
3.2
  1
3×250=750
  7
BIGFONT
100
AcDbText
  0
POINT
  5
47D
330
1E
100
AcDbEntity
  8
0
  6
CONTINUOUS
 62
     1
100
AcDbPoint
 10
67.75
 20
68.193
 30
0.0
  0
LINE
  5
47E
330
1E
100
AcDbEntity
  8
0
  6
CONTINUOUS
 62
     7
100
AcDbLine
 10
48.1696
 20
124.8726999999999
 30
0.0
 11
39.2
 21
112.3819
 31
0.0
  0
LINE
  5
47F
330
1E
100
AcDbEntity
  8
0
  6
CONTINUOUS
 62
     7
100
AcDbLine
 10
39.63875999999999
 20
113.54326
 30
0.0
 11
39.2
 21
112.3809999999999
 31
0.0
  0
LINE
  5
480
330
1E
100
AcDbEntity
  8
0
  6
CONTINUOUS
 62
     7
100
AcDbLine
 10
39.2
 20
112.3809999999999
 30
0.0
 11
40.16111
 21
113.1681699999999
 31
0.0
  0
LINE
  5
481
330
1E
100
AcDbEntity
  8
0
  6
CONTINUOUS
 62
     7
100
AcDbLine
 10
-48.62655
 20
-45.30154999999999
 30
0.0
 11
-61.13595
 21
-45.30154999999999
 31
0.0
  0
LINE
  5
482
330
1E
100
AcDbEntity
  8
0
  6
CONTINUOUS
 62
     7
100
AcDbLine
 10
-59.935
 20
-44.97945999999998
 30
0.0
 11
-61.135
 21
-45.301
 31
0.0
  0
LINE
  5
483
330
1E
100
AcDbEntity
  8
0
  6
CONTINUOUS
 62
     7
100
AcDbLine
 10
-61.135
 20
-45.301
 30
0.0
 11
-59.935
 21
-45.62253
 31
0.0
  0
LINE
  5
484
330
1E
100
AcDbEntity
  8
0
  6
CONTINUOUS
 62
     7
100
AcDbLine
 10
-79.8699
 20
-76.55155
 30
0.0
 11
-79.8699
 21
-64.05155
 31
0.0
  0
LINE
  5
485
330
1E
100
AcDbEntity
  8
0
  6
CONTINUOUS
 62
     7
100
AcDbLine
 10
-79.54746
 20
-65.25100000000001
 30
0.0
 11
-79.869
 21
-64.051
 31
0.0
  0
LINE
  5
486
330
1E
100
AcDbEntity
  8
0
  6
CONTINUOUS
 62
     7
100
AcDbLine
 10
-79.869
 20
-64.051
 30
0.0
 11
-80.19053000000003
 21
-65.25100000000001
 31
0.0
  0
TEXT
  5
487
330
1E
100
AcDbEntity
  8
0
  6
CONTINUOUS
 62
     7
100
AcDbText
 10
-104.04415
 20
74.02495
 30
0.0
 40
3.2
  1
3×250=750
 50
90.0
  7
BIGFONT
100
AcDbText
  0
LINE
  5
488
330
1E
100
AcDbEntity
  8
0
  6
CONTINUOUS
 62
     7
100
AcDbLine
 10
-104.4307499999999
 20
67.6289
 30
0.0
 11
-94.66105
 21
67.6289
 31
0.0
  0
LINE
  5
489
330
1E
100
AcDbEntity
  8
0
  6
CONTINUOUS
 62
     7
100
AcDbLine
 10
-103.625
 20
58.7836
 30
0.0
 11
-103.625
 21
64.88800000000001
 31
0.0
  0
LINE
  5
48A
330
1E
100
AcDbEntity
  8
0
  6
CONTINUOUS
 62
     7
100
AcDbLine
 10
-103.30346
 20
63.688
 30
0.0
 11
-103.625
 21
64.88800000000001
 31
0.0
  0
LINE
  5
48B
330
1E
100
AcDbEntity
  8
0
  6
CONTINUOUS
 62
     7
100
AcDbLine
 10
-103.625
 20
64.88800000000001
 30
0.0
 11
-103.94653
 21
63.688
 31
0.0
  0
POINT
  5
48C
330
1E
100
AcDbEntity
  8
0
  6
CONTINUOUS
 62
     7
100
AcDbPoint
 10
-103.625
 20
67.6289
 30
0.0
  0
TEXT
  5
48D
330
1E
100
AcDbEntity
  8
0
  6
CONTINUOUS
 62
     7
100
AcDbText
 10
-104.0618
 20
58.19774999999999
 30
0.0
 40
3.2
  1
55
 50
90.0
  7
BIGFONT
100
AcDbText
  0
LINE
  5
48E
330
1E
100
AcDbEntity
  8
0
  6
CONTINUOUS
 62
     7
100
AcDbLine
 10
-93.625
 20
47.38974999999999
 30
0.0
 11
-91.12014999999999
 21
47.38974999999999
 31
0.0
  0
LINE
  5
48F
330
1E
100
AcDbEntity
  8
0
  6
CONTINUOUS
 62
     7
100
AcDbLine
 10
-91.12014999999999
 20
63.8864
 30
0.0
 11
-91.12014999999999
 21
46.58975
 31
0.0
  0
LINE
  5
490
330
1E
100
AcDbEntity
  8
0
  6
CONTINUOUS
 62
     7
100
AcDbLine
 10
-93.625
 20
51.48865
 30
0.0
 11
-93.625
 21
46.58975
 31
0.0
  0
LINE
  5
491
330
1E
100
AcDbEntity
  8
0
  6
CONTINUOUS
 62
     7
100
AcDbLine
 10
-88.72015000000002
 20
47.38974999999999
 30
0.0
 11
-91.12014999999999
 21
47.38974999999999
 31
0.0
  0
LINE
  5
492
330
1E
100
AcDbEntity
  8
0
  6
CONTINUOUS
 62
     7
100
AcDbLine
 10
-89.92
 20
47.71053
 30
0.0
 11
-91.12
 21
47.389
 31
0.0
  0
LINE
  5
493
330
1E
100
AcDbEntity
  8
0
  6
CONTINUOUS
 62
     7
100
AcDbLine
 10
-91.12
 20
47.389
 30
0.0
 11
-89.92
 21
47.06745999999998
 31
0.0
  0
LINE
  5
494
330
1E
100
AcDbEntity
  8
0
  6
CONTINUOUS
 62
     7
100
AcDbLine
 10
-93.625
 20
47.38974999999999
 30
0.0
 11
-96.025
 21
47.38974999999999
 31
0.0
  0
LINE
  5
495
330
1E
100
AcDbEntity
  8
0
  6
CONTINUOUS
 62
     7
100
AcDbLine
 10
-94.82499999999999
 20
47.06745999999998
 30
0.0
 11
-93.625
 21
47.389
 31
0.0
  0
LINE
  5
496
330
1E
100
AcDbEntity
  8
0
  6
CONTINUOUS
 62
     7
100
AcDbLine
 10
-93.625
 20
47.389
 30
0.0
 11
-94.82499999999999
 21
47.71053
 31
0.0
  0
LINE
  5
497
330
1E
100
AcDbEntity
  8
0
  6
CONTINUOUS
 62
     7
100
AcDbLine
 10
-96.025
 20
47.38974999999999
 30
0.0
 11
-100.1249999999999
 21
47.38974999999999
 31
0.0
  0
TEXT
  5
498
330
1E
100
AcDbEntity
  8
0
  6
CONTINUOUS
 62
     7
100
AcDbText
 10
-100.1249999999999
 20
47.78974999999999
 30
0.0
 40
3.2
  1
50
 41
0.8125
  7
BIGFONT
100
AcDbText
  0
LINE
  5
499
330
1E
100
AcDbEntity
  8
0
  6
CONTINUOUS
 62
     7
100
AcDbLine
 10
-91.12014999999999
 20
47.38974999999999
 30
0.0
 11
-53.62495
 21
47.38974999999999
 31
0.0
  0
LINE
  5
49A
330
1E
100
AcDbEntity
  8
0
  6
CONTINUOUS
 62
     7
100
AcDbLine
 10
-53.62495
 20
63.8864
 30
0.0
 11
-53.62495
 21
46.58975
 31
0.0
  0
LINE
  5
49B
330
1E
100
AcDbEntity
  8
0
  6
CONTINUOUS
 62
     7
100
AcDbLine
 10
-54.824
 20
47.06745999999998
 30
0.0
 11
-53.624
 21
47.389
 31
0.0
  0
LINE
  5
49C
330
1E
100
AcDbEntity
  8
0
  6
CONTINUOUS
 62
     7
100
AcDbLine
 10
-53.624
 20
47.389
 30
0.0
 11
-54.824
 21
47.71053
 31
0.0
  0
LINE
  5
49D
330
1E
100
AcDbEntity
  8
0
  6
CONTINUOUS
 62
     7
100
AcDbLine
 10
-89.92
 20
47.71053
 30
0.0
 11
-91.12
 21
47.389
 31
0.0
  0
LINE
  5
49E
330
1E
100
AcDbEntity
  8
0
  6
CONTINUOUS
 62
     7
100
AcDbLine
 10
-91.12
 20
47.389
 30
0.0
 11
-89.92
 21
47.06745999999998
 31
0.0
  0
LINE
  5
49F
330
1E
100
AcDbEntity
  8
0
  6
CONTINUOUS
 62
     7
100
AcDbLine
 10
-53.62495
 20
47.38974999999999
 30
0.0
 11
-49.8778
 21
47.38974999999999
 31
0.0
  0
LINE
  5
4A0
330
1E
100
AcDbEntity
  8
0
  6
CONTINUOUS
 62
     7
100
AcDbLine
 10
-49.8778
 20
63.8864
 30
0.0
 11
-49.8778
 21
46.58975
 31
0.0
  0
LINE
  5
4A1
330
1E
100
AcDbEntity
  8
0
  6
CONTINUOUS
 62
     7
100
AcDbLine
 10
-51.077
 20
47.06745999999998
 30
0.0
 11
-49.877
 21
47.389
 31
0.0
  0
LINE
  5
4A2
330
1E
100
AcDbEntity
  8
0
  6
CONTINUOUS
 62
     7
100
AcDbLine
 10
-49.877
 20
47.389
 30
0.0
 11
-51.077
 21
47.71053
 31
0.0
  0
LINE
  5
4A3
330
1E
100
AcDbEntity
  8
0
  6
CONTINUOUS
 62
     7
100
AcDbLine
 10
-52.42399999999999
 20
47.71053
 30
0.0
 11
-53.624
 21
47.389
 31
0.0
  0
LINE
  5
4A4
330
1E
100
AcDbEntity
  8
0
  6
CONTINUOUS
 62
     7
100
AcDbLine
 10
-53.624
 20
47.389
 30
0.0
 11
-52.42399999999999
 21
47.06745999999998
 31
0.0
  0
LINE
  5
4A5
330
1E
100
AcDbEntity
  8
0
  6
CONTINUOUS
 62
     7
100
AcDbLine
 10
-53.62495
 20
47.38974999999999
 30
0.0
 11
-54.66495
 21
47.38974999999999
 31
0.0
  0
TEXT
  5
4A6
330
1E
100
AcDbEntity
  8
0
  6
CONTINUOUS
 62
     7
100
AcDbText
 10
-54.66495
 20
47.78974999999999
 30
0.0
 40
3.2
  1
75
 41
0.8125
  7
BIGFONT
100
AcDbText
  0
LINE
  5
4A7
330
1E
100
AcDbEntity
  8
0
  6
CONTINUOUS
 62
     7
100
AcDbLine
 10
-212.4845
 20
47.38974999999999
 30
0.0
 11
-209.97965
 21
47.38974999999999
 31
0.0
  0
LINE
  5
4A8
330
1E
100
AcDbEntity
  8
0
  6
CONTINUOUS
 62
     7
100
AcDbLine
 10
-209.97965
 20
63.8864
 30
0.0
 11
-209.97965
 21
46.58975
 31
0.0
  0
LINE
  5
4A9
330
1E
100
AcDbEntity
  8
0
  6
CONTINUOUS
 62
     7
100
AcDbLine
 10
-212.4845
 20
51.48865
 30
0.0
 11
-212.4845
 21
46.58975
 31
0.0
  0
LINE
  5
4AA
330
1E
100
AcDbEntity
  8
0
  6
CONTINUOUS
 62
     7
100
AcDbLine
 10
-207.57965
 20
47.38974999999999
 30
0.0
 11
-209.97965
 21
47.38974999999999
 31
0.0
  0
LINE
  5
4AB
330
1E
100
AcDbEntity
  8
0
  6
CONTINUOUS
 62
     7
100
AcDbLine
 10
-208.779
 20
47.71053
 30
0.0
 11
-209.979
 21
47.389
 31
0.0
  0
LINE
  5
4AC
330
1E
100
AcDbEntity
  8
0
  6
CONTINUOUS
 62
     7
100
AcDbLine
 10
-209.979
 20
47.389
 30
0.0
 11
-208.779
 21
47.06745999999998
 31
0.0
  0
LINE
  5
4AD
330
1E
100
AcDbEntity
  8
0
  6
CONTINUOUS
 62
     7
100
AcDbLine
 10
-212.4845
 20
47.38974999999999
 30
0.0
 11
-214.8845
 21
47.38974999999999
 31
0.0
  0
LINE
  5
4AE
330
1E
100
AcDbEntity
  8
0
  6
CONTINUOUS
 62
     7
100
AcDbLine
 10
-213.6839999999998
 20
47.06745999999998
 30
0.0
 11
-212.484
 21
47.389
 31
0.0
  0
LINE
  5
4AF
330
1E
100
AcDbEntity
  8
0
  6
CONTINUOUS
 62
     7
100
AcDbLine
 10
-212.484
 20
47.389
 30
0.0
 11
-213.6839999999998
 21
47.71053
 31
0.0
  0
LINE
  5
4B0
330
1E
100
AcDbEntity
  8
0
  6
CONTINUOUS
 62
     7
100
AcDbLine
 10
-214.8845
 20
47.38974999999999
 30
0.0
 11
-218.9845
 21
47.38974999999999
 31
0.0
  0
TEXT
  5
4B1
330
1E
100
AcDbEntity
  8
0
  6
CONTINUOUS
 62
     7
100
AcDbText
 10
-218.9845
 20
47.78974999999999
 30
0.0
 40
3.2
  1
50
 41
0.8125
  7
BIGFONT
100
AcDbText
  0
LINE
  5
4B2
330
1E
100
AcDbEntity
  8
0
  6
CONTINUOUS
 62
     7
100
AcDbLine
 10
-209.97965
 20
47.38974999999999
 30
0.0
 11
-172.48445
 21
47.38974999999999
 31
0.0
  0
LINE
  5
4B3
330
1E
100
AcDbEntity
  8
0
  6
CONTINUOUS
 62
     7
100
AcDbLine
 10
-172.48445
 20
63.8864
 30
0.0
 11
-172.48445
 21
46.58975
 31
0.0
  0
LINE
  5
4B4
330
1E
100
AcDbEntity
  8
0
  6
CONTINUOUS
 62
     7
100
AcDbLine
 10
-173.6839999999999
 20
47.06745999999998
 30
0.0
 11
-172.484
 21
47.389
 31
0.0
  0
LINE
  5
4B5
330
1E
100
AcDbEntity
  8
0
  6
CONTINUOUS
 62
     7
100
AcDbLine
 10
-172.484
 20
47.389
 30
0.0
 11
-173.6839999999999
 21
47.71053
 31
0.0
  0
LINE
  5
4B6
330
1E
100
AcDbEntity
  8
0
  6
CONTINUOUS
 62
     7
100
AcDbLine
 10
-208.779
 20
47.71053
 30
0.0
 11
-209.979
 21
47.389
 31
0.0
  0
LINE
  5
4B7
330
1E
100
AcDbEntity
  8
0
  6
CONTINUOUS
 62
     7
100
AcDbLine
 10
-209.979
 20
47.389
 30
0.0
 11
-208.779
 21
47.06745999999998
 31
0.0
  0
LINE
  5
4B8
330
1E
100
AcDbEntity
  8
0
  6
CONTINUOUS
 62
     7
100
AcDbLine
 10
-172.48445
 20
47.38974999999999
 30
0.0
 11
-168.7373
 21
47.38974999999999
 31
0.0
  0
LINE
  5
4B9
330
1E
100
AcDbEntity
  8
0
  6
CONTINUOUS
 62
     7
100
AcDbLine
 10
-168.7373
 20
63.8864
 30
0.0
 11
-168.7373
 21
46.58975
 31
0.0
  0
LINE
  5
4BA
330
1E
100
AcDbEntity
  8
0
  6
CONTINUOUS
 62
     7
100
AcDbLine
 10
-169.937
 20
47.06745999999998
 30
0.0
 11
-168.737
 21
47.389
 31
0.0
  0
LINE
  5
4BB
330
1E
100
AcDbEntity
  8
0
  6
CONTINUOUS
 62
     7
100
AcDbLine
 10
-168.737
 20
47.389
 30
0.0
 11
-169.937
 21
47.71053
 31
0.0
  0
LINE
  5
4BC
330
1E
100
AcDbEntity
  8
0
  6
CONTINUOUS
 62
     7
100
AcDbLine
 10
-171.2839999999999
 20
47.71053
 30
0.0
 11
-172.484
 21
47.389
 31
0.0
  0
LINE
  5
4BD
330
1E
100
AcDbEntity
  8
0
  6
CONTINUOUS
 62
     7
100
AcDbLine
 10
-172.484
 20
47.389
 30
0.0
 11
-171.2839999999999
 21
47.06745999999998
 31
0.0
  0
LINE
  5
4BE
330
1E
100
AcDbEntity
  8
0
  6
CONTINUOUS
 62
     7
100
AcDbLine
 10
-172.48445
 20
47.38974999999999
 30
0.0
 11
-173.52445
 21
47.38974999999999
 31
0.0
  0
TEXT
  5
4BF
330
1E
100
AcDbEntity
  8
0
  6
CONTINUOUS
 62
     7
100
AcDbText
 10
-173.52445
 20
47.78974999999999
 30
0.0
 40
3.2
  1
75
 41
0.8125
  7
BIGFONT
100
AcDbText
  0
LINE
  5
4C0
330
1E
100
AcDbEntity
  8
0
  6
CONTINUOUS
 62
     1
100
AcDbLine
 10
-91.125
 20
67.63639999999999
 30
0.0
 11
-49.875
 21
67.63639999999999
 31
0.0
  0
CIRCLE
  5
4C1
330
1E
100
AcDbEntity
  8
0
  6
CONTINUOUS
 62
     7
100
AcDbCircle
 10
-69.10814999999999
 20
57.4354
 30
0.0
 40
2.5
  0
TEXT
  5
4C2
330
1E
100
AcDbEntity
  8
0
  6
CONTINUOUS
 62
     7
100
AcDbText
 10
-70.6624
 20
55.6972
 30
0.0
 40
3.2
  1
３
  7
BIGFONT
100
AcDbText
  0
TEXT
  5
4C3
330
1E
100
AcDbEntity
  8
0
  6
CONTINUOUS
 62
     7
100
AcDbText
 10
-65.51495
 20
55.80964999999999
 30
0.0
 40
3.2
  1
D10
  7
BIGFONT
100
AcDbText
  0
LINE
  5
4C4
330
1E
100
AcDbEntity
  8
0
  6
CONTINUOUS
 62
     7
100
AcDbLine
 10
-72.3508
 20
54.938
 30
0.0
 11
-57.35079999999999
 21
54.938
 31
0.0
  0
LINE
  5
4C5
330
1E
100
AcDbEntity
  8
0
  6
CONTINUOUS
 62
     7
100
AcDbLine
 10
-72.3508
 20
54.938
 30
0.0
 11
-72.3508
 21
67.63639999999999
 31
0.0
  0
LINE
  5
4C6
330
1E
100
AcDbEntity
  8
0
  6
CONTINUOUS
 62
     7
100
AcDbLine
 10
-72.02846
 20
66.43600000000001
 30
0.0
 11
-72.34999999999998
 21
67.63600000000001
 31
0.0
  0
LINE
  5
4C7
330
1E
100
AcDbEntity
  8
0
  6
CONTINUOUS
 62
     7
100
AcDbLine
 10
-72.34999999999998
 20
67.63600000000001
 30
0.0
 11
-72.67153
 21
66.43600000000001
 31
0.0
  0
LINE
  5
4C8
330
1E
100
AcDbEntity
  8
0
  6
CONTINUOUS
 62
     7
100
AcDbLine
 10
-208.7347
 20
-21.55155
 30
0.0
 11
-204.9786499999999
 21
-21.55155
 31
0.0
  0
LINE
  5
4C9
330
1E
100
AcDbEntity
  8
0
  6
CONTINUOUS
 62
     7
100
AcDbLine
 10
-204.9786499999999
 20
-30.55155
 30
0.0
 11
-204.9786499999999
 21
-20.75155
 31
0.0
  0
LINE
  5
4CA
330
1E
100
AcDbEntity
  8
0
  6
CONTINUOUS
 62
     7
100
AcDbLine
 10
-208.7347
 20
-30.55155
 30
0.0
 11
-208.7347
 21
-20.75155
 31
0.0
  0
LINE
  5
4CB
330
1E
100
AcDbEntity
  8
0
  6
CONTINUOUS
 62
     7
100
AcDbLine
 10
-206.178
 20
-21.87252999999999
 30
0.0
 11
-204.9779999999999
 21
-21.551
 31
0.0
  0
LINE
  5
4CC
330
1E
100
AcDbEntity
  8
0
  6
CONTINUOUS
 62
     7
100
AcDbLine
 10
-204.9779999999999
 20
-21.551
 30
0.0
 11
-206.178
 21
-21.22946
 31
0.0
  0
LINE
  5
4CD
330
1E
100
AcDbEntity
  8
0
  6
CONTINUOUS
 62
     7
100
AcDbLine
 10
-207.5339999999999
 20
-21.22946
 30
0.0
 11
-208.734
 21
-21.551
 31
0.0
  0
LINE
  5
4CE
330
1E
100
AcDbEntity
  8
0
  6
CONTINUOUS
 62
     7
100
AcDbLine
 10
-208.734
 20
-21.551
 30
0.0
 11
-207.5339999999999
 21
-21.87252999999999
 31
0.0
  0
TEXT
  5
4CF
330
1E
100
AcDbEntity
  8
0
  6
CONTINUOUS
 62
     7
100
AcDbText
 10
-209.45667
 20
-21.15155
 30
0.0
 40
3.2
  1
75
 41
0.8125
  7
BIGFONT
100
AcDbText
  0
LINE
  5
4D0
330
1E
100
AcDbEntity
  8
0
  6
CONTINUOUS
 62
     7
100
AcDbLine
 10
-204.9786499999999
 20
-21.55155
 30
0.0
 11
-167.479
 21
-21.55155
 31
0.0
  0
LINE
  5
4D1
330
1E
100
AcDbEntity
  8
0
  6
CONTINUOUS
 62
     7
100
AcDbLine
 10
-167.479
 20
-30.55155
 30
0.0
 11
-167.479
 21
-20.75155
 31
0.0
  0
LINE
  5
4D2
330
1E
100
AcDbEntity
  8
0
  6
CONTINUOUS
 62
     7
100
AcDbLine
 10
-168.679
 20
-21.87252999999999
 30
0.0
 11
-167.479
 21
-21.551
 31
0.0
  0
LINE
  5
4D3
330
1E
100
AcDbEntity
  8
0
  6
CONTINUOUS
 62
     7
100
AcDbLine
 10
-167.479
 20
-21.551
 30
0.0
 11
-168.679
 21
-21.22946
 31
0.0
  0
LINE
  5
4D4
330
1E
100
AcDbEntity
  8
0
  6
CONTINUOUS
 62
     7
100
AcDbLine
 10
-203.778
 20
-21.22946
 30
0.0
 11
-204.9779999999999
 21
-21.551
 31
0.0
  0
LINE
  5
4D5
330
1E
100
AcDbEntity
  8
0
  6
CONTINUOUS
 62
     7
100
AcDbLine
 10
-204.9779999999999
 20
-21.551
 30
0.0
 11
-203.778
 21
-21.87252999999999
 31
0.0
  0
LINE
  5
4D6
330
1E
100
AcDbEntity
  8
0
  6
CONTINUOUS
 62
     7
100
AcDbLine
 10
-167.479
 20
-21.55155
 30
0.0
 11
-164.9845
 21
-21.55155
 31
0.0
  0
LINE
  5
4D7
330
1E
100
AcDbEntity
  8
0
  6
CONTINUOUS
 62
     7
100
AcDbLine
 10
-164.9845
 20
-24.48335
 30
0.0
 11
-164.9845
 21
-20.75155
 31
0.0
  0
LINE
  5
4D8
330
1E
100
AcDbEntity
  8
0
  6
CONTINUOUS
 62
     7
100
AcDbLine
 10
-162.5844999999999
 20
-21.55155
 30
0.0
 11
-164.9845
 21
-21.55155
 31
0.0
  0
LINE
  5
4D9
330
1E
100
AcDbEntity
  8
0
  6
CONTINUOUS
 62
     7
100
AcDbLine
 10
-163.7839999999999
 20
-21.22946
 30
0.0
 11
-164.984
 21
-21.551
 31
0.0
  0
LINE
  5
4DA
330
1E
100
AcDbEntity
  8
0
  6
CONTINUOUS
 62
     7
100
AcDbLine
 10
-164.984
 20
-21.551
 30
0.0
 11
-163.7839999999999
 21
-21.87252999999999
 31
0.0
  0
LINE
  5
4DB
330
1E
100
AcDbEntity
  8
0
  6
CONTINUOUS
 62
     7
100
AcDbLine
 10
-167.479
 20
-21.55155
 30
0.0
 11
-169.8789999999999
 21
-21.55155
 31
0.0
  0
LINE
  5
4DC
330
1E
100
AcDbEntity
  8
0
  6
CONTINUOUS
 62
     7
100
AcDbLine
 10
-168.679
 20
-21.87252999999999
 30
0.0
 11
-167.479
 21
-21.551
 31
0.0
  0
LINE
  5
4DD
330
1E
100
AcDbEntity
  8
0
  6
CONTINUOUS
 62
     7
100
AcDbLine
 10
-167.479
 20
-21.551
 30
0.0
 11
-168.679
 21
-21.22946
 31
0.0
  0
LINE
  5
4DE
330
1E
100
AcDbEntity
  8
0
  6
CONTINUOUS
 62
     7
100
AcDbLine
 10
-162.5844999999999
 20
-21.55155
 30
0.0
 11
-158.4845
 21
-21.55155
 31
0.0
  0
TEXT
  5
4DF
330
1E
100
AcDbEntity
  8
0
  6
CONTINUOUS
 62
     7
100
AcDbText
 10
-163.6845
 20
-21.15155
 30
0.0
 40
3.2
  1
50
 41
0.8125
  7
BIGFONT
100
AcDbText
  0
LINE
  5
4E0
330
1E
100
AcDbEntity
  8
0
  6
CONTINUOUS
 62
     1
100
AcDbLine
 10
-73.625
 20
-76.55155
 30
0.0
 11
-73.625
 21
-34.30155
 31
0.0
  0
LINE
  5
4E1
330
1E
100
AcDbEntity
  8
0
  6
CONTINUOUS
 62
     1
100
AcDbLine
 10
-86.125
 20
-76.55155
 30
0.0
 11
-86.125
 21
-34.30155
 31
0.0
  0
LINE
  5
4E2
330
1E
100
AcDbEntity
  8
0
  6
CONTINUOUS
 62
     1
100
AcDbLine
 10
-90.875
 20
-51.55155
 30
0.0
 11
-48.625
 21
-51.55155
 31
0.0
  0
LINE
  5
4E3
330
1E
100
AcDbEntity
  8
0
  6
CONTINUOUS
 62
     1
100
AcDbLine
 10
-90.875
 20
-39.05155
 30
0.0
 11
-48.625
 21
-39.05155
 31
0.0
  0
LINE
  5
4E4
330
1E
100
AcDbEntity
  8
0
  6
CONTINUOUS
 62
     7
100
AcDbLine
 10
-73.64695000000001
 20
-45.30154999999999
 30
0.0
 11
-86.14695000000002
 21
-45.30154999999999
 31
0.0
  0
LINE
  5
4E5
330
1E
100
AcDbEntity
  8
0
  6
CONTINUOUS
 62
     7
100
AcDbLine
 10
-84.946
 20
-44.97945999999998
 30
0.0
 11
-86.14600000000001
 21
-45.301
 31
0.0
  0
LINE
  5
4E6
330
1E
100
AcDbEntity
  8
0
  6
CONTINUOUS
 62
     7
100
AcDbLine
 10
-86.14600000000001
 20
-45.301
 30
0.0
 11
-84.946
 21
-45.62253
 31
0.0
  0
LINE
  5
4E7
330
1E
100
AcDbEntity
  8
0
  6
CONTINUOUS
 62
     7
100
AcDbLine
 10
-85.54325
 20
-45.30154999999999
 30
0.0
 11
-89.88595
 21
-45.30154999999999
 31
0.0
  0
LINE
  5
4E8
330
1E
100
AcDbEntity
  8
0
  6
CONTINUOUS
 62
     7
100
AcDbLine
 10
-88.685
 20
-44.97945999999998
 30
0.0
 11
-89.885
 21
-45.301
 31
0.0
  0
LINE
  5
4E9
330
1E
100
AcDbEntity
  8
0
  6
CONTINUOUS
 62
     7
100
AcDbLine
 10
-89.885
 20
-45.301
 30
0.0
 11
-88.685
 21
-45.62253
 31
0.0
  0
LINE
  5
4EA
330
1E
100
AcDbEntity
  8
0
  6
CONTINUOUS
 62
     7
100
AcDbLine
 10
-79.8699
 20
-39.0645
 30
0.0
 11
-79.8699
 21
-35.30155
 31
0.0
  0
LINE
  5
4EB
330
1E
100
AcDbEntity
  8
0
  6
CONTINUOUS
 62
     7
100
AcDbLine
 10
-79.54746
 20
-36.501
 30
0.0
 11
-79.869
 21
-35.301
 31
0.0
  0
LINE
  5
4EC
330
1E
100
AcDbEntity
  8
0
  6
CONTINUOUS
 62
     7
100
AcDbLine
 10
-79.869
 20
-35.301
 30
0.0
 11
-80.19053000000003
 21
-36.501
 31
0.0
  0
POINT
  5
4ED
330
1E
100
AcDbEntity
  8
0
  6
CONTINUOUS
 62
     1
100
AcDbPoint
 10
42.75
 20
68.19289999999999
 30
0.0
  0
LINE
  5
4EE
330
1E
100
AcDbEntity
  8
0
  6
CONTINUOUS
 62
     7
100
AcDbLine
 10
49.75744999999999
 20
87.9906
 30
0.0
 11
41.0542
 21
70.56525
 31
0.0
  0
LINE
  5
4EF
330
1E
100
AcDbEntity
  8
0
  6
CONTINUOUS
 62
     7
100
AcDbLine
 10
41.30252999999997
 20
71.78220999999997
 30
0.0
 11
41.05399999999998
 21
70.56499999999998
 31
0.0
  0
LINE
  5
4F0
330
1E
100
AcDbEntity
  8
0
  6
CONTINUOUS
 62
     7
100
AcDbLine
 10
41.05399999999998
 20
70.56499999999998
 30
0.0
 11
41.87783999999999
 21
71.49486999999997
 31
0.0
  0
LINE
  5
4F1
330
1E
100
AcDbEntity
  8
0
  6
CONTINUOUS
 62
     7
100
AcDbLine
 10
65.6931
 20
78.4759
 30
0.0
 11
61.36465
 21
68.6319
 31
0.0
  0
LINE
  5
4F2
330
1E
100
AcDbEntity
  8
0
  6
CONTINUOUS
 62
     7
100
AcDbLine
 10
61.55266999999999
 20
69.85891999999998
 30
0.0
 11
61.364
 21
68.631
 31
0.0
  0
LINE
  5
4F3
330
1E
100
AcDbEntity
  8
0
  6
CONTINUOUS
 62
     7
100
AcDbLine
 10
61.364
 20
68.631
 30
0.0
 11
62.14135
 21
69.60007
 31
0.0
  0
LINE
  5
4F4
330
1E
100
AcDbEntity
  8
0
  6
CONTINUOUS
 62
     7
100
AcDbLine
 10
65.6931
 20
78.4759
 30
0.0
 11
55.25
 21
68.19289999999999
 31
0.0
  0
LINE
  5
4F5
330
1E
100
AcDbEntity
  8
0
  6
CONTINUOUS
 62
     7
100
AcDbLine
 10
55.87945
 20
69.26306
 30
0.0
 11
55.25
 21
68.19199999999999
 31
0.0
  0
LINE
  5
4F6
330
1E
100
AcDbEntity
  8
0
  6
CONTINUOUS
 62
     7
100
AcDbLine
 10
55.25
 20
68.19199999999999
 30
0.0
 11
56.33065
 21
68.80483000000001
 31
0.0
  0
LINE
  5
4F7
330
1E
100
AcDbEntity
  8
0
  6
CONTINUOUS
 62
     7
100
AcDbLine
 10
52.69925
 20
54.938
 30
0.0
 11
48.65605
 21
67.03189999999999
 31
0.0
  0
LINE
  5
4F8
330
1E
100
AcDbEntity
  8
0
  6
CONTINUOUS
 62
     7
100
AcDbLine
 10
49.34142
 20
65.99486
 30
0.0
 11
48.656
 21
67.031
 31
0.0
  0
LINE
  5
4F9
330
1E
100
AcDbEntity
  8
0
  6
CONTINUOUS
 62
     7
100
AcDbLine
 10
48.656
 20
67.031
 30
0.0
 11
48.73153
 21
65.79095999999998
 31
0.0
  0
LINE
  5
4FA
330
1E
100
AcDbEntity
  8
0
  6
CONTINUOUS
 62
     7
100
AcDbLine
 10
52.69925
 20
54.938
 30
0.0
 11
42.75
 21
67.49484999999999
 31
0.0
  0
LINE
  5
4FB
330
1E
100
AcDbEntity
  8
0
  6
CONTINUOUS
 62
     7
100
AcDbLine
 10
43.74724
 20
66.75313
 30
0.0
 11
42.75
 21
67.494
 31
0.0
  0
LINE
  5
4FC
330
1E
100
AcDbEntity
  8
0
  6
CONTINUOUS
 62
     7
100
AcDbLine
 10
42.75
 20
67.494
 30
0.0
 11
43.24321
 21
66.35375999999999
 31
0.0
  0
LINE
  5
4FD
330
1E
100
AcDbEntity
  8
0
  6
CONTINUOUS
 62
     7
100
AcDbLine
 10
-72.3508
 20
112.3863999999999
 30
0.0
 11
-72.3508
 21
105.6363999999999
 31
0.0
  0
LINE
  5
4FE
330
1E
100
AcDbEntity
  8
0
  6
CONTINUOUS
 62
     7
100
AcDbLine
 10
-72.67153
 20
106.8359999999999
 30
0.0
 11
-72.34999999999998
 21
105.6359999999999
 31
0.0
  0
LINE
  5
4FF
330
1E
100
AcDbEntity
  8
0
  6
CONTINUOUS
 62
     7
100
AcDbLine
 10
-72.34999999999998
 20
105.6359999999999
 30
0.0
 11
-72.02846
 21
106.8359999999999
 31
0.0
  0
LINE
  5
500
330
1E
100
AcDbEntity
  8
0
  6
CONTINUOUS
 62
     7
100
AcDbLine
 10
-84.875
 20
124.8863999999999
 30
0.0
 11
-84.875
 21
68.13639999999999
 31
0.0
  0
LINE
  5
501
330
1E
100
AcDbEntity
  8
0
  6
CONTINUOUS
 62
     7
100
AcDbLine
 10
-85.19653000000003
 20
69.336
 30
0.0
 11
-84.875
 21
68.136
 31
0.0
  0
LINE
  5
502
330
1E
100
AcDbEntity
  8
0
  6
CONTINUOUS
 62
     7
100
AcDbLine
 10
-84.875
 20
68.136
 30
0.0
 11
-84.55346
 21
69.336
 31
0.0
  0
CIRCLE
  5
503
330
1E
100
AcDbEntity
  8
0
  6
CONTINUOUS
 62
     7
100
AcDbCircle
 10
-97.32825
 20
127.4197
 30
0.0
 40
2.5
  0
TEXT
  5
504
330
1E
100
AcDbEntity
  8
0
  6
CONTINUOUS
 62
     7
100
AcDbText
 10
-98.88620000000001
 20
125.8258
 30
0.0
 40
3.2
  1
２
  7
BIGFONT
100
AcDbText
  0
TEXT
  5
505
330
1E
100
AcDbEntity
  8
0
  6
CONTINUOUS
 62
     7
100
AcDbText
 10
-93.52075000000001
 20
125.6495499999999
 30
0.0
 40
3.2
  1
D10
  7
BIGFONT
100
AcDbText
  0
LINE
  5
506
330
1E
100
AcDbEntity
  8
0
  6
CONTINUOUS
 62
     7
100
AcDbLine
 10
-99.875
 20
124.8863999999999
 30
0.0
 11
-84.875
 21
124.8863999999999
 31
0.0
  0
LINE
  5
507
330
1E
100
AcDbEntity
  8
0
  6
CONTINUOUS
 62
     7
100
AcDbLine
 10
-103.625
 20
68.11875
 30
0.0
 11
-103.625
 21
105.6286
 31
0.0
  0
LINE
  5
508
330
1E
100
AcDbEntity
  8
0
  6
CONTINUOUS
 62
     7
100
AcDbLine
 10
-94.625
 20
105.6286
 30
0.0
 11
-104.4249999999999
 21
105.6286
 31
0.0
  0
LINE
  5
509
330
1E
100
AcDbEntity
  8
0
  6
CONTINUOUS
 62
     7
100
AcDbLine
 10
-94.625
 20
68.11875
 30
0.0
 11
-104.4249999999999
 21
68.11875
 31
0.0
  0
LINE
  5
50A
330
1E
100
AcDbEntity
  8
0
  6
CONTINUOUS
 62
     7
100
AcDbLine
 10
-103.30346
 20
104.428
 30
0.0
 11
-103.625
 21
105.6279999999998
 31
0.0
  0
LINE
  5
50B
330
1E
100
AcDbEntity
  8
0
  6
CONTINUOUS
 62
     7
100
AcDbLine
 10
-103.625
 20
105.6279999999998
 30
0.0
 11
-103.94653
 21
104.428
 31
0.0
  0
LINE
  5
50C
330
1E
100
AcDbEntity
  8
0
  6
CONTINUOUS
 62
     7
100
AcDbLine
 10
-103.94653
 20
69.31799999999999
 30
0.0
 11
-103.625
 21
68.11799999999999
 31
0.0
  0
LINE
  5
50D
330
1E
100
AcDbEntity
  8
0
  6
CONTINUOUS
 62
     7
100
AcDbLine
 10
-103.625
 20
68.11799999999999
 30
0.0
 11
-103.30346
 21
69.31799999999999
 31
0.0
  0
LINE
  5
50E
330
1E
100
AcDbEntity
  8
0
  6
CONTINUOUS
 62
     7
100
AcDbLine
 10
-103.625
 20
105.6286
 30
0.0
 11
-103.625
 21
112.3819
 31
0.0
  0
LINE
  5
50F
330
1E
100
AcDbEntity
  8
0
  6
CONTINUOUS
 62
     7
100
AcDbLine
 10
-94.625
 20
112.3819
 30
0.0
 11
-104.4249999999999
 21
112.3819
 31
0.0
  0
LINE
  5
510
330
1E
100
AcDbEntity
  8
0
  6
CONTINUOUS
 62
     7
100
AcDbLine
 10
-103.30346
 20
111.1809999999999
 30
0.0
 11
-103.625
 21
112.3809999999999
 31
0.0
  0
LINE
  5
511
330
1E
100
AcDbEntity
  8
0
  6
CONTINUOUS
 62
     7
100
AcDbLine
 10
-103.625
 20
112.3809999999999
 30
0.0
 11
-103.94653
 21
111.1809999999999
 31
0.0
  0
LINE
  5
512
330
1E
100
AcDbEntity
  8
0
  6
CONTINUOUS
 62
     7
100
AcDbLine
 10
-103.94653
 20
106.8279999999999
 30
0.0
 11
-103.625
 21
105.6279999999998
 31
0.0
  0
LINE
  5
513
330
1E
100
AcDbEntity
  8
0
  6
CONTINUOUS
 62
     7
100
AcDbLine
 10
-103.625
 20
105.6279999999998
 30
0.0
 11
-103.30346
 21
106.8279999999999
 31
0.0
  0
LINE
  5
514
330
1E
100
AcDbEntity
  8
0
  6
CONTINUOUS
 62
     7
100
AcDbLine
 10
-103.625
 20
105.6286
 30
0.0
 11
-103.625
 21
104.5886
 31
0.0
  0
TEXT
  5
515
330
1E
100
AcDbEntity
  8
0
  6
CONTINUOUS
 62
     7
100
AcDbText
 10
-104.025
 20
104.5886
 30
0.0
 40
3.2
  1
135
 50
90.0
 41
0.8125
  7
BIGFONT
100
AcDbText
  0
LINE
  5
516
330
1E
100
AcDbEntity
  8
0
  6
CONTINUOUS
 62
     7
100
AcDbLine
 10
-103.625
 20
112.3819
 30
0.0
 11
-103.625
 21
114.8819
 31
0.0
  0
LINE
  5
517
330
1E
100
AcDbEntity
  8
0
  6
CONTINUOUS
 62
     7
100
AcDbLine
 10
-99.4363
 20
114.8819
 30
0.0
 11
-104.4249999999999
 21
114.8819
 31
0.0
  0
LINE
  5
518
330
1E
100
AcDbEntity
  8
0
  6
CONTINUOUS
 62
     7
100
AcDbLine
 10
-103.625
 20
117.2819
 30
0.0
 11
-103.625
 21
114.8819
 31
0.0
  0
LINE
  5
519
330
1E
100
AcDbEntity
  8
0
  6
CONTINUOUS
 62
     7
100
AcDbLine
 10
-103.94653
 20
116.081
 30
0.0
 11
-103.625
 21
114.881
 31
0.0
  0
LINE
  5
51A
330
1E
100
AcDbEntity
  8
0
  6
CONTINUOUS
 62
     7
100
AcDbLine
 10
-103.625
 20
114.881
 30
0.0
 11
-103.30346
 21
116.081
 31
0.0
  0
LINE
  5
51B
330
1E
100
AcDbEntity
  8
0
  6
CONTINUOUS
 62
     7
100
AcDbLine
 10
-103.625
 20
112.3819
 30
0.0
 11
-103.625
 21
109.9818999999999
 31
0.0
  0
LINE
  5
51C
330
1E
100
AcDbEntity
  8
0
  6
CONTINUOUS
 62
     7
100
AcDbLine
 10
-103.30346
 20
111.1809999999999
 30
0.0
 11
-103.625
 21
112.3809999999999
 31
0.0
  0
LINE
  5
51D
330
1E
100
AcDbEntity
  8
0
  6
CONTINUOUS
 62
     7
100
AcDbLine
 10
-103.625
 20
112.3809999999999
 30
0.0
 11
-103.94653
 21
111.1809999999999
 31
0.0
  0
LINE
  5
51E
330
1E
100
AcDbEntity
  8
0
  6
CONTINUOUS
 62
     7
100
AcDbLine
 10
-103.625
 20
117.2819
 30
0.0
 11
-103.625
 21
121.3818999999999
 31
0.0
  0
TEXT
  5
51F
330
1E
100
AcDbEntity
  8
0
  6
CONTINUOUS
 62
     7
100
AcDbText
 10
-104.025
 20
116.1818999999999
 30
0.0
 40
3.2
  1
50
 50
90.0
 41
0.8125
  7
BIGFONT
100
AcDbText
  0
LINE
  5
520
330
1E
100
AcDbEntity
  8
0
  6
CONTINUOUS
 62
     7
100
AcDbLine
 10
-103.625
 20
62.60419999999999
 30
0.0
 11
-103.625
 21
72.4773
 31
0.0
  0
TEXT
  5
521
330
1E
100
AcDbEntity
  8
0
  6
CONTINUOUS
 62
     7
100
AcDbText
 10
-104.0567
 20
65.3546
 30
0.0
 40
3.2
  1
10
 50
90.0
  7
BIGFONT
100
AcDbText
  0
LINE
  5
522
330
1E
100
AcDbEntity
  8
0
  6
CONTINUOUS
 62
     7
100
AcDbLine
 10
212.9199999999999
 20
-74.5098
 30
0.0
 11
217.5
 21
-69.05155
 31
0.0
  0
LINE
  5
523
330
1E
100
AcDbEntity
  8
0
  6
CONTINUOUS
 62
     7
100
AcDbLine
 10
207.5
 20
-79.05155
 30
0.0
 11
212.9199999999999
 21
-74.5098
 31
0.0
  0
ARC
  5
524
330
1E
100
AcDbEntity
  8
0
  6
CONTINUOUS
 62
     7
100
AcDbCircle
 10
212.9191999999999
 20
-74.5107
 30
0.0
 40
3.72115
100
AcDbArc
 50
50.0
 51
219.96
  0
ARC
  5
525
330
1E
100
AcDbEntity
  8
0
  6
CONTINUOUS
 62
     7
100
AcDbCircle
 10
213.7381299999999
 20
-75.03198000000002
 30
0.0
 40
3.720769999999999
100
AcDbArc
 50
64.99332199999999
 51
83.47198399999998
  0
ARC
  5
526
330
1E
100
AcDbEntity
  8
0
  6
CONTINUOUS
 62
     7
100
AcDbCircle
 10
212.26287
 20
-73.79379
 30
0.0
 40
3.720769999999999
100
AcDbArc
 50
34.993322
 51
53.47198399999999
  0
ARC
  5
527
330
1E
100
AcDbEntity
  8
0
  6
CONTINUOUS
 62
     7
100
AcDbCircle
 10
212.2031999999999
 20
-73.85302
 30
0.0
 40
3.72178
100
AcDbArc
 50
216.47977
 51
234.9533999999999
  0
ARC
  5
528
330
1E
100
AcDbEntity
  8
0
  6
CONTINUOUS
 62
     7
100
AcDbCircle
 10
213.44036
 20
-75.32984
 30
0.0
 40
3.72178
100
AcDbArc
 50
186.47977
 51
204.9533999999999
  0
TEXT
  5
529
330
1E
100
AcDbEntity
  8
0
  6
CONTINUOUS
 62
     7
100
AcDbText
 10
206.3278799999999
 20
-75.27125999999999
 30
0.0
 40
3.2
  1
170°
 50
44.96999999999999
 41
0.8125
  7
BIGFONT
100
AcDbText
  0
LINE
  5
52A
330
1E
100
AcDbEntity
  8
0
  6
CONTINUOUS
 62
     7
100
AcDbLine
 10
212.9199999999999
 20
64.8819
 30
0.0
 11
212.9199999999999
 21
70.8819
 31
0.0
  0
LINE
  5
52B
330
1E
100
AcDbEntity
  8
0
  6
CONTINUOUS
 62
     7
100
AcDbLine
 10
176.0
 20
-43.91555
 30
0.0
 11
182.364
 21
-37.55155
 31
0.0
  0
LINE
  5
52C
330
1E
100
AcDbEntity
  8
0
  6
CONTINUOUS
 62
     7
100
AcDbLine
 10
182.364
 20
-37.55155
 30
0.0
 11
217.5
 21
-37.55155
 31
0.0
  0
LINE
  5
52D
330
1E
100
AcDbEntity
  8
0
  6
CONTINUOUS
 62
     7
100
AcDbLine
 10
176.0
 20
-79.05155
 30
0.0
 11
176.0
 21
-43.91555
 31
0.0
  0
LINE
  5
52E
330
1E
100
AcDbEntity
  8
0
  6
CONTINUOUS
 62
     7
100
AcDbLine
 10
181.2563499999999
 20
-49.1719
 30
0.0
 11
187.62035
 21
-42.80789999999997
 31
0.0
  0
LINE
  5
52F
330
1E
100
AcDbEntity
  8
0
  6
CONTINUOUS
 62
     7
100
AcDbLine
 10
183.0710999999999
 20
-38.25865
 30
0.0
 11
188.18603
 21
-43.37358
 31
0.0
  0
LINE
  5
530
330
1E
100
AcDbEntity
  8
0
  6
CONTINUOUS
 62
     7
100
AcDbLine
 10
176.7071
 20
-44.62265
 30
0.0
 11
181.82203
 21
-49.73758
 31
0.0
  0
LINE
  5
531
330
1E
100
AcDbEntity
  8
0
  6
CONTINUOUS
 62
     7
100
AcDbLine
 10
186.9988299999999
 20
-43.88289
 30
0.0
 11
187.62
 21
-42.80699999999998
 31
0.0
  0
LINE
  5
532
330
1E
100
AcDbEntity
  8
0
  6
CONTINUOUS
 62
     7
100
AcDbLine
 10
187.62
 20
-42.80699999999998
 30
0.0
 11
186.5440999999999
 21
-43.42816
 31
0.0
  0
LINE
  5
533
330
1E
100
AcDbEntity
  8
0
  6
CONTINUOUS
 62
     7
100
AcDbLine
 10
181.8771599999999
 20
-48.0951
 30
0.0
 11
181.2559999999999
 21
-49.17100000000001
 31
0.0
  0
LINE
  5
534
330
1E
100
AcDbEntity
  8
0
  6
CONTINUOUS
 62
     7
100
AcDbLine
 10
181.2559999999999
 20
-49.17100000000001
 30
0.0
 11
182.3318899999999
 21
-48.54983
 31
0.0
  0
TEXT
  5
535
330
1E
100
AcDbEntity
  8
0
  6
CONTINUOUS
 62
     7
100
AcDbText
 10
184.22621
 20
-51.29319999999999
 30
0.0
 40
3.2
  1
180
 50
45.0
 41
0.8125
  7
BIGFONT
100
AcDbText
  0
LINE
  5
536
330
1E
100
AcDbEntity
  8
0
  6
CONTINUOUS
 62
     7
100
AcDbLine
 10
-169.5645
 20
-74.5098
 30
0.0
 11
-164.9845
 21
-69.05155
 31
0.0
  0
LINE
  5
537
330
1E
100
AcDbEntity
  8
0
  6
CONTINUOUS
 62
     7
100
AcDbLine
 10
-174.9845
 20
-79.05155
 30
0.0
 11
-169.5645
 21
-74.5098
 31
0.0
  0
LINE
  5
538
330
1E
100
AcDbEntity
  8
0
  6
CONTINUOUS
 62
     7
100
AcDbLine
 10
-50.705
 20
-74.5098
 30
0.0
 11
-46.12499999999999
 21
-69.05155
 31
0.0
  0
LINE
  5
539
330
1E
100
AcDbEntity
  8
0
  6
CONTINUOUS
 62
     7
100
AcDbLine
 10
-56.125
 20
-79.05155
 30
0.0
 11
-50.705
 21
-74.5098
 31
0.0
  0
LINE
  5
57A
330
1E
100
AcDbEntity
  8
2
  6
CONTINUOUS
 62
     7
100
AcDbLine
 10
64.36230000000001
 20
-136.8239
 30
0.0
 11
132.3622999999997
 21
-136.8239
 31
0.0
  0
LINE
  5
57B
330
1E
100
AcDbEntity
  8
2
  6
CONTINUOUS
 62
     7
100
AcDbLine
 10
132.3622999999997
 20
-161.8239
 30
0.0
 11
132.3622999999997
 21
-136.8239
 31
0.0
  0
LINE
  5
57C
330
1E
100
AcDbEntity
  8
2
  6
CONTINUOUS
 62
     7
100
AcDbLine
 10
64.36230000000001
 20
-161.8239
 30
0.0
 11
132.3622999999997
 21
-161.8239
 31
0.0
  0
LINE
  5
57D
330
1E
100
AcDbEntity
  8
2
  6
CONTINUOUS
 62
     7
100
AcDbLine
 10
64.36230000000001
 20
-161.8239
 30
0.0
 11
64.36230000000001
 21
-136.8239
 31
0.0
  0
LINE
  5
57E
330
1E
100
AcDbEntity
  8
2
  6
CONTINUOUS
 62
     7
100
AcDbLine
 10
64.36230000000001
 20
-143.8239
 30
0.0
 11
132.3622999999997
 21
-143.8239
 31
0.0
  0
LINE
  5
57F
330
1E
100
AcDbEntity
  8
2
  6
CONTINUOUS
 62
     7
100
AcDbLine
 10
64.36230000000001
 20
-149.8239
 30
0.0
 11
132.3622999999997
 21
-149.8239
 31
0.0
  0
LINE
  5
580
330
1E
100
AcDbEntity
  8
2
  6
CONTINUOUS
 62
     7
100
AcDbLine
 10
64.36230000000001
 20
-155.8239
 30
0.0
 11
132.3622999999997
 21
-155.8239
 31
0.0
  0
LINE
  5
581
330
1E
100
AcDbEntity
  8
2
  6
CONTINUOUS
 62
     7
100
AcDbLine
 10
112.3623
 20
-161.8239
 30
0.0
 11
112.3623
 21
-143.8239
 31
0.0
  0
TEXT
  5
582
330
1E
100
AcDbEntity
  8
2
  6
CONTINUOUS
 62
     7
100
AcDbText
 10
70.2088
 20
-148.8239
 30
0.0
 40
4.0
  1
鉄　　筋
  7
BIGFONT
100
AcDbText
  0
TEXT
  5
583
330
1E
100
AcDbEntity
  8
2
  6
CONTINUOUS
 62
     7
100
AcDbText
 10
70.2088
 20
-154.8239
 30
0.0
 40
4.0
  1
コンクリート容積
  7
BIGFONT
100
AcDbText
  0
TEXT
  5
584
330
1E
100
AcDbEntity
  8
2
  6
CONTINUOUS
 62
     7
100
AcDbText
 10
70.2088
 20
-160.8239
 30
0.0
 40
4.0
  1
総　重　量
  7
BIGFONT
100
AcDbText
  0
TEXT
  5
585
330
1E
100
AcDbEntity
  8
2
  6
CONTINUOUS
 62
     7
100
AcDbText
 10
72.14019999999996
 20
-142.6083999999999
 30
0.0
 40
5.0
  1
重　量　内　訳　表
  7
BIGFONT
100
AcDbText
  0
TEXT
  5
586
330
1E
100
AcDbEntity
  8
2
  6
CONTINUOUS
 62
     7
100
AcDbText
 10
114.3137999999999
 20
-148.8239
 30
0.0
 40
3.2
  1
24.02
  7
BIGFONT
100
AcDbText
  0
TEXT
  5
587
330
1E
100
AcDbEntity
  8
2
  6
CONTINUOUS
 62
     7
100
AcDbText
 10
127.4398
 20
-148.1169842556925
 30
0.0
 40
3.0
  1
kg
 41
0.9
  7
BIGFONT
100
AcDbText
  0
TEXT
  5
588
330
1E
100
AcDbEntity
  8
2
  6
CONTINUOUS
 62
     7
100
AcDbText
 10
114.6138
 20
-154.9524999999999
 30
0.0
 40
3.2
  1
0.295
  7
BIGFONT
100
AcDbText
  0
TEXT
  5
589
330
1E
100
AcDbEntity
  8
2
  6
CONTINUOUS
 62
     7
100
AcDbText
 10
115.5137999999999
 20
-160.9524999999998
 30
0.0
 40
3.2
  1
710
  7
BIGFONT
100
AcDbText
  0
TEXT
  5
58A
330
1E
100
AcDbEntity
  8
2
  6
CONTINUOUS
 62
     7
100
AcDbText
 10
127.3886999999999
 20
-160.1169842556925
 30
0.0
 40
3.0
  1
kg
 41
0.9
  7
BIGFONT
100
AcDbText
  0
TEXT
  5
58B
330
1E
100
AcDbEntity
  8
2
  6
CONTINUOUS
 62
     7
100
AcDbText
 10
128.230141406374
 20
-154.8239
 30
0.0
 40
3.2
  1
ｍ
 41
0.9375
  7
BIGFONT
100
AcDbText
  0
TEXT
  5
58C
330
1E
100
AcDbEntity
  8
2
  6
CONTINUOUS
 62
     7
100
AcDbText
 10
130.5627414063738
 20
-153.0316032204476
 30
0.0
 40
1.199999999999999
  1
３
 41
0.8
  7
BIGFONT
100
AcDbText
  0
TEXT
  5
660
330
1E
100
AcDbEntity
  8
2
  6
CONTINUOUS
 62
     7
100
AcDbText
 10
1.125100000000144
 20
-55.32879999999989
 30
0.0
 40
4.0
  1
径
  7
BIGFONT
100
AcDbText
  0
TEXT
  5
661
330
1E
100
AcDbEntity
  8
2
  6
CONTINUOUS
 62
     7
100
AcDbText
 10
-7.318799999999896
 20
-45.76689999999991
 30
0.0
 40
5.0
  1
鉄筋表
  7
BIGFONT
100
AcDbText
  0
TEXT
  5
662
330
1E
100
AcDbEntity
  8
2
  6
CONTINUOUS
 62
     7
100
AcDbText
 10
-1.191599999999879
 20
-62.30959999999993
 30
0.0
 40
3.5
  1
D10
  7
BIGFONT
100
AcDbText
  0
TEXT
  5
663
330
1E
100
AcDbEntity
  8
2
  6
CONTINUOUS
 62
     7
100
AcDbText
 10
-1.156299999999873
 20
-70.6909999999999
 30
0.0
 40
3.5
  1
D10
  7
BIGFONT
100
AcDbText
  0
TEXT
  5
664
330
1E
100
AcDbEntity
  8
2
  6
CONTINUOUS
 62
     7
100
AcDbText
 10
-1.156299999999873
 20
-83.19099999999989
 30
0.0
 40
3.5
  1
D10
  7
BIGFONT
100
AcDbText
  0
TEXT
  5
665
330
1E
100
AcDbEntity
  8
2
  6
CONTINUOUS
 62
     7
100
AcDbText
 10
-1.156299999999873
 20
-87.88429999999994
 30
0.0
 40
3.5
  1
D10
  7
BIGFONT
100
AcDbText
  0
TEXT
  5
666
330
1E
100
AcDbEntity
  8
2
  6
CONTINUOUS
 62
     7
100
AcDbText
 10
-1.156299999999873
 20
-75.38429999999994
 30
0.0
 40
3.5
  1
D10
  7
BIGFONT
100
AcDbText
  0
TEXT
  5
667
330
1E
100
AcDbEntity
  8
2
  6
CONTINUOUS
 62
     7
100
AcDbText
 10
-1.191599999999879
 20
-96.30959999999994
 30
0.0
 40
3.5
  1
D10
  7
BIGFONT
100
AcDbText
  0
TEXT
  5
668
330
1E
100
AcDbEntity
  8
2
  6
CONTINUOUS
 62
     7
100
AcDbText
 10
-1.191599999999879
 20
-104.3095999999999
 30
0.0
 40
3.5
  1
D10
  7
BIGFONT
100
AcDbText
  0
TEXT
  5
669
330
1E
100
AcDbEntity
  8
2
  6
CONTINUOUS
 62
     7
100
AcDbText
 10
-1.191599999999879
 20
-112.3095999999996
 30
0.0
 40
3.5
  1
D10
  7
BIGFONT
100
AcDbText
  0
TEXT
  5
66A
330
1E
100
AcDbEntity
  8
2
  6
CONTINUOUS
 62
     7
100
AcDbText
 10
-1.191599999999879
 20
-120.3095999999999
 30
0.0
 40
3.5
  1
D10
  7
BIGFONT
100
AcDbText
  0
LINE
  5
66B
330
1E
100
AcDbEntity
  8
2
  6
CONTINUOUS
 62
     7
100
AcDbLine
 10
-14.63769999999988
 20
-130.8238999999999
 30
0.0
 11
132.3622999999997
 21
-130.8238999999999
 31
0.0
  0
LINE
  5
66C
330
1E
100
AcDbEntity
  8
2
  6
CONTINUOUS
 62
     7
100
AcDbLine
 10
-14.63769999999988
 20
-122.8238999999999
 30
0.0
 11
132.3622999999997
 21
-122.8238999999999
 31
0.0
  0
LINE
  5
66D
330
1E
100
AcDbEntity
  8
2
  6
CONTINUOUS
 62
     7
100
AcDbLine
 10
-14.63769999999988
 20
-114.8238999999999
 30
0.0
 11
132.3622999999997
 21
-114.8238999999999
 31
0.0
  0
LINE
  5
66E
330
1E
100
AcDbEntity
  8
2
  6
CONTINUOUS
 62
     7
100
AcDbLine
 10
-14.63769999999988
 20
-106.8238999999999
 30
0.0
 11
132.3622999999997
 21
-106.8238999999999
 31
0.0
  0
LINE
  5
66F
330
1E
100
AcDbEntity
  8
2
  6
CONTINUOUS
 62
     7
100
AcDbLine
 10
-14.63769999999988
 20
-90.82389999999993
 30
0.0
 11
132.3622999999997
 21
-90.82389999999993
 31
0.0
  0
LINE
  5
670
330
1E
100
AcDbEntity
  8
2
  6
CONTINUOUS
 62
     7
100
AcDbLine
 10
-14.63769999999988
 20
-77.82389999999992
 30
0.0
 11
132.3622999999997
 21
-77.82389999999992
 31
0.0
  0
LINE
  5
671
330
1E
100
AcDbEntity
  8
2
  6
CONTINUOUS
 62
     7
100
AcDbLine
 10
-14.63769999999988
 20
-98.82389999999979
 30
0.0
 11
132.3622999999997
 21
-98.82389999999979
 31
0.0
  0
LINE
  5
672
330
1E
100
AcDbEntity
  8
2
  6
CONTINUOUS
 62
     7
100
AcDbLine
 10
-14.63769999999988
 20
-56.82389999999992
 30
0.0
 11
132.3622999999997
 21
-56.82389999999992
 31
0.0
  0
LINE
  5
673
330
1E
100
AcDbEntity
  8
2
  6
CONTINUOUS
 62
     7
100
AcDbLine
 10
-14.63769999999988
 20
-64.82389999999992
 30
0.0
 11
132.3622999999997
 21
-64.82389999999992
 31
0.0
  0
LINE
  5
674
330
1E
100
AcDbEntity
  8
2
  6
CONTINUOUS
 62
     7
100
AcDbLine
 10
-14.63769999999988
 20
-48.82389999999992
 30
0.0
 11
132.3622999999997
 21
-48.82389999999992
 31
0.0
  0
LINE
  5
675
330
1E
100
AcDbEntity
  8
2
  6
CONTINUOUS
 62
     7
100
AcDbLine
 10
-14.63769999999988
 20
-130.8238999999999
 30
0.0
 11
-14.63769999999988
 21
-98.82389999999979
 31
0.0
  0
LINE
  5
676
330
1E
100
AcDbEntity
  8
2
  6
CONTINUOUS
 62
     7
100
AcDbLine
 10
-4.637699999999879
 20
-122.8238999999999
 30
0.0
 11
-4.637699999999879
 21
-48.82389999999992
 31
0.0
  0
LINE
  5
677
330
1E
100
AcDbEntity
  8
2
  6
CONTINUOUS
 62
     7
100
AcDbLine
 10
-14.63769999999988
 20
-64.82389999999992
 30
0.0
 11
-14.63769999999988
 21
-48.82389999999992
 31
0.0
  0
LINE
  5
678
330
1E
100
AcDbEntity
  8
2
  6
CONTINUOUS
 62
     7
100
AcDbLine
 10
-14.63769999999988
 20
-98.82389999999979
 30
0.0
 11
-14.63769999999988
 21
-64.82389999999992
 31
0.0
  0
TEXT
  5
679
330
1E
100
AcDbEntity
  8
2
  6
CONTINUOUS
 62
     7
100
AcDbText
 10
-11.19159999999988
 20
-112.3095999999996
 30
0.0
 40
3.5
  1
６
  7
BIGFONT
100
AcDbText
  0
TEXT
  5
67A
330
1E
100
AcDbEntity
  8
2
  6
CONTINUOUS
 62
     7
100
AcDbText
 10
-11.19159999999988
 20
-120.3095999999999
 30
0.0
 40
3.5
  1
７
  7
BIGFONT
100
AcDbText
  0
TEXT
  5
67B
330
1E
100
AcDbEntity
  8
2
  6
CONTINUOUS
 62
     7
100
AcDbText
 10
-11.19159999999988
 20
-96.30959999999994
 30
0.0
 40
3.5
  1
４
  7
BIGFONT
100
AcDbText
  0
TEXT
  5
67C
330
1E
100
AcDbEntity
  8
2
  6
CONTINUOUS
 62
     7
100
AcDbText
 10
-11.19159999999988
 20
-104.3095999999999
 30
0.0
 40
3.5
  1
５
  7
BIGFONT
100
AcDbText
  0
TEXT
  5
67D
330
1E
100
AcDbEntity
  8
2
  6
CONTINUOUS
 62
     7
100
AcDbText
 10
-11.15629999999985
 20
-83.19099999999989
 30
0.0
 40
3.5
  1
３
  7
BIGFONT
100
AcDbText
  0
TEXT
  5
67E
330
1E
100
AcDbEntity
  8
2
  6
CONTINUOUS
 62
     7
100
AcDbText
 10
-11.19159999999988
 20
-62.30959999999993
 30
0.0
 40
3.5
  1
１
  7
BIGFONT
100
AcDbText
  0
TEXT
  5
67F
330
1E
100
AcDbEntity
  8
2
  6
CONTINUOUS
 62
     7
100
AcDbText
 10
-11.15629999999985
 20
-70.6909999999999
 30
0.0
 40
3.5
  1
２
  7
BIGFONT
100
AcDbText
  0
TEXT
  5
680
330
1E
100
AcDbEntity
  8
2
  6
CONTINUOUS
 62
     7
100
AcDbText
 10
-13.91489999999987
 20
-55.15309999999993
 30
0.0
 40
4.0
  1
番号
  7
BIGFONT
100
AcDbText
  0
LINE
  5
681
330
1E
100
AcDbEntity
  8
2
  6
CONTINUOUS
 62
     7
100
AcDbLine
 10
132.3622999999997
 20
-130.8238999999999
 30
0.0
 11
132.3622999999997
 21
-98.82389999999979
 31
0.0
  0
LINE
  5
682
330
1E
100
AcDbEntity
  8
2
  6
CONTINUOUS
 62
     7
100
AcDbLine
 10
97.36230000000013
 20
-130.8238999999999
 30
0.0
 11
97.36230000000013
 21
-48.82389999999992
 31
0.0
  0
TEXT
  5
683
330
1E
100
AcDbEntity
  8
2
  6
CONTINUOUS
 62
     7
100
AcDbText
 10
80.09710000000012
 20
-129.0813999999998
 30
0.0
 40
4.0
  1
合計
  7
BIGFONT
100
AcDbText
  0
TEXT
  5
684
330
1E
100
AcDbEntity
  8
2
  6
CONTINUOUS
 62
     7
100
AcDbText
 10
109.9077
 20
-129.0813999999998
 30
0.0
 40
3.2
  1
24.02
  7
BIGFONT
100
AcDbText
  0
TEXT
  5
685
330
1E
100
AcDbEntity
  8
2
  6
CONTINUOUS
 62
     7
100
AcDbText
 10
124.0337
 20
-129.0813999999998
 30
0.0
 40
3.2
  1
ｋｇ
  7
BIGFONT
100
AcDbText
  0
TEXT
  5
686
330
1E
100
AcDbEntity
  8
2
  6
CONTINUOUS
 62
     7
100
AcDbText
 10
83.13036550422731
 20
-104.3474999999999
 30
0.0
 40
3.5
  1
1655
  7
BIGFONT
100
AcDbText
  0
TEXT
  5
687
330
1E
100
AcDbEntity
  8
2
  6
CONTINUOUS
 62
     7
100
AcDbText
 10
83.13036550422731
 20
-112.3474999999997
 30
0.0
 40
3.5
  1
1995
  7
BIGFONT
100
AcDbText
  0
LINE
  5
688
330
1E
100
AcDbEntity
  8
2
  6
CONTINUOUS
 62
     7
100
AcDbLine
 10
28.36230000000012
 20
-122.8238999999999
 30
0.0
 11
28.36230000000012
 21
-48.82389999999992
 31
0.0
  0
LINE
  5
689
330
1E
100
AcDbEntity
  8
2
  6
CONTINUOUS
 62
     7
100
AcDbLine
 10
46.3623000000001
 20
-122.8238999999999
 30
0.0
 11
46.3623000000001
 21
-48.82389999999992
 31
0.0
  0
LINE
  5
68A
330
1E
100
AcDbEntity
  8
2
  6
CONTINUOUS
 62
     7
100
AcDbLine
 10
64.36230000000012
 20
-122.8238999999999
 30
0.0
 11
64.36230000000012
 21
-48.82389999999992
 31
0.0
  0
LINE
  5
68B
330
1E
100
AcDbEntity
  8
2
  6
CONTINUOUS
 62
     7
100
AcDbLine
 10
79.36230000000012
 20
-122.8238999999999
 30
0.0
 11
79.36230000000012
 21
-48.82389999999992
 31
0.0
  0
LINE
  5
68C
330
1E
100
AcDbEntity
  8
2
  6
CONTINUOUS
 62
     7
100
AcDbLine
 10
10.36230000000011
 20
-122.8238999999999
 30
0.0
 11
10.36230000000011
 21
-48.82389999999992
 31
0.0
  0
TEXT
  5
68D
330
1E
100
AcDbEntity
  8
2
  6
CONTINUOUS
 62
     7
100
AcDbText
 10
16.7195036041665
 20
-112.3474999999999
 30
0.0
 40
3.5
  1
820
  7
BIGFONT
100
AcDbText
  0
TEXT
  5
68E
330
1E
100
AcDbEntity
  8
2
  6
CONTINUOUS
 62
     7
100
AcDbText
 10
16.7195036041665
 20
-120.3475
 30
0.0
 40
3.5
  1
270
  7
BIGFONT
100
AcDbText
  0
TEXT
  5
68F
330
1E
100
AcDbEntity
  8
2
  6
CONTINUOUS
 62
     7
100
AcDbText
 10
20.10397944111156
 20
-96.34749999999982
 30
0.0
 40
3.5
  1
80
  7
BIGFONT
100
AcDbText
  0
TEXT
  5
690
330
1E
100
AcDbEntity
  8
2
  6
CONTINUOUS
 62
     7
100
AcDbText
 10
17.22702647681336
 20
-104.3474999999999
 30
0.0
 40
3.5
  1
800
  7
BIGFONT
100
AcDbText
  0
TEXT
  5
691
330
1E
100
AcDbEntity
  8
2
  6
CONTINUOUS
 62
     7
100
AcDbText
 10
36.07339154709944
 20
-112.3474999999999
 30
0.0
 40
3.5
  1
55
  7
BIGFONT
100
AcDbText
  0
TEXT
  5
692
330
1E
100
AcDbEntity
  8
2
  6
CONTINUOUS
 62
     7
100
AcDbText
 10
40.06223794601536
 20
-120.3475
 30
0.0
 40
3.5
  1
0
  7
BIGFONT
100
AcDbText
  0
TEXT
  5
693
330
1E
100
AcDbEntity
  8
2
  6
CONTINUOUS
 62
     7
100
AcDbText
 10
33.77678306665603
 20
-96.34749999999982
 30
0.0
 40
3.5
  1
193
  7
BIGFONT
100
AcDbText
  0
TEXT
  5
694
330
1E
100
AcDbEntity
  8
2
  6
CONTINUOUS
 62
     7
100
AcDbText
 10
36.07339154709944
 20
-104.3474999999999
 30
0.0
 40
3.5
  1
55
  7
BIGFONT
100
AcDbText
  0
TEXT
  5
695
330
1E
100
AcDbEntity
  8
2
  6
CONTINUOUS
 62
     7
100
AcDbText
 10
16.7195036041665
 20
-69.96545091359831
 30
0.0
 40
3.5
  1
668
  7
BIGFONT
100
AcDbText
  0
TEXT
  5
696
330
1E
100
AcDbEntity
  8
2
  6
CONTINUOUS
 62
     7
100
AcDbText
 10
16.7195036041665
 20
-75.84400954686208
 30
0.0
 40
3.5
  1
830
  7
BIGFONT
100
AcDbText
  0
TEXT
  5
697
330
1E
100
AcDbEntity
  8
2
  6
CONTINUOUS
 62
     7
100
AcDbText
 10
16.7195036041665
 20
-88.84400954686208
 30
0.0
 40
3.5
  1
830
  7
BIGFONT
100
AcDbText
  0
TEXT
  5
698
330
1E
100
AcDbEntity
  8
2
  6
CONTINUOUS
 62
     7
100
AcDbText
 10
16.7195036041665
 20
-82.96545091359829
 30
0.0
 40
3.5
  1
370
  7
BIGFONT
100
AcDbText
  0
TEXT
  5
699
330
1E
100
AcDbEntity
  8
2
  6
CONTINUOUS
 62
     7
100
AcDbText
 10
17.90372364034264
 20
-62.34749999999991
 30
0.0
 40
3.5
  1
860
  7
BIGFONT
100
AcDbText
  0
TEXT
  5
69A
330
1E
100
AcDbEntity
  8
2
  6
CONTINUOUS
 62
     7
100
AcDbText
 10
36.07339154709944
 20
-75.84400954686208
 30
0.0
 40
3.5
  1
55
  7
BIGFONT
100
AcDbText
  0
TEXT
  5
69B
330
1E
100
AcDbEntity
  8
2
  6
CONTINUOUS
 62
     7
100
AcDbText
 10
36.07339154709944
 20
-82.96545091359829
 30
0.0
 40
3.5
  1
55
  7
BIGFONT
100
AcDbText
  0
TEXT
  5
69C
330
1E
100
AcDbEntity
  8
2
  6
CONTINUOUS
 62
     7
100
AcDbText
 10
36.07339154709944
 20
-88.84400954686208
 30
0.0
 40
3.5
  1
55
  7
BIGFONT
100
AcDbText
  0
TEXT
  5
69D
330
1E
100
AcDbEntity
  8
2
  6
CONTINUOUS
 62
     7
100
AcDbText
 10
36.07339154709944
 20
-62.34749999999991
 30
0.0
 40
3.5
  1
55
  7
BIGFONT
100
AcDbText
  0
TEXT
  5
69E
330
1E
100
AcDbEntity
  8
2
  6
CONTINUOUS
 62
     7
100
AcDbText
 10
36.07339154709944
 20
-69.96545091359831
 30
0.0
 40
3.5
  1
55
  7
BIGFONT
100
AcDbText
  0
TEXT
  5
69F
330
1E
100
AcDbEntity
  8
2
  6
CONTINUOUS
 62
     7
100
AcDbText
 10
68.8223851586916
 20
-104.3474999999999
 30
0.0
 40
3.5
  1
30
  7
BIGFONT
100
AcDbText
  0
TEXT
  5
6A0
330
1E
100
AcDbEntity
  8
2
  6
CONTINUOUS
 62
     7
100
AcDbText
 10
68.8223851586916
 20
-112.3474999999997
 30
0.0
 40
3.5
  1
30
  7
BIGFONT
100
AcDbText
  0
TEXT
  5
6A1
330
1E
100
AcDbEntity
  8
2
  6
CONTINUOUS
 62
     7
100
AcDbText
 10
58.81505355243628
 20
-120.3475
 30
0.0
 40
3.5
  1
0
  7
BIGFONT
100
AcDbText
  0
TEXT
  5
6A2
330
1E
100
AcDbEntity
  8
2
  6
CONTINUOUS
 62
     7
100
AcDbText
 10
51.93097850194892
 20
-112.3474999999999
 30
0.0
 40
3.5
  1
820
  7
BIGFONT
100
AcDbText
  0
TEXT
  5
6A3
330
1E
100
AcDbEntity
  8
2
  6
CONTINUOUS
 62
     7
100
AcDbText
 10
51.93097850194892
 20
-104.3474999999999
 30
0.0
 40
3.5
  1
800
  7
BIGFONT
100
AcDbText
  0
TEXT
  5
6A4
330
1E
100
AcDbEntity
  8
2
  6
CONTINUOUS
 62
     7
100
AcDbText
 10
55.45696845642789
 20
-96.34749999999982
 30
0.0
 40
3.5
  1
80
  7
BIGFONT
100
AcDbText
  0
TEXT
  5
6A5
330
1E
100
AcDbEntity
  8
2
  6
CONTINUOUS
 62
     7
100
AcDbText
 10
72.3483751131705
 20
-120.3474999999996
 30
0.0
 40
3.5
  1
0
  7
BIGFONT
100
AcDbText
  0
TEXT
  5
6A6
330
1E
100
AcDbEntity
  8
2
  6
CONTINUOUS
 62
     7
100
AcDbText
 10
83.13036550422728
 20
-120.3474999999996
 30
0.0
 40
3.5
  1
270
  7
BIGFONT
100
AcDbText
  0
TEXT
  5
6A7
330
1E
100
AcDbEntity
  8
2
  6
CONTINUOUS
 62
     7
100
AcDbText
 10
72.34837511317056
 20
-96.34749999999982
 30
0.0
 40
3.5
  1
0
  7
BIGFONT
100
AcDbText
  0
TEXT
  5
6A8
330
1E
100
AcDbEntity
  8
2
  6
CONTINUOUS
 62
     7
100
AcDbText
 10
83.13036550422731
 20
-96.34749999999982
 30
0.0
 40
3.5
  1
353
  7
BIGFONT
100
AcDbText
  0
TEXT
  5
6A9
330
1E
100
AcDbEntity
  8
2
  6
CONTINUOUS
 62
     7
100
AcDbText
 10
68.8223851586916
 20
-62.34749999999991
 30
0.0
 40
3.5
  1
30
  7
BIGFONT
100
AcDbText
  0
TEXT
  5
6AA
330
1E
100
AcDbEntity
  8
2
  6
CONTINUOUS
 62
     7
100
AcDbText
 10
68.8223851586916
 20
-69.53552932312738
 30
0.0
 40
3.5
  1
30
  7
BIGFONT
100
AcDbText
  0
TEXT
  5
6AB
330
1E
100
AcDbEntity
  8
2
  6
CONTINUOUS
 62
     7
100
AcDbText
 10
68.8223851586916
 20
-82.53552932312738
 30
0.0
 40
3.5
  1
30
  7
BIGFONT
100
AcDbText
  0
TEXT
  5
6AC
330
1E
100
AcDbEntity
  8
2
  6
CONTINUOUS
 62
     7
100
AcDbText
 10
68.8223851586916
 20
-89.04608950402717
 30
0.0
 40
3.5
  1
30
  7
BIGFONT
100
AcDbText
  0
TEXT
  5
6AD
330
1E
100
AcDbEntity
  8
2
  6
CONTINUOUS
 62
     7
100
AcDbText
 10
68.8223851586916
 20
-76.04608950402718
 30
0.0
 40
3.5
  1
30
  7
BIGFONT
100
AcDbText
  0
TEXT
  5
6AE
330
1E
100
AcDbEntity
  8
2
  6
CONTINUOUS
 62
     7
100
AcDbText
 10
55.45696845642789
 20
-75.84400954686208
 30
0.0
 40
3.5
  1
80
  7
BIGFONT
100
AcDbText
  0
TEXT
  5
6AF
330
1E
100
AcDbEntity
  8
2
  6
CONTINUOUS
 62
     7
100
AcDbText
 10
51.93097850194892
 20
-88.84400954686208
 30
0.0
 40
3.5
  1
520
  7
BIGFONT
100
AcDbText
  0
TEXT
  5
6B0
330
1E
100
AcDbEntity
  8
2
  6
CONTINUOUS
 62
     7
100
AcDbText
 10
51.93097850194892
 20
-82.96545091359829
 30
0.0
 40
3.5
  1
520
  7
BIGFONT
100
AcDbText
  0
TEXT
  5
6B1
330
1E
100
AcDbEntity
  8
2
  6
CONTINUOUS
 62
     7
100
AcDbText
 10
55.45696845642789
 20
-69.96545091359831
 30
0.0
 40
3.5
  1
80
  7
BIGFONT
100
AcDbText
  0
TEXT
  5
6B2
330
1E
100
AcDbEntity
  8
2
  6
CONTINUOUS
 62
     7
100
AcDbText
 10
55.45696845642789
 20
-62.34749999999991
 30
0.0
 40
3.5
  1
80
  7
BIGFONT
100
AcDbText
  0
TEXT
  5
6B3
330
1E
100
AcDbEntity
  8
2
  6
CONTINUOUS
 62
     7
100
AcDbText
 10
83.13036550422731
 20
-76.04608950402718
 30
0.0
 40
3.5
  1
965
  7
BIGFONT
100
AcDbText
  0
TEXT
  5
6B4
330
1E
100
AcDbEntity
  8
2
  6
CONTINUOUS
 62
     7
100
AcDbText
 10
83.13036550422731
 20
-89.04608950402717
 30
0.0
 40
3.5
  1
1405
  7
BIGFONT
100
AcDbText
  0
TEXT
  5
6B5
330
1E
100
AcDbEntity
  8
2
  6
CONTINUOUS
 62
     7
100
AcDbText
 10
83.13036550422731
 20
-82.53552932312738
 30
0.0
 40
3.5
  1
945
  7
BIGFONT
100
AcDbText
  0
TEXT
  5
6B6
330
1E
100
AcDbEntity
  8
2
  6
CONTINUOUS
 62
     7
100
AcDbText
 10
83.13036550422731
 20
-69.53552932312738
 30
0.0
 40
3.5
  1
803
  7
BIGFONT
100
AcDbText
  0
TEXT
  5
6B7
330
1E
100
AcDbEntity
  8
2
  6
CONTINUOUS
 62
     7
100
AcDbText
 10
83.13036550422731
 20
-62.34749999999991
 30
0.0
 40
3.5
  1
995
  7
BIGFONT
100
AcDbText
  0
TEXT
  5
6B8
330
1E
100
AcDbEntity
  8
2
  6
CONTINUOUS
 62
     7
100
AcDbText
 10
16.10610000000014
 20
-55.3318999999999
 30
0.0
 40
4.0
  1
Ｌ１
  7
BIGFONT
100
AcDbText
  0
TEXT
  5
6B9
330
1E
100
AcDbEntity
  8
2
  6
CONTINUOUS
 62
     7
100
AcDbText
 10
33.80490000000007
 20
-55.36729999999991
 30
0.0
 40
4.0
  1
Ｌ２
  7
BIGFONT
100
AcDbText
  0
TEXT
  5
6BA
330
1E
100
AcDbEntity
  8
2
  6
CONTINUOUS
 62
     7
100
AcDbText
 10
70.16460000000012
 20
-55.3318999999999
 30
0.0
 40
4.0
  1
Ｒ
  7
BIGFONT
100
AcDbText
  0
TEXT
  5
6BB
330
1E
100
AcDbEntity
  8
2
  6
CONTINUOUS
 62
     7
100
AcDbText
 10
50.99440000000015
 20
-55.29639999999992
 30
0.0
 40
4.0
  1
Ｌ３
  7
BIGFONT
100
AcDbText
  0
TEXT
  5
6BC
330
1E
100
AcDbEntity
  8
2
  6
CONTINUOUS
 62
     7
100
AcDbText
 10
86.0657000000001
 20
-55.36729999999991
 30
0.0
 40
4.0
  1
Ｌ
  7
BIGFONT
100
AcDbText
  0
LINE
  5
6BD
330
1E
100
AcDbEntity
  8
2
  6
CONTINUOUS
 62
     7
100
AcDbLine
 10
132.3622999999997
 20
-64.82389999999992
 30
0.0
 11
132.3622999999997
 21
-48.82389999999992
 31
0.0
  0
LINE
  5
6BE
330
1E
100
AcDbEntity
  8
2
  6
CONTINUOUS
 62
     7
100
AcDbLine
 10
112.3623
 20
-122.8238999999999
 30
0.0
 11
112.3623
 21
-48.82389999999992
 31
0.0
  0
LINE
  5
6BF
330
1E
100
AcDbEntity
  8
2
  6
CONTINUOUS
 62
     7
100
AcDbLine
 10
132.3622999999997
 20
-98.82389999999979
 30
0.0
 11
132.3622999999997
 21
-64.82389999999992
 31
0.0
  0
TEXT
  5
6C0
330
1E
100
AcDbEntity
  8
2
  6
CONTINUOUS
 62
     7
100
AcDbText
 10
103.7465492117894
 20
-120.3474999999996
 30
0.0
 40
3.5
  1
1
  7
BIGFONT
100
AcDbText
  0
TEXT
  5
6C1
330
1E
100
AcDbEntity
  8
2
  6
CONTINUOUS
 62
     7
100
AcDbText
 10
103.7465492117895
 20
-112.3474999999997
 30
0.0
 40
3.5
  1
2
  7
BIGFONT
100
AcDbText
  0
TEXT
  5
6C2
330
1E
100
AcDbEntity
  8
2
  6
CONTINUOUS
 62
     7
100
AcDbText
 10
103.7465492117895
 20
-104.3474999999999
 30
0.0
 40
3.5
  1
4
  7
BIGFONT
100
AcDbText
  0
TEXT
  5
6C3
330
1E
100
AcDbEntity
  8
2
  6
CONTINUOUS
 62
     7
100
AcDbText
 10
103.7465492117895
 20
-96.34749999999982
 30
0.0
 40
3.5
  1
6
  7
BIGFONT
100
AcDbText
  0
TEXT
  5
6C4
330
1E
100
AcDbEntity
  8
2
  6
CONTINUOUS
 62
     7
100
AcDbText
 10
118.6251680854635
 20
-120.3474999999996
 30
0.0
 40
3.5
  1
0.15
  7
BIGFONT
100
AcDbText
  0
TEXT
  5
6C5
330
1E
100
AcDbEntity
  8
2
  6
CONTINUOUS
 62
     7
100
AcDbText
 10
118.6251680854637
 20
-112.3474999999997
 30
0.0
 40
3.5
  1
1.90
  7
BIGFONT
100
AcDbText
  0
TEXT
  5
6C6
330
1E
100
AcDbEntity
  8
2
  6
CONTINUOUS
 62
     7
100
AcDbText
 10
118.6251680854637
 20
-104.3474999999999
 30
0.0
 40
3.5
  1
3.71
  7
BIGFONT
100
AcDbText
  0
TEXT
  5
6C7
330
1E
100
AcDbEntity
  8
2
  6
CONTINUOUS
 62
     7
100
AcDbText
 10
118.6251680854637
 20
-96.34749999999982
 30
0.0
 40
3.5
  1
1.19
  7
BIGFONT
100
AcDbText
  0
TEXT
  5
6C8
330
1E
100
AcDbEntity
  8
2
  6
CONTINUOUS
 62
     7
100
AcDbText
 10
103.7465492117895
 20
-76.04608950402718
 30
0.0
 40
3.5
  1
8
  7
BIGFONT
100
AcDbText
  0
TEXT
  5
6C9
330
1E
100
AcDbEntity
  8
2
  6
CONTINUOUS
 62
     7
100
AcDbText
 10
103.7465492117895
 20
-89.04608950402717
 30
0.0
 40
3.5
  1
6
  7
BIGFONT
100
AcDbText
  0
TEXT
  5
6CA
330
1E
100
AcDbEntity
  8
2
  6
CONTINUOUS
 62
     7
100
AcDbText
 10
103.7465492117895
 20
-82.53552932312738
 30
0.0
 40
3.5
  1
4
  7
BIGFONT
100
AcDbText
  0
TEXT
  5
6CB
330
1E
100
AcDbEntity
  8
2
  6
CONTINUOUS
 62
     7
100
AcDbText
 10
103.7465492117895
 20
-69.53552932312738
 30
0.0
 40
3.5
  1
2
  7
BIGFONT
100
AcDbText
  0
TEXT
  5
6CC
330
1E
100
AcDbEntity
  8
2
  6
CONTINUOUS
 62
     7
100
AcDbText
 10
103.7465492117895
 20
-62.34749999999991
 30
0.0
 40
3.5
  1
9
  7
BIGFONT
100
AcDbText
  0
TEXT
  5
6CD
330
1E
100
AcDbEntity
  8
2
  6
CONTINUOUS
 62
     7
100
AcDbText
 10
118.6251680854637
 20
-76.04608950402718
 30
0.0
 40
3.5
  1
4.32
  7
BIGFONT
100
AcDbText
  0
TEXT
  5
6CE
330
1E
100
AcDbEntity
  8
2
  6
CONTINUOUS
 62
     7
100
AcDbText
 10
118.6251680854637
 20
-89.04608950402717
 30
0.0
 40
3.5
  1
4.72
  7
BIGFONT
100
AcDbText
  0
TEXT
  5
6CF
330
1E
100
AcDbEntity
  8
2
  6
CONTINUOUS
 62
     7
100
AcDbText
 10
118.6251680854637
 20
-82.53552932312738
 30
0.0
 40
3.5
  1
2.12
  7
BIGFONT
100
AcDbText
  0
TEXT
  5
6D0
330
1E
100
AcDbEntity
  8
2
  6
CONTINUOUS
 62
     7
100
AcDbText
 10
118.6251680854637
 20
-69.53552932312738
 30
0.0
 40
3.5
  1
0.90
  7
BIGFONT
100
AcDbText
  0
TEXT
  5
6D1
330
1E
100
AcDbEntity
  8
2
  6
CONTINUOUS
 62
     7
100
AcDbText
 10
118.6251680854637
 20
-62.34749999999991
 30
0.0
 40
3.5
  1
5.01
  7
BIGFONT
100
AcDbText
  0
TEXT
  5
6D2
330
1E
100
AcDbEntity
  8
2
  6
CONTINUOUS
 62
     7
100
AcDbText
 10
116.4612999999999
 20
-55.22889999999993
 30
0.0
 40
4.0
  1
重量
  7
BIGFONT
100
AcDbText
  0
TEXT
  5
6D3
330
1E
100
AcDbEntity
  8
2
  6
CONTINUOUS
 62
     7
100
AcDbText
 10
100.0183
 20
-55.22879999999992
 30
0.0
 40
4.0
  1
本数
  7
BIGFONT
100
AcDbText
  0
ENDSEC
  0
SECTION
  2
OBJECTS
  0
DICTIONARY
  5
C
330
0
100
AcDbDictionary
  3
ACAD_GROUP
350
D
  3
ACAD_LAYOUT
350
19
  3
ACAD_MLINESTYLE
350
16
  3
ACAD_PLOTSETTINGS
350
18
1001
ACAD
1000
TREAT_AS_HARD
1070
     0
1000
TREAT_AS_HARD
1070
     0
1000
TREAT_AS_HARD
1070
     0
  0
DICTIONARY
  5
6E6
330
1E
100
AcDbDictionary
  3
ACAD_LAYOUTSELFREF
350
6FF
1001
ACAD
1000
TREAT_AS_HARD
1070
     0
1000
TREAT_AS_HARD
1070
     0
  0
DICTIONARY
  5
6E4
330
1A
100
AcDbDictionary
  3
ACAD_LAYOUTSELFREF
350
6FE
1001
ACAD
1000
TREAT_AS_HARD
1070
     0
1000
TREAT_AS_HARD
1070
     0
  0
DICTIONARY
  5
D
102
{ACAD_REACTORS
330
C
102
}
330
C
100
AcDbDictionary
1001
ACAD
1000
TREAT_AS_HARD
1070
     0
1000
TREAT_AS_HARD
1070
     0
1000
TREAT_AS_HARD
1070
     0
  0
DICTIONARY
  5
19
102
{ACAD_REACTORS
330
C
102
}
330
C
100
AcDbDictionary
1001
ACAD
1000
TREAT_AS_HARD
1070
     0
1000
TREAT_AS_HARD
1070
     0
1000
TREAT_AS_HARD
1070
     0
  0
DICTIONARY
  5
16
102
{ACAD_REACTORS
330
C
102
}
330
C
100
AcDbDictionary
  3
STANDARD
350
17
1001
ACAD
1000
TREAT_AS_HARD
1070
     0
1000
TREAT_AS_HARD
1070
     0
1000
TREAT_AS_HARD
1070
     0
  0
DICTIONARY
  5
18
102
{ACAD_REACTORS
330
C
102
}
330
C
100
AcDbDictionary
1001
ACAD
1000
TREAT_AS_HARD
1070
     0
1000
TREAT_AS_HARD
1070
     0
1000
TREAT_AS_HARD
1070
     0
  0
XRECORD
  5
6FF
102
{ACAD_REACTORS
330
6E6
102
}
330
6E6
100
AcDbXrecord
340
1E
  0
XRECORD
  5
6FE
102
{ACAD_REACTORS
330
6E4
102
}
330
6E4
100
AcDbXrecord
340
1A
  0
MLINESTYLE
  5
17
102
{ACAD_REACTORS
330
16
102
}
330
16
100
AcDbMlineStyle
  2
STANDARD
 70
     0
  3

 62
   256
 51
90.0
 52
90.0
 71
     2
 49
0.5
 62
   256
  6
BYLAYER
 49
-0.5
 62
   256
  6
BYLAYER
  0
ENDSEC
  0
EOF
