  0
SECTION
  2
HEADER
  9
$ACADVER
  1
AC1012
  9
$DWGCODEPAGE
  3
dos932
  9
$INSBASE
 10
0.0
 20
0.0
 30
0.0
  9
$EXTMIN
 10
-269.4190964852682
 20
-192.3889150172342
 30
-0.000000000000013
  9
$EXTMAX
 10
269.4190992512963
 20
192.3889169730118
 30
0.0000000000000023
  9
$LIMMIN
 10
-297.0
 20
-210.0
  9
$LIMMAX
 10
297.0
 20
210.0
  9
$ORTHOMODE
 70
     1
  9
$REGENMODE
 70
     1
  9
$FILLMODE
 70
     1
  9
$QTEXTMODE
 70
     0
  9
$MIRRTEXT
 70
     1
  9
$DRAGMODE
 70
     2
  9
$LTSCALE
 40
1.0
  9
$OSMODE
 70
  2471
  9
$ATTMODE
 70
     1
  9
$TEXTSIZE
 40
1.0
  9
$TRACEWID
 40
0.05
  9
$TEXTSTYLE
  7
BIGFONT
  9
$CLAYER
  8
0
  9
$CELTYPE
  6
CONTINUOUS
  9
$CECOLOR
 62
   256
  9
$CELTSCALE
 40
1.0
  9
$DELOBJ
 70
     1
  9
$DISPSILH
 70
     0
  9
$DIMSCALE
 40
1.0
  9
$DIMASZ
 40
0.18
  9
$DIMEXO
 40
0.0625
  9
$DIMDLI
 40
0.38
  9
$DIMRND
 40
0.0
  9
$DIMDLE
 40
0.0
  9
$DIMEXE
 40
0.18
  9
$DIMTP
 40
0.0
  9
$DIMTM
 40
0.0
  9
$DIMTXT
 40
0.18
  9
$DIMCEN
 40
0.09
  9
$DIMTSZ
 40
0.0
  9
$DIMTOL
 70
     0
  9
$DIMLIM
 70
     0
  9
$DIMTIH
 70
     1
  9
$DIMTOH
 70
     1
  9
$DIMSE1
 70
     0
  9
$DIMSE2
 70
     0
  9
$DIMTAD
 70
     0
  9
$DIMZIN
 70
     0
  9
$DIMBLK
  1

  9
$DIMASO
 70
     1
  9
$DIMSHO
 70
     1
  9
$DIMPOST
  1

  9
$DIMAPOST
  1

  9
$DIMALT
 70
     0
  9
$DIMALTD
 70
     2
  9
$DIMALTF
 40
25.4
  9
$DIMLFAC
 40
1.0
  9
$DIMTOFL
 70
     0
  9
$DIMTVP
 40
0.0
  9
$DIMTIX
 70
     0
  9
$DIMSOXD
 70
     0
  9
$DIMSAH
 70
     0
  9
$DIMBLK1
  1

  9
$DIMBLK2
  1

  9
$DIMSTYLE
  2
STANDARD
  9
$DIMCLRD
 70
     0
  9
$DIMCLRE
 70
     0
  9
$DIMCLRT
 70
     0
  9
$DIMTFAC
 40
1.0
  9
$DIMGAP
 40
0.09
  9
$DIMJUST
 70
     0
  9
$DIMSD1
 70
     0
  9
$DIMSD2
 70
     0
  9
$DIMTOLJ
 70
     1
  9
$DIMTZIN
 70
     0
  9
$DIMALTZ
 70
     0
  9
$DIMALTTZ
 70
     0
  9
$DIMFIT
 70
     3
  9
$DIMUPT
 70
     0
  9
$DIMUNIT
 70
     2
  9
$DIMDEC
 70
     4
  9
$DIMTDEC
 70
     4
  9
$DIMALTU
 70
     2
  9
$DIMALTTD
 70
     2
  9
$DIMTXSTY
  7
STANDARD
  9
$DIMAUNIT
 70
     0
  9
$LUNITS
 70
     2
  9
$LUPREC
 70
     4
  9
$SKETCHINC
 40
0.1
  9
$FILLETRAD
 40
0.0
  9
$AUNITS
 70
     0
  9
$AUPREC
 70
     0
  9
$MENU
  1
.
  9
$ELEVATION
 40
0.0
  9
$PELEVATION
 40
0.0
  9
$THICKNESS
 40
0.0
  9
$LIMCHECK
 70
     0
  9
$BLIPMODE
 70
     0
  9
$CHAMFERA
 40
0.0
  9
$CHAMFERB
 40
0.0
  9
$CHAMFERC
 40
0.0
  9
$CHAMFERD
 40
0.0
  9
$SKPOLY
 70
     0
  9
$TDCREATE
 40
2452130.386397569
  9
$TDUPDATE
 40
2453202.746478704
  9
$TDINDWG
 40
0.0941850694
  9
$TDUSRTIMER
 40
0.0941831019
  9
$USRTIMER
 70
     1
  9
$ANGBASE
 50
0.0
  9
$ANGDIR
 70
     0
  9
$PDMODE
 70
     0
  9
$PDSIZE
 40
0.0
  9
$PLINEWID
 40
0.0
  9
$COORDS
 70
     1
  9
$SPLFRAME
 70
     0
  9
$SPLINETYPE
 70
     6
  9
$SPLINESEGS
 70
     8
  9
$ATTDIA
 70
     0
  9
$ATTREQ
 70
     1
  9
$HANDLING
 70
-16383
  9
$HANDSEED
  5
65A
  9
$SURFTAB1
 70
     6
  9
$SURFTAB2
 70
     6
  9
$SURFTYPE
 70
     6
  9
$SURFU
 70
     6
  9
$SURFV
 70
     6
  9
$UCSNAME
  2

  9
$UCSORG
 10
0.0
 20
0.0
 30
0.0
  9
$UCSXDIR
 10
1.0
 20
0.0
 30
0.0
  9
$UCSYDIR
 10
0.0
 20
1.0
 30
0.0
  9
$PUCSNAME
  2

  9
$PUCSORG
 10
0.0
 20
0.0
 30
0.0
  9
$PUCSXDIR
 10
1.0
 20
0.0
 30
0.0
  9
$PUCSYDIR
 10
0.0
 20
1.0
 30
0.0
  9
$USERI1
 70
     0
  9
$USERI2
 70
     0
  9
$USERI3
 70
     0
  9
$USERI4
 70
     0
  9
$USERI5
 70
     0
  9
$USERR1
 40
0.0
  9
$USERR2
 40
0.0
  9
$USERR3
 40
0.0
  9
$USERR4
 40
0.0
  9
$USERR5
 40
0.0
  9
$WORLDVIEW
 70
     1
  9
$SHADEDGE
 70
     3
  9
$SHADEDIF
 70
    70
  9
$TILEMODE
 70
     1
  9
$MAXACTVP
 70
    64
  9
$PINSBASE
 10
0.0
 20
0.0
 30
0.0
  9
$PLIMCHECK
 70
     0
  9
$PEXTMIN
 10
1.000000000000000E+20
 20
1.000000000000000E+20
 30
1.000000000000000E+20
  9
$PEXTMAX
 10
-1.000000000000000E+20
 20
-1.000000000000000E+20
 30
-1.000000000000000E+20
  9
$PLIMMIN
 10
0.0
 20
0.0
  9
$PLIMMAX
 10
12.0
 20
9.0
  9
$UNITMODE
 70
     0
  9
$VISRETAIN
 70
     1
  9
$PLINEGEN
 70
     0
  9
$PSLTSCALE
 70
     1
  9
$TREEDEPTH
 70
  3020
  9
$PICKSTYLE
 70
     3
  9
$CMLSTYLE
  2
STANDARD
  9
$CMLJUST
 70
     0
  9
$CMLSCALE
 40
1.0
  9
$SAVEIMAGES
 70
     1
  0
ENDSEC
  0
SECTION
  2
CLASSES
  0
CLASS
  1
ACDBDICTIONARYWDFLT
  2
AcDbDictionaryWithDefault
  3
AutoCAD 2000
 90
    32768
280
     0
281
     0
  0
CLASS
  1
ACDBPLACEHOLDER
  2
AcDbPlaceHolder
  3
AutoCAD 2000
 90
    32768
280
     0
281
     0
  0
CLASS
  1
LAYOUT
  2
AcDbLayout
  3
AutoCAD 2000
 90
    32768
280
     0
281
     0
  0
CLASS
  1
LONG_TRANSACTION
  2
AcDbLongTransaction
  3
AutoCAD 2000
 90
    32768
280
     0
281
     0
  0
CLASS
  1
LWPOLYLINE
  2
AcDbPolyline
  3
AutoCAD 2000
 90
    32768
280
     0
281
     1
  0
CLASS
  1
HATCH
  2
AcDbHatch
  3
AutoCAD 2000
 90
    32768
280
     0
281
     1
  0
CLASS
  1
XRECORD
  2
AcDbXrecord
  3
AutoCAD 2000
 90
    32768
280
     0
281
     0
  0
CLASS
  1
LONG_TRANSACTION
  2
AcDbLongTransaction
  3
AutoCAD 2000
 90
    32768
280
     0
281
     0
  0
CLASS
  1
LWPOLYLINE
  2
AcDbPolyline
  3
AutoCAD 2000
 90
    32768
280
     0
281
     1
  0
CLASS
  1
HATCH
  2
AcDbHatch
  3
AutoCAD 2000
 90
    32768
280
     0
281
     1
  0
CLASS
  1
XRECORD
  2
AcDbXrecord
  3
AutoCAD 2000
 90
    32768
280
     0
281
     0
  0
CLASS
  1
LONG_TRANSACTION
  2
AcDbLongTransaction
  3
AutoCAD 2000
 90
    32768
280
     0
281
     0
  0
CLASS
  1
LWPOLYLINE
  2
AcDbPolyline
  3
AutoCAD 2000
 90
    32768
280
     0
281
     1
  0
CLASS
  1
HATCH
  2
AcDbHatch
  3
AutoCAD 2000
 90
    32768
280
     0
281
     1
  0
CLASS
  1
XRECORD
  2
AcDbXrecord
  3
AutoCAD 2000
 90
    32768
280
     0
281
     0
  0
CLASS
  1
LONG_TRANSACTION
  2
AcDbLongTransaction
  3
AutoCAD 2000
 90
    32768
280
     0
281
     0
  0
CLASS
  1
LWPOLYLINE
  2
AcDbPolyline
  3
AutoCAD 2000
 90
    32768
280
     0
281
     1
  0
CLASS
  1
HATCH
  2
AcDbHatch
  3
AutoCAD 2000
 90
    32768
280
     0
281
     1
  0
CLASS
  1
XRECORD
  2
AcDbXrecord
  3
AutoCAD 2000
 90
    32768
280
     0
281
     0
  0
CLASS
  1
LONG_TRANSACTION
  2
AcDbLongTransaction
  3
AutoCAD 2000
 90
    32768
280
     0
281
     0
  0
CLASS
  1
LWPOLYLINE
  2
AcDbPolyline
  3
AutoCAD 2000
 90
    32768
280
     0
281
     1
  0
CLASS
  1
HATCH
  2
AcDbHatch
  3
AutoCAD 2000
 90
    32768
280
     0
281
     1
  0
CLASS
  1
XRECORD
  2
AcDbXrecord
  3
AutoCAD 2000
 90
    32768
280
     0
281
     0
  0
ENDSEC
  0
SECTION
  2
TABLES
  0
TABLE
  2
VPORT
  5
8
330
0
100
AcDbSymbolTable
 70
     2
  0
VPORT
  5
656
330
8
100
AcDbSymbolTableRecord
100
AcDbViewportTableRecord
  2
*ACTIVE
 70
     0
 10
0.0
 20
0.0
 11
1.0
 21
1.0
 12
0.0000013830140375
 22
0.000000977888817
 13
0.0
 23
0.0
 14
1.0
 24
1.0
 15
0.0
 25
0.0
 16
0.0
 26
0.0
 36
1.0
 17
0.0
 27
0.0
 37
0.0
 40
389.5975960652805
 41
2.008368200836819
 42
50.0
 43
0.0
 44
0.0
 50
0.0
 51
0.0
 71
     0
 72
   100
 73
     1
 74
     1
 75
     0
 76
     0
 77
     0
 78
     0
  0
ENDTAB
  0
TABLE
  2
LTYPE
  5
5
330
0
100
AcDbSymbolTable
 70
     5
  0
LTYPE
  5
13
330
5
100
AcDbSymbolTableRecord
100
AcDbLinetypeTableRecord
  2
BYBLOCK
 70
     0
  3

 72
    65
 73
     0
 40
0.0
  0
LTYPE
  5
14
330
5
100
AcDbSymbolTableRecord
100
AcDbLinetypeTableRecord
  2
BYLAYER
 70
     0
  3

 72
    65
 73
     0
 40
0.0
  0
LTYPE
  5
15
330
5
100
AcDbSymbolTableRecord
100
AcDbLinetypeTableRecord
  2
CONTINUOUS
 70
     0
  3
実線
 72
    65
 73
     0
 40
0.0
  0
LTYPE
  5
23
330
5
100
AcDbSymbolTableRecord
100
AcDbLinetypeTableRecord
  2
HIDDEN
 70
     0
  3
_ _ _ _ _ _ _ _ _ _ _ _ _ _ _ _ _ _ _ _ _ _ _
 72
    65
 73
     2
 40
0.375
 49
0.25
 74
     0
 49
-0.125
 74
     0
  0
LTYPE
  5
24
330
5
100
AcDbSymbolTableRecord
100
AcDbLinetypeTableRecord
  2
DASHED
 70
     0
  3
__ __ __ __ __ __ __ __ __ __ __ __ __ __ __
 72
    65
 73
     2
 40
0.75
 49
0.5
 74
     0
 49
-0.25
 74
     0
  0
LTYPE
  5
25
330
5
100
AcDbSymbolTableRecord
100
AcDbLinetypeTableRecord
  2
CENTER
 70
     0
  3
____ _ ____ _ ____ _ ____ _ ____ _ ____ _ ____
 72
    65
 73
     4
 40
2.0
 49
1.25
 74
     0
 49
-0.25
 74
     0
 49
0.25
 74
     0
 49
-0.25
 74
     0
  0
LTYPE
  5
26
330
5
100
AcDbSymbolTableRecord
100
AcDbLinetypeTableRecord
  2
PHANTOM
 70
     0
  3
_____ _ _ _____ _ _ _____ _ _ _____ _ _ ____
 72
    65
 73
     6
 40
2.5
 49
1.25
 74
     0
 49
-0.25
 74
     0
 49
0.25
 74
     0
 49
-0.25
 74
     0
 49
0.25
 74
     0
 49
-0.25
 74
     0
  0
ENDTAB
  0
TABLE
  2
LAYER
  5
2
330
0
100
AcDbSymbolTable
 70
     4
  0
LAYER
  5
10
330
2
100
AcDbSymbolTableRecord
100
AcDbLayerTableRecord
  2
0
 70
     0
 62
     7
  6
CONTINUOUS
  0
LAYER
  5
27
330
2
100
AcDbSymbolTableRecord
100
AcDbLayerTableRecord
  2
1
 70
     0
 62
     7
  6
CONTINUOUS
  0
LAYER
  5
28
330
2
100
AcDbSymbolTableRecord
100
AcDbLayerTableRecord
  2
2
 70
     0
 62
     7
  6
CONTINUOUS
  0
LAYER
  5
29
330
2
100
AcDbSymbolTableRecord
100
AcDbLayerTableRecord
  2
3
 70
     0
 62
     7
  6
CONTINUOUS
  0
ENDTAB
  0
TABLE
  2
STYLE
  5
3
330
0
100
AcDbSymbolTable
 70
     2
  0
STYLE
  5
11
330
3
100
AcDbSymbolTableRecord
100
AcDbTextStyleTableRecord
  2
STANDARD
 70
     0
 40
0.0
 41
1.0
 50
0.0
 71
     0
 42
0.2
  3
txt
  4

  0
STYLE
  5
22
330
3
100
AcDbSymbolTableRecord
100
AcDbTextStyleTableRecord
  2
BIGFONT
 70
     0
 40
0.0
 41
1.0
 50
0.0
 71
     0
 42
1.0
  3

  4
bigfont
  0
ENDTAB
  0
TABLE
  2
VIEW
  5
6
330
0
100
AcDbSymbolTable
 70
     0
  0
ENDTAB
  0
TABLE
  2
UCS
  5
7
330
0
100
AcDbSymbolTable
 70
     0
  0
ENDTAB
  0
TABLE
  2
APPID
  5
9
330
0
100
AcDbSymbolTable
 70
     2
  0
APPID
  5
12
330
9
100
AcDbSymbolTableRecord
100
AcDbRegAppTableRecord
  2
ACAD
 70
     0
  0
APPID
  5
632
330
9
100
AcDbSymbolTableRecord
100
AcDbRegAppTableRecord
  2
CONTENTBLOCKICON
 70
     0
  0
ENDTAB
  0
TABLE
  2
DIMSTYLE
  5
A
330
0
100
AcDbSymbolTable
 70
     2
  0
DIMSTYLE
105
577
330
A
100
AcDbSymbolTableRecord
100
AcDbDimStyleTableRecord
  2
STANDARD
 70
     0
  3

  4

  5

  6

  7

 40
1.0
 41
0.18
 42
0.0625
 43
0.38
 44
0.18
 45
0.0
 46
0.0
 47
0.0
 48
0.0
140
0.18
141
0.09
142
0.0
143
25.4
144
1.0
145
0.0
146
1.0
147
0.09
 71
     0
 72
     0
 73
     1
 74
     1
 75
     0
 76
     0
 77
     0
 78
     0
170
     0
171
     2
172
     0
173
     0
174
     0
175
     0
176
     0
177
     0
178
     0
270
     2
271
     4
272
     4
273
     2
274
     2
340
11
275
     0
280
     0
281
     0
282
     0
283
     1
284
     0
285
     0
286
     0
287
     3
288
     0
  0
DIMSTYLE
105
606
330
A
100
AcDbSymbolTableRecord
100
AcDbDimStyleTableRecord
  2
DIM-30
 70
     0
  3

  4

  5
OPEN
  6

  7

 40
30.0
 41
1.5
 42
1.5
 43
0.0
 44
0.6
 45
0.0
 46
0.0
 47
0.0
 48
0.0
140
2.5
141
0.0
142
0.0
143
0.0394
144
1.0
145
0.0
146
1.0
147
0.6
 71
     0
 72
     0
 73
     0
 74
     0
 75
     0
 76
     0
 77
     3
 78
     8
170
     0
171
     4
172
     1
173
     0
174
     0
175
     0
176
   256
177
   256
178
   256
270
     2
271
     0
272
     0
273
     8
274
     4
340
11
275
     0
280
     0
281
     0
282
     0
283
     1
284
     8
285
     0
286
     0
287
     3
288
     0
  0
ENDTAB
  0
TABLE
  2
BLOCK_RECORD
  5
1
330
0
100
AcDbSymbolTable
 70
     2
  0
BLOCK_RECORD
  5
1E
102
{ACAD_XDICTIONARY
360
57C
102
}
330
1
100
AcDbSymbolTableRecord
100
AcDbBlockTableRecord
  2
*MODEL_SPACE
  0
BLOCK_RECORD
  5
1A
102
{ACAD_XDICTIONARY
360
57A
102
}
330
1
100
AcDbSymbolTableRecord
100
AcDbBlockTableRecord
  2
*PAPER_SPACE
  0
BLOCK_RECORD
  5
600
330
1
100
AcDbSymbolTableRecord
100
AcDbBlockTableRecord
  2
_OPEN
1001
CONTENTBLOCKICON
1071
        0
1004
2800000020000000200000000100080000000000000400000000000000000000000000000000000000000000000080000080000000808000800000008000800080800000C0C0C000C0DCC000F0CAA6000020400000206000002080000020A0000020C0000020E00000400000004020000040400000406000004080000040A0
1004
000040C0000040E00000600000006020000060400000606000006080000060A0000060C0000060E00000800000008020000080400000806000008080000080A0000080C0000080E00000A0000000A0200000A0400000A0600000A0800000A0A00000A0C00000A0E00000C0000000C0200000C0400000C0600000C0800000C0
1004
A00000C0C00000C0E00000E0000000E0200000E0400000E0600000E0800000E0A00000E0C00000E0E00040000000400020004000400040006000400080004000A0004000C0004000E00040200000402020004020400040206000402080004020A0004020C0004020E000404000004040200040404000404060004040800040
1004
40A0004040C0004040E00040600000406020004060400040606000406080004060A0004060C0004060E00040800000408020004080400040806000408080004080A0004080C0004080E00040A0000040A0200040A0400040A0600040A0800040A0A00040A0C00040A0E00040C0000040C0200040C0400040C0600040C08000
1004
40C0A00040C0C00040C0E00040E0000040E0200040E0400040E0600040E0800040E0A00040E0C00040E0E00080000000800020008000400080006000800080008000A0008000C0008000E00080200000802020008020400080206000802080008020A0008020C0008020E00080400000804020008040400080406000804080
1004
008040A0008040C0008040E00080600000806020008060400080606000806080008060A0008060C0008060E00080800000808020008080400080806000808080008080A0008080C0008080E00080A0000080A0200080A0400080A0600080A0800080A0A00080A0C00080A0E00080C0000080C0200080C0400080C0600080C0
1004
800080C0A00080C0C00080C0E00080E0000080E0200080E0400080E0600080E0800080E0A00080E0C00080E0E000C0000000C0002000C0004000C0006000C0008000C000A000C000C000C000E000C0200000C0202000C0204000C0206000C0208000C020A000C020C000C020E000C0400000C0402000C0404000C0406000C0
1004
408000C040A000C040C000C040E000C0600000C0602000C0604000C0606000C0608000C060A000C060C000C060E000C0800000C0802000C0804000C0806000C0808000C080A000C080C000C080E000C0A00000C0A02000C0A04000C0A06000C0A08000C0A0A000C0A0C000C0A0E000C0C00000C0C02000C0C04000C0C06000
1004
C0C08000C0C0A000F0FBFF00A4A0A000808080000000FF0000FF000000FFFF00FF000000FF00FF00FFFF0000FFFFFF0007070707070707070707070707070707070707070707070707070707070707070707070707070707070707070707070707070707070707070707070707070707070707070707070707070707070707
1004
07070707070707070707070707070707070707070707070707070707070707070707070707070707070707070707070707070707070707070707070707070707070707070707070707070707070707070707070707070707070707070707070707070707070707070707070707070707070707070707070707070707070707
1004
07070707070707070707070707070707070707070707070707070707070707070707070707070707070707070707070707070707070707070707070707070707070707070707070707070707070707070707070707070707070707070707070707070707070707070707070707070707070707070707070707070707070707
1004
07070707070707070707070707070707070707070000000007070707070707070707070707070707070707070707070707070707070707070000000000000007070707070707070707070707070707070707070707070707070707070707070000000000000000070707070707070707070707070707070707070707070707
1004
07070707070707070000000000000007070707070700000000000000000000000000000000000000000000000000000000000007070707070707070707070707070707070707070707070000000000000707070707070707070707070707070707070707000000000000070707070707070707070707070707070707070700
1004
00000000000707070707070707070707070707070707070707000000000000070707070707070707070707070707070707070707070700000007070707070707070707070707070707070707070707070707070707070707070707070707070707070707070707070707070707070707070707070707070707070707070707
1004
07070707070707070707070707070707070707070707070707070707070707070707070707070707070707070707070707070707070707070707070707070707070707070707070707070707070707070707070707070707070707070707070707070707070707070707070707070707070707070707070707070707070707
1004
07070707070707070707070707070707070707070707070707070707070707070707070707070707070707070707070707070707070707070707070707070707070707070707070707070707070707070707070707070707070707070707070707070707070707070707070707070707070707070707070707070707070707
1004
0707070707070707070707070707070707070707070707070707070707070707070707070707070707070707070707070707070707070707
  0
BLOCK_RECORD
  5
607
330
1
100
AcDbSymbolTableRecord
100
AcDbBlockTableRecord
  2
A$C21AC3CA1
  0
ENDTAB
  0
ENDSEC
  0
SECTION
  2
BLOCKS
  0
BLOCK
  5
1F
330
1E
100
AcDbEntity
  8
0
100
AcDbBlockBegin
  2
*MODEL_SPACE
 70
     0
 10
0.0
 20
0.0
 30
0.0
  3
*MODEL_SPACE
  1

  0
ENDBLK
  5
20
330
1E
100
AcDbEntity
  8
0
100
AcDbBlockEnd
  0
BLOCK
  5
1B
330
1A
100
AcDbEntity
 67
     1
  8
0
100
AcDbBlockBegin
  2
*PAPER_SPACE
 70
     0
 10
0.0
 20
0.0
 30
0.0
  3
*PAPER_SPACE
  1

  0
ENDBLK
  5
1C
330
1A
100
AcDbEntity
 67
     1
  8
0
100
AcDbBlockEnd
  0
BLOCK
  5
604
330
600
100
AcDbEntity
  8
0
 62
     7
100
AcDbBlockBegin
  2
_OPEN
 70
     0
 10
0.0
 20
0.0
 30
0.0
  3
_OPEN
  1

  0
LINE
  5
601
330
600
100
AcDbEntity
  8
0
  6
CONTINUOUS
 62
     0
100
AcDbLine
 10
0.0
 20
0.0
 30
0.0
 11
-1.0
 21
0.0
 31
0.0
  0
LINE
  5
602
330
600
100
AcDbEntity
  8
0
  6
CONTINUOUS
 62
     0
100
AcDbLine
 10
-1.0
 20
-0.1666666666669698
 30
0.0
 11
0.0
 21
0.0
 31
0.0
  0
LINE
  5
603
330
600
100
AcDbEntity
  8
0
  6
CONTINUOUS
 62
     0
100
AcDbLine
 10
-1.0
 20
0.1666666666669698
 30
0.0
 11
0.0
 21
0.0
 31
0.0
  0
ENDBLK
  5
605
330
600
100
AcDbEntity
  8
0
 62
     7
100
AcDbBlockEnd
  0
BLOCK
  5
609
330
607
100
AcDbEntity
  8
0
100
AcDbBlockBegin
  2
A$C21AC3CA1
 70
     0
 10
0.0
 20
0.0
 30
0.0
  3
A$C21AC3CA1
  1

  0
LINE
  5
608
330
607
100
AcDbEntity
  8
0
  6
CONTINUOUS
 62
     7
100
AcDbLine
 10
-1129.662937212801
 20
-2127.983520712825
 30
0.0
 11
-1.679416499974194
 21
-1000.0
 31
0.0
  0
ENDBLK
  5
60A
330
607
100
AcDbEntity
  8
0
100
AcDbBlockEnd
  0
ENDSEC
  0
SECTION
  2
ENTITIES
  0
LINE
  5
2D
330
1E
100
AcDbEntity
  8
0
  6
CONTINUOUS
 62
     7
100
AcDbLine
 10
75.5
 20
104.9312999999999
 30
0.0
 11
75.5
 21
112.5493999999999
 31
0.0
  0
LINE
  5
2E
330
1E
100
AcDbEntity
  8
0
  6
CONTINUOUS
 62
     7
100
AcDbLine
 10
75.35
 20
92.2813
 30
0.0
 11
75.5
 21
92.43129999999998
 31
0.0
  0
LINE
  5
2F
330
1E
100
AcDbEntity
  8
0
  6
CONTINUOUS
 62
     7
100
AcDbLine
 10
75.35
 20
87.6994
 30
0.0
 11
75.5
 21
87.54940000000003
 31
0.0
  0
LINE
  5
30
330
1E
100
AcDbEntity
  8
0
  6
CONTINUOUS
 62
     7
100
AcDbLine
 10
170.0
 20
129.7372499999999
 30
0.0
 11
176.0
 21
129.7372499999999
 31
0.0
  0
LINE
  5
31
330
1E
100
AcDbEntity
  8
0
  6
CONTINUOUS
 62
     7
100
AcDbLine
 10
176.0
 20
113.6675
 30
0.0
 11
176.0
 21
130.53725
 31
0.0
  0
LINE
  5
32
330
1E
100
AcDbEntity
  8
0
  6
CONTINUOUS
 62
     7
100
AcDbLine
 10
170.0
 20
113.6675
 30
0.0
 11
170.0
 21
130.53725
 31
0.0
  0
LINE
  5
33
330
1E
100
AcDbEntity
  8
0
  6
CONTINUOUS
 62
     7
100
AcDbLine
 10
174.8
 20
129.4154599999999
 30
0.0
 11
176.0
 21
129.7369999999999
 31
0.0
  0
LINE
  5
34
330
1E
100
AcDbEntity
  8
0
  6
CONTINUOUS
 62
     7
100
AcDbLine
 10
176.0
 20
129.7369999999999
 30
0.0
 11
174.8
 21
130.05853
 31
0.0
  0
LINE
  5
35
330
1E
100
AcDbEntity
  8
0
  6
CONTINUOUS
 62
     7
100
AcDbLine
 10
171.1999999999999
 20
130.05853
 30
0.0
 11
170.0
 21
129.7369999999999
 31
0.0
  0
LINE
  5
36
330
1E
100
AcDbEntity
  8
0
  6
CONTINUOUS
 62
     7
100
AcDbLine
 10
170.0
 20
129.7369999999999
 30
0.0
 11
171.1999999999999
 21
129.4154599999999
 31
0.0
  0
TEXT
  5
37
330
1E
100
AcDbEntity
  8
0
  6
CONTINUOUS
 62
     7
100
AcDbText
 10
169.1
 20
130.13725
 30
0.0
 40
3.2
  1
120
 41
0.8125
  7
BIGFONT
100
AcDbText
  0
LINE
  5
38
330
1E
100
AcDbEntity
  8
0
  6
CONTINUOUS
 62
     7
100
AcDbLine
 10
137.5
 20
75.04940000000002
 30
0.0
 11
137.5
 21
112.5493999999999
 31
0.0
  0
LINE
  5
39
330
1E
100
AcDbEntity
  8
0
  6
CONTINUOUS
 62
     7
100
AcDbLine
 10
169.4499999999998
 20
112.5493999999999
 30
0.0
 11
136.6999999999999
 21
112.5493999999999
 31
0.0
  0
LINE
  5
3A
330
1E
100
AcDbEntity
  8
0
  6
CONTINUOUS
 62
     7
100
AcDbLine
 10
169.0
 20
75.04940000000002
 30
0.0
 11
136.6999999999999
 21
75.04940000000002
 31
0.0
  0
LINE
  5
3B
330
1E
100
AcDbEntity
  8
0
  6
CONTINUOUS
 62
     7
100
AcDbLine
 10
137.8215299999999
 20
111.3489999999996
 30
0.0
 11
137.5
 21
112.5489999999996
 31
0.0
  0
LINE
  5
3C
330
1E
100
AcDbEntity
  8
0
  6
CONTINUOUS
 62
     7
100
AcDbLine
 10
137.5
 20
112.5489999999996
 30
0.0
 11
137.17846
 21
111.3489999999996
 31
0.0
  0
LINE
  5
3D
330
1E
100
AcDbEntity
  8
0
  6
CONTINUOUS
 62
     7
100
AcDbLine
 10
137.17846
 20
76.249
 30
0.0
 11
137.5
 21
75.04900000000002
 31
0.0
  0
LINE
  5
3E
330
1E
100
AcDbEntity
  8
0
  6
CONTINUOUS
 62
     7
100
AcDbLine
 10
137.5
 20
75.04900000000002
 30
0.0
 11
137.8215299999999
 21
76.249
 31
0.0
  0
TEXT
  5
3F
330
1E
100
AcDbEntity
  8
0
  6
CONTINUOUS
 62
     7
100
AcDbText
 10
137.0999999999999
 20
89.8994
 30
0.0
 40
3.2
  1
750
 50
90.0
 41
0.8125
  7
BIGFONT
100
AcDbText
  0
LINE
  5
40
330
1E
100
AcDbEntity
  8
3
  6
CONTINUOUS
 62
     7
100
AcDbLine
 10
167.2859999999999
 20
-190.273
 30
0.0
 11
167.2859999999999
 21
-140.273
 31
0.0
  0
LINE
  5
41
330
1E
100
AcDbEntity
  8
3
  6
CONTINUOUS
 62
     7
100
AcDbLine
 10
167.2859999999999
 20
-190.273
 30
0.0
 11
167.2859999999999
 21
-140.273
 31
0.0
  0
LINE
  5
42
330
1E
100
AcDbEntity
  8
3
  6
CONTINUOUS
 62
     7
100
AcDbLine
 10
167.2859999999999
 20
-190.273
 30
0.0
 11
167.2859999999999
 21
-140.273
 31
0.0
  0
LINE
  5
43
330
1E
100
AcDbEntity
  8
0
  6
CONTINUOUS
 62
     7
100
AcDbLine
 10
75.35
 20
87.6994
 30
0.0
 11
75.35
 21
92.2813
 31
0.0
  0
LINE
  5
44
330
1E
100
AcDbEntity
  8
0
  6
CONTINUOUS
 62
     7
100
AcDbLine
 10
154.50625
 20
81.0494
 30
0.0
 11
169.0138
 21
81.0494
 31
0.0
  0
LINE
  5
45
330
1E
100
AcDbEntity
  8
0
  6
CONTINUOUS
 62
     7
100
AcDbLine
 10
159.9791999999998
 20
96.04915
 30
0.0
 11
159.9791999999998
 21
112.5493999999999
 31
0.0
  0
LINE
  5
46
330
1E
100
AcDbEntity
  8
0
  6
CONTINUOUS
 62
     7
100
AcDbLine
 10
161.0661
 20
112.5493999999999
 30
0.0
 11
159.1792
 21
112.5493999999999
 31
0.0
  0
LINE
  5
47
330
1E
100
AcDbEntity
  8
0
  6
CONTINUOUS
 62
     7
100
AcDbLine
 10
169.0
 20
96.04915
 30
0.0
 11
159.1792
 21
96.04915
 31
0.0
  0
LINE
  5
48
330
1E
100
AcDbEntity
  8
0
  6
CONTINUOUS
 62
     7
100
AcDbLine
 10
160.30053
 20
111.3489999999996
 30
0.0
 11
159.9789999999998
 21
112.5489999999996
 31
0.0
  0
LINE
  5
49
330
1E
100
AcDbEntity
  8
0
  6
CONTINUOUS
 62
     7
100
AcDbLine
 10
159.9789999999998
 20
112.5489999999996
 30
0.0
 11
159.65746
 21
111.3489999999996
 31
0.0
  0
LINE
  5
4A
330
1E
100
AcDbEntity
  8
0
  6
CONTINUOUS
 62
     7
100
AcDbLine
 10
159.65746
 20
97.24899999999999
 30
0.0
 11
159.9789999999998
 21
96.049
 31
0.0
  0
LINE
  5
4B
330
1E
100
AcDbEntity
  8
0
  6
CONTINUOUS
 62
     7
100
AcDbLine
 10
159.9789999999998
 20
96.049
 30
0.0
 11
160.30053
 21
97.24899999999999
 31
0.0
  0
TEXT
  5
4C
330
1E
100
AcDbEntity
  8
0
  6
CONTINUOUS
 62
     7
100
AcDbText
 10
159.5791999999998
 20
100.3992699999999
 30
0.0
 40
3.2
  1
330
 50
90.0
 41
0.8125
  7
BIGFONT
100
AcDbText
  0
LINE
  5
4D
330
1E
100
AcDbEntity
  8
3
  6
CONTINUOUS
 62
     7
100
AcDbLine
 10
167.2859999999999
 20
-140.273
 30
0.0
 11
267.286
 21
-140.273
 31
0.0
  0
LINE
  5
4E
330
1E
100
AcDbEntity
  8
3
  6
CONTINUOUS
 62
     7
100
AcDbLine
 10
267.286
 20
-190.273
 30
0.0
 11
267.286
 21
-140.273
 31
0.0
  0
LINE
  5
4F
330
1E
100
AcDbEntity
  8
3
  6
CONTINUOUS
 62
     7
100
AcDbLine
 10
167.2859999999999
 20
-190.273
 30
0.0
 11
267.286
 21
-190.273
 31
0.0
  0
LINE
  5
50
330
1E
100
AcDbEntity
  8
3
  6
CONTINUOUS
 62
     7
100
AcDbLine
 10
167.2859999999999
 20
-190.273
 30
0.0
 11
167.2859999999999
 21
-140.273
 31
0.0
  0
LINE
  5
51
330
1E
100
AcDbEntity
  8
3
  6
CONTINUOUS
 62
     7
100
AcDbLine
 10
167.2859999999999
 20
-140.273
 30
0.0
 11
267.286
 21
-140.273
 31
0.0
  0
LINE
  5
52
330
1E
100
AcDbEntity
  8
3
  6
CONTINUOUS
 62
     7
100
AcDbLine
 10
267.286
 20
-190.273
 30
0.0
 11
267.286
 21
-140.273
 31
0.0
  0
LINE
  5
53
330
1E
100
AcDbEntity
  8
3
  6
CONTINUOUS
 62
     7
100
AcDbLine
 10
167.2859999999999
 20
-190.273
 30
0.0
 11
267.286
 21
-190.273
 31
0.0
  0
LINE
  5
54
330
1E
100
AcDbEntity
  8
3
  6
CONTINUOUS
 62
     7
100
AcDbLine
 10
167.2859999999999
 20
-190.273
 30
0.0
 11
167.2859999999999
 21
-140.273
 31
0.0
  0
LINE
  5
55
330
1E
100
AcDbEntity
  8
3
  6
CONTINUOUS
 62
     7
100
AcDbLine
 10
167.2859999999999
 20
-150.2729999999999
 30
0.0
 11
267.286
 21
-150.2729999999999
 31
0.0
  0
LINE
  5
56
330
1E
100
AcDbEntity
  8
3
  6
CONTINUOUS
 62
     7
100
AcDbLine
 10
167.2859999999999
 20
-158.2729999999999
 30
0.0
 11
267.286
 21
-158.2729999999999
 31
0.0
  0
LINE
  5
57
330
1E
100
AcDbEntity
  8
3
  6
CONTINUOUS
 62
     7
100
AcDbLine
 10
167.2859999999999
 20
-166.2729999999999
 30
0.0
 11
267.286
 21
-166.2729999999999
 31
0.0
  0
LINE
  5
58
330
1E
100
AcDbEntity
  8
3
  6
CONTINUOUS
 62
     7
100
AcDbLine
 10
167.2859999999999
 20
-179.2729999999999
 30
0.0
 11
267.286
 21
-179.2729999999999
 31
0.0
  0
LINE
  5
59
330
1E
100
AcDbEntity
  8
3
  6
CONTINUOUS
 62
     7
100
AcDbLine
 10
194.2859999999999
 20
-179.2729999999999
 30
0.0
 11
194.2859999999999
 21
-140.273
 31
0.0
  0
LINE
  5
5A
330
1E
100
AcDbEntity
  8
3
  6
CONTINUOUS
 62
     7
100
AcDbLine
 10
187.2859999999999
 20
-179.2729999999999
 30
0.0
 11
187.2859999999999
 21
-166.2729999999999
 31
0.0
  0
LINE
  5
5B
330
1E
100
AcDbEntity
  8
3
  6
CONTINUOUS
 62
     7
100
AcDbLine
 10
174.2859999999999
 20
-179.2729999999999
 30
0.0
 11
174.2859999999999
 21
-166.2729999999999
 31
0.0
  0
LINE
  5
5C
330
1E
100
AcDbEntity
  8
3
  6
CONTINUOUS
 62
     7
100
AcDbLine
 10
207.2859999999999
 20
-179.2729999999999
 30
0.0
 11
207.2859999999999
 21
-166.2729999999999
 31
0.0
  0
LINE
  5
5D
330
1E
100
AcDbEntity
  8
3
  6
CONTINUOUS
 62
     7
100
AcDbLine
 10
214.2859999999999
 20
-179.2729999999999
 30
0.0
 11
214.2859999999999
 21
-166.2729999999999
 31
0.0
  0
LINE
  5
5E
330
1E
100
AcDbEntity
  8
3
  6
CONTINUOUS
 62
     7
100
AcDbLine
 10
227.2859999999999
 20
-179.2729999999999
 30
0.0
 11
227.2859999999999
 21
-166.2729999999999
 31
0.0
  0
LINE
  5
5F
330
1E
100
AcDbEntity
  8
3
  6
CONTINUOUS
 62
     7
100
AcDbLine
 10
234.2859999999999
 20
-179.2729999999999
 30
0.0
 11
234.2859999999999
 21
-166.2729999999999
 31
0.0
  0
LINE
  5
60
330
1E
100
AcDbEntity
  8
3
  6
CONTINUOUS
 62
     7
100
AcDbLine
 10
247.2859999999999
 20
-179.2729999999999
 30
0.0
 11
247.2859999999999
 21
-166.2729999999999
 31
0.0
  0
LINE
  5
61
330
1E
100
AcDbEntity
  8
3
  6
CONTINUOUS
 62
     7
100
AcDbLine
 10
254.2859999999999
 20
-179.2729999999999
 30
0.0
 11
254.2859999999999
 21
-166.2729999999999
 31
0.0
  0
LINE
  5
62
330
1E
100
AcDbEntity
  8
3
  6
CONTINUOUS
 62
     7
100
AcDbLine
 10
219.2859999999999
 20
-158.2729999999999
 30
0.0
 11
219.2859999999999
 21
-150.2729999999999
 31
0.0
  0
LINE
  5
63
330
1E
100
AcDbEntity
  8
3
  6
CONTINUOUS
 62
     7
100
AcDbLine
 10
242.2859999999999
 20
-158.2729999999999
 30
0.0
 11
242.2859999999999
 21
-150.2729999999999
 31
0.0
  0
TEXT
  5
64
330
1E
100
AcDbEntity
  8
3
  6
CONTINUOUS
 62
     7
100
AcDbText
 10
170.601
 20
-148.137
 30
0.0
 40
5.0
  1
図面名
  7
BIGFONT
100
AcDbText
  0
TEXT
  5
65
330
1E
100
AcDbEntity
  8
3
  6
CONTINUOUS
 62
     7
100
AcDbText
 10
171.0809999999999
 20
-156.4989999999999
 30
0.0
 40
4.0
  1
縮尺
  7
BIGFONT
100
AcDbText
  0
TEXT
  5
66
330
1E
100
AcDbEntity
  8
3
  6
CONTINUOUS
 62
     7
100
AcDbText
 10
221.517
 20
-156.4029999999999
 30
0.0
 40
4.0
  1
図面番号
  7
BIGFONT
100
AcDbText
  0
TEXT
  5
67
330
1E
100
AcDbEntity
  8
3
  6
CONTINUOUS
 62
     7
100
AcDbText
 10
170.889
 20
-164.477
 30
0.0
 40
4.0
  1
設計年月日
  7
BIGFONT
100
AcDbText
  0
TEXT
  5
68
330
1E
100
AcDbEntity
  8
3
  6
CONTINUOUS
 62
     7
100
AcDbText
 10
202.976
 20
-164.477
 30
0.0
 40
4.0
  1
平成　　年　　月　　日
  7
BIGFONT
100
AcDbText
  0
TEXT
  5
69
330
1E
100
AcDbEntity
  8
3
  6
CONTINUOUS
 62
     7
100
AcDbText
 10
188.6411773123766
 20
-188.2069999999999
 30
0.0
 40
6.0
  1
千葉窯業株式会社
  7
BIGFONT
100
AcDbText
  0
TEXT
  5
6A
330
1E
100
AcDbEntity
  8
3
  6
CONTINUOUS
 62
     7
100
AcDbText
 10
168.9679999999999
 20
-168.0339999999999
 30
0.0
 40
4.0
  1
部長
 50
270.0
  7
BIGFONT
100
AcDbText
  0
TEXT
  5
6B
330
1E
100
AcDbEntity
  8
3
  6
CONTINUOUS
 62
     7
100
AcDbText
 10
188.9499999999999
 20
-168.0339999999999
 30
0.0
 40
4.0
  1
課長
 50
270.0
  7
BIGFONT
100
AcDbText
  0
TEXT
  5
6C
330
1E
100
AcDbEntity
  8
3
  6
CONTINUOUS
 62
     7
100
AcDbText
 10
208.9319999999999
 20
-168.0339999999999
 30
0.0
 40
4.0
  1
検図
 50
270.0
  7
BIGFONT
100
AcDbText
  0
TEXT
  5
6D
330
1E
100
AcDbEntity
  8
3
  6
CONTINUOUS
 62
     7
100
AcDbText
 10
229.1069999999999
 20
-168.0339999999999
 30
0.0
 40
4.0
  1
設計
 50
270.0
  7
BIGFONT
100
AcDbText
  0
TEXT
  5
6E
330
1E
100
AcDbEntity
  8
3
  6
CONTINUOUS
 62
     7
100
AcDbText
 10
248.993
 20
-167.9379999999999
 30
0.0
 40
4.0
  1
製図
 50
270.0
  7
BIGFONT
100
AcDbText
  0
LINE
  5
6F
330
1E
100
AcDbEntity
  8
3
  6
CONTINUOUS
 62
     7
100
AcDbLine
 10
167.2859999999999
 20
-140.273
 30
0.0
 11
267.286
 21
-140.273
 31
0.0
  0
LINE
  5
70
330
1E
100
AcDbEntity
  8
3
  6
CONTINUOUS
 62
     7
100
AcDbLine
 10
267.286
 20
-190.273
 30
0.0
 11
267.286
 21
-140.273
 31
0.0
  0
LINE
  5
71
330
1E
100
AcDbEntity
  8
3
  6
CONTINUOUS
 62
     7
100
AcDbLine
 10
167.2859999999999
 20
-190.273
 30
0.0
 11
267.286
 21
-190.273
 31
0.0
  0
LINE
  5
72
330
1E
100
AcDbEntity
  8
3
  6
CONTINUOUS
 62
     7
100
AcDbLine
 10
167.2859999999999
 20
-190.273
 30
0.0
 11
167.2859999999999
 21
-140.273
 31
0.0
  0
TEXT
  5
82
330
1E
100
AcDbEntity
  8
3
  6
CONTINUOUS
 62
     7
100
AcDbText
 10
217.328
 20
-164.4819999999999
 30
0.0
 40
3.799999999999998
  1
３
  7
BIGFONT
100
AcDbText
  0
TEXT
  5
83
330
1E
100
AcDbEntity
  8
3
  6
CONTINUOUS
 62
     7
100
AcDbText
 10
232.703
 20
-164.495
 30
0.0
 40
3.799999999999998
  1
６
  7
BIGFONT
100
AcDbText
  0
TEXT
  5
84
330
1E
100
AcDbEntity
  8
3
  6
CONTINUOUS
 62
     7
100
AcDbText
 10
248.035
 20
-164.51
 30
0.0
 40
3.799999999999998
  1
１
  7
BIGFONT
100
AcDbText
  0
TEXT
  5
85
330
1E
100
AcDbEntity
  8
3
  6
CONTINUOUS
 62
     7
100
AcDbText
 10
198.8799999999999
 20
-156.455
 30
0.0
 40
4.0
  1
１：２０
  7
BIGFONT
100
AcDbText
  0
LINE
  5
86
330
1E
100
AcDbEntity
  8
0
  6
CONTINUOUS
 62
     7
100
AcDbLine
 10
152.5
 20
75.04940000000002
 30
0.0
 11
152.5
 21
87.54940000000003
 31
0.0
  0
LINE
  5
87
330
1E
100
AcDbEntity
  8
0
  6
CONTINUOUS
 62
     7
100
AcDbLine
 10
169.0
 20
87.54940000000003
 30
0.0
 11
151.6999999999999
 21
87.54940000000003
 31
0.0
  0
LINE
  5
88
330
1E
100
AcDbEntity
  8
0
  6
CONTINUOUS
 62
     7
100
AcDbLine
 10
154.5961499999999
 20
75.04940000000002
 30
0.0
 11
151.6999999999999
 21
75.04940000000002
 31
0.0
  0
LINE
  5
89
330
1E
100
AcDbEntity
  8
0
  6
CONTINUOUS
 62
     7
100
AcDbLine
 10
152.82153
 20
86.349
 30
0.0
 11
152.5
 21
87.54900000000002
 31
0.0
  0
LINE
  5
8A
330
1E
100
AcDbEntity
  8
0
  6
CONTINUOUS
 62
     7
100
AcDbLine
 10
152.5
 20
87.54900000000002
 30
0.0
 11
152.17846
 21
86.349
 31
0.0
  0
LINE
  5
8B
330
1E
100
AcDbEntity
  8
0
  6
CONTINUOUS
 62
     7
100
AcDbLine
 10
152.17846
 20
76.249
 30
0.0
 11
152.5
 21
75.04900000000002
 31
0.0
  0
LINE
  5
8C
330
1E
100
AcDbEntity
  8
0
  6
CONTINUOUS
 62
     7
100
AcDbLine
 10
152.5
 20
75.04900000000002
 30
0.0
 11
152.82153
 21
76.249
 31
0.0
  0
TEXT
  5
8D
330
1E
100
AcDbEntity
  8
0
  6
CONTINUOUS
 62
     7
100
AcDbText
 10
152.0999999999999
 20
77.3994
 30
0.0
 40
3.2
  1
250
 50
90.0
 41
0.8125
  7
BIGFONT
100
AcDbText
  0
LINE
  5
8E
330
1E
100
AcDbEntity
  8
0
  6
CONTINUOUS
 62
     7
100
AcDbLine
 10
152.5
 20
87.54940000000003
 30
0.0
 11
152.5
 21
92.54940000000001
 31
0.0
  0
LINE
  5
8F
330
1E
100
AcDbEntity
  8
0
  6
CONTINUOUS
 62
     7
100
AcDbLine
 10
169.0
 20
92.54940000000001
 30
0.0
 11
151.6999999999999
 21
92.54940000000001
 31
0.0
  0
LINE
  5
90
330
1E
100
AcDbEntity
  8
0
  6
CONTINUOUS
 62
     7
100
AcDbLine
 10
152.82153
 20
91.349
 30
0.0
 11
152.5
 21
92.54900000000001
 31
0.0
  0
LINE
  5
91
330
1E
100
AcDbEntity
  8
0
  6
CONTINUOUS
 62
     7
100
AcDbLine
 10
152.5
 20
92.54900000000001
 30
0.0
 11
152.17846
 21
91.349
 31
0.0
  0
LINE
  5
92
330
1E
100
AcDbEntity
  8
0
  6
CONTINUOUS
 62
     7
100
AcDbLine
 10
152.17846
 20
88.749
 30
0.0
 11
152.5
 21
87.54900000000002
 31
0.0
  0
LINE
  5
93
330
1E
100
AcDbEntity
  8
0
  6
CONTINUOUS
 62
     7
100
AcDbLine
 10
152.5
 20
87.54900000000002
 30
0.0
 11
152.82153
 21
88.749
 31
0.0
  0
LINE
  5
94
330
1E
100
AcDbEntity
  8
0
  6
CONTINUOUS
 62
     7
100
AcDbLine
 10
152.5
 20
87.54940000000003
 30
0.0
 11
152.5
 21
85.20940000000001
 31
0.0
  0
TEXT
  5
95
330
1E
100
AcDbEntity
  8
0
  6
CONTINUOUS
 62
     7
100
AcDbText
 10
156.0999999999999
 20
88.01023493858503
 30
0.0
 40
3.2
  1
100
 50
90.0
 41
0.8125
  7
BIGFONT
100
AcDbText
  0
LINE
  5
96
330
1E
100
AcDbEntity
  8
0
  6
CONTINUOUS
 62
     7
100
AcDbLine
 10
152.5
 20
92.54940000000001
 30
0.0
 11
152.5
 21
112.5493999999999
 31
0.0
  0
LINE
  5
97
330
1E
100
AcDbEntity
  8
0
  6
CONTINUOUS
 62
     7
100
AcDbLine
 10
152.5
 20
112.5493999999999
 30
0.0
 11
151.6999999999999
 21
112.5493999999999
 31
0.0
  0
LINE
  5
98
330
1E
100
AcDbEntity
  8
0
  6
CONTINUOUS
 62
     7
100
AcDbLine
 10
152.82153
 20
111.3489999999996
 30
0.0
 11
152.5
 21
112.5489999999996
 31
0.0
  0
LINE
  5
99
330
1E
100
AcDbEntity
  8
0
  6
CONTINUOUS
 62
     7
100
AcDbLine
 10
152.5
 20
112.5489999999996
 30
0.0
 11
152.17846
 21
111.3489999999996
 31
0.0
  0
LINE
  5
9A
330
1E
100
AcDbEntity
  8
0
  6
CONTINUOUS
 62
     7
100
AcDbLine
 10
152.17846
 20
93.749
 30
0.0
 11
152.5
 21
92.54900000000001
 31
0.0
  0
LINE
  5
9B
330
1E
100
AcDbEntity
  8
0
  6
CONTINUOUS
 62
     7
100
AcDbLine
 10
152.5
 20
92.54900000000001
 30
0.0
 11
152.82153
 21
93.749
 31
0.0
  0
TEXT
  5
9C
330
1E
100
AcDbEntity
  8
0
  6
CONTINUOUS
 62
     7
100
AcDbText
 10
152.0999999999999
 20
98.6494
 30
0.0
 40
3.2
  1
400
 50
90.0
 41
0.8125
  7
BIGFONT
100
AcDbText
  0
LINE
  5
9D
330
1E
100
AcDbEntity
  8
0
  6
CONTINUOUS
 62
     7
100
AcDbLine
 10
75.5
 20
75.04940000000002
 30
0.0
 11
75.5
 21
81.0494
 31
0.0
  0
LINE
  5
9E
330
1E
100
AcDbEntity
  8
0
  6
CONTINUOUS
 62
     7
100
AcDbLine
 10
75.5
 20
80.42104999999997
 30
0.0
 11
75.5
 21
87.54940000000003
 31
0.0
  0
LINE
  5
9F
330
1E
100
AcDbEntity
  8
0
  6
CONTINUOUS
 62
     7
100
AcDbLine
 10
75.5
 20
92.43129999999998
 30
0.0
 11
75.5
 21
93.28230000000001
 31
0.0
  0
LINE
  5
A0
330
1E
100
AcDbEntity
  8
0
  6
CONTINUOUS
 62
     7
100
AcDbLine
 10
75.5
 20
93.28230000000001
 30
0.0
 11
75.5
 21
102.3319
 31
0.0
  0
LINE
  5
A1
330
1E
100
AcDbEntity
  8
0
  6
CONTINUOUS
 62
     7
100
AcDbLine
 10
75.5
 20
102.3319
 30
0.0
 11
75.5
 21
104.9312999999999
 31
0.0
  0
LINE
  5
A2
330
1E
100
AcDbEntity
  8
0
  6
CONTINUOUS
 62
     7
100
AcDbLine
 10
221.1604
 20
75.04940000000002
 30
0.0
 11
221.1604
 21
81.0426
 31
0.0
  0
LINE
  5
A3
330
1E
100
AcDbEntity
  8
0
  6
CONTINUOUS
 62
     7
100
AcDbLine
 10
208.4999999999999
 20
81.0426
 30
0.0
 11
221.9603999999999
 21
81.0426
 31
0.0
  0
LINE
  5
A4
330
1E
100
AcDbEntity
  8
0
  6
CONTINUOUS
 62
     7
100
AcDbLine
 10
208.4999999999999
 20
75.04940000000002
 30
0.0
 11
221.9603999999999
 21
75.04940000000002
 31
0.0
  0
LINE
  5
A5
330
1E
100
AcDbEntity
  8
0
  6
CONTINUOUS
 62
     7
100
AcDbLine
 10
221.48153
 20
79.842
 30
0.0
 11
221.16
 21
81.042
 31
0.0
  0
LINE
  5
A6
330
1E
100
AcDbEntity
  8
0
  6
CONTINUOUS
 62
     7
100
AcDbLine
 10
221.16
 20
81.042
 30
0.0
 11
220.83846
 21
79.842
 31
0.0
  0
LINE
  5
A7
330
1E
100
AcDbEntity
  8
0
  6
CONTINUOUS
 62
     7
100
AcDbLine
 10
220.83846
 20
76.249
 30
0.0
 11
221.16
 21
75.04900000000002
 31
0.0
  0
LINE
  5
A8
330
1E
100
AcDbEntity
  8
0
  6
CONTINUOUS
 62
     7
100
AcDbLine
 10
221.16
 20
75.04900000000002
 30
0.0
 11
221.48153
 21
76.249
 31
0.0
  0
TEXT
  5
A9
330
1E
100
AcDbEntity
  8
0
  6
CONTINUOUS
 62
     7
100
AcDbText
 10
220.7603999999999
 20
74.146
 30
0.0
 40
3.2
  1
120
 50
90.0
 41
0.8125
  7
BIGFONT
100
AcDbText
  0
LINE
  5
AA
330
1E
100
AcDbEntity
  8
0
  6
CONTINUOUS
 62
     7
100
AcDbLine
 10
221.1604
 20
81.0426
 30
0.0
 11
221.1604
 21
83.5426
 31
0.0
  0
LINE
  5
AB
330
1E
100
AcDbEntity
  8
0
  6
CONTINUOUS
 62
     7
100
AcDbLine
 10
208.4999999999999
 20
83.5426
 30
0.0
 11
221.9603999999999
 21
83.5426
 31
0.0
  0
LINE
  5
AC
330
1E
100
AcDbEntity
  8
0
  6
CONTINUOUS
 62
     7
100
AcDbLine
 10
221.1604
 20
85.9426
 30
0.0
 11
221.1604
 21
83.5426
 31
0.0
  0
LINE
  5
AD
330
1E
100
AcDbEntity
  8
0
  6
CONTINUOUS
 62
     7
100
AcDbLine
 10
220.83846
 20
84.74200000000001
 30
0.0
 11
221.16
 21
83.542
 31
0.0
  0
LINE
  5
AE
330
1E
100
AcDbEntity
  8
0
  6
CONTINUOUS
 62
     7
100
AcDbLine
 10
221.16
 20
83.542
 30
0.0
 11
221.48153
 21
84.74200000000001
 31
0.0
  0
LINE
  5
AF
330
1E
100
AcDbEntity
  8
0
  6
CONTINUOUS
 62
     7
100
AcDbLine
 10
221.1604
 20
81.0426
 30
0.0
 11
221.1604
 21
78.6426
 31
0.0
  0
LINE
  5
B0
330
1E
100
AcDbEntity
  8
0
  6
CONTINUOUS
 62
     7
100
AcDbLine
 10
221.48153
 20
79.842
 30
0.0
 11
221.16
 21
81.042
 31
0.0
  0
LINE
  5
B1
330
1E
100
AcDbEntity
  8
0
  6
CONTINUOUS
 62
     7
100
AcDbLine
 10
221.16
 20
81.042
 30
0.0
 11
220.83846
 21
79.842
 31
0.0
  0
LINE
  5
B2
330
1E
100
AcDbEntity
  8
0
  6
CONTINUOUS
 62
     7
100
AcDbLine
 10
221.1604
 20
85.9426
 30
0.0
 11
221.1604
 21
91.34260000000001
 31
0.0
  0
TEXT
  5
B3
330
1E
100
AcDbEntity
  8
0
  6
CONTINUOUS
 62
     7
100
AcDbText
 10
220.7603999999999
 20
86.14259999999999
 30
0.0
 40
3.2
  1
50
 50
90.0
 41
0.8125
  7
BIGFONT
100
AcDbText
  0
LINE
  5
B4
330
1E
100
AcDbEntity
  8
0
  6
CONTINUOUS
 62
     7
100
AcDbLine
 10
170.0
 20
50.0494
 30
0.0
 11
197.5
 21
50.0494
 31
0.0
  0
LINE
  5
B5
330
1E
100
AcDbEntity
  8
0
  6
CONTINUOUS
 62
     7
100
AcDbLine
 10
197.5
 20
74.0494
 30
0.0
 11
197.5
 21
49.2494
 31
0.0
  0
LINE
  5
B6
330
1E
100
AcDbEntity
  8
0
  6
CONTINUOUS
 62
     7
100
AcDbLine
 10
170.0
 20
74.0494
 30
0.0
 11
170.0
 21
49.2494
 31
0.0
  0
LINE
  5
B7
330
1E
100
AcDbEntity
  8
0
  6
CONTINUOUS
 62
     7
100
AcDbLine
 10
196.3
 20
49.72746
 30
0.0
 11
197.5
 21
50.049
 31
0.0
  0
LINE
  5
B8
330
1E
100
AcDbEntity
  8
0
  6
CONTINUOUS
 62
     7
100
AcDbLine
 10
197.5
 20
50.049
 30
0.0
 11
196.3
 21
50.37053
 31
0.0
  0
LINE
  5
B9
330
1E
100
AcDbEntity
  8
0
  6
CONTINUOUS
 62
     7
100
AcDbLine
 10
171.1999999999999
 20
50.37053
 30
0.0
 11
170.0
 21
50.049
 31
0.0
  0
LINE
  5
BA
330
1E
100
AcDbEntity
  8
0
  6
CONTINUOUS
 62
     7
100
AcDbLine
 10
170.0
 20
50.049
 30
0.0
 11
171.1999999999999
 21
49.72746
 31
0.0
  0
TEXT
  5
BB
330
1E
100
AcDbEntity
  8
0
  6
CONTINUOUS
 62
     7
100
AcDbText
 10
179.8499999999999
 20
50.4494
 30
0.0
 40
3.2
  1
550
 41
0.8125
  7
BIGFONT
100
AcDbText
  0
LINE
  5
BC
330
1E
100
AcDbEntity
  8
0
  6
CONTINUOUS
 62
     7
100
AcDbLine
 10
145.0
 20
75.04940000000002
 30
0.0
 11
145.0
 21
81.0426
 31
0.0
  0
LINE
  5
BD
330
1E
100
AcDbEntity
  8
0
  6
CONTINUOUS
 62
     7
100
AcDbLine
 10
148.04265
 20
81.0426
 30
0.0
 11
144.1999999999999
 21
81.0426
 31
0.0
  0
LINE
  5
BE
330
1E
100
AcDbEntity
  8
0
  6
CONTINUOUS
 62
     7
100
AcDbLine
 10
145.0
 20
75.04940000000002
 30
0.0
 11
144.1999999999999
 21
75.04940000000002
 31
0.0
  0
LINE
  5
BF
330
1E
100
AcDbEntity
  8
0
  6
CONTINUOUS
 62
     7
100
AcDbLine
 10
145.3215299999999
 20
79.842
 30
0.0
 11
145.0
 21
81.042
 31
0.0
  0
LINE
  5
C0
330
1E
100
AcDbEntity
  8
0
  6
CONTINUOUS
 62
     7
100
AcDbLine
 10
145.0
 20
81.042
 30
0.0
 11
144.6784599999999
 21
79.842
 31
0.0
  0
LINE
  5
C1
330
1E
100
AcDbEntity
  8
0
  6
CONTINUOUS
 62
     7
100
AcDbLine
 10
144.6784599999999
 20
76.249
 30
0.0
 11
145.0
 21
75.04900000000002
 31
0.0
  0
LINE
  5
C2
330
1E
100
AcDbEntity
  8
0
  6
CONTINUOUS
 62
     7
100
AcDbLine
 10
145.0
 20
75.04900000000002
 30
0.0
 11
145.3215299999999
 21
76.249
 31
0.0
  0
TEXT
  5
C3
330
1E
100
AcDbEntity
  8
0
  6
CONTINUOUS
 62
     7
100
AcDbText
 10
144.5999999999999
 20
75.74647749629099
 30
0.0
 40
3.2
  1
120
 50
90.0
 41
0.8125
  7
BIGFONT
100
AcDbText
  0
LINE
  5
C4
330
1E
100
AcDbEntity
  8
0
  6
CONTINUOUS
 62
     7
100
AcDbLine
 10
145.0
 20
81.0426
 30
0.0
 11
145.0
 21
112.5493999999999
 31
0.0
  0
LINE
  5
C5
330
1E
100
AcDbEntity
  8
0
  6
CONTINUOUS
 62
     7
100
AcDbLine
 10
145.0
 20
112.5493999999999
 30
0.0
 11
144.1999999999999
 21
112.5493999999999
 31
0.0
  0
LINE
  5
C6
330
1E
100
AcDbEntity
  8
0
  6
CONTINUOUS
 62
     7
100
AcDbLine
 10
145.3215299999999
 20
111.3489999999996
 30
0.0
 11
145.0
 21
112.5489999999996
 31
0.0
  0
LINE
  5
C7
330
1E
100
AcDbEntity
  8
0
  6
CONTINUOUS
 62
     7
100
AcDbLine
 10
145.0
 20
112.5489999999996
 30
0.0
 11
144.6784599999999
 21
111.3489999999996
 31
0.0
  0
LINE
  5
C8
330
1E
100
AcDbEntity
  8
0
  6
CONTINUOUS
 62
     7
100
AcDbLine
 10
144.6784599999999
 20
82.24200000000001
 30
0.0
 11
145.0
 21
81.042
 31
0.0
  0
LINE
  5
C9
330
1E
100
AcDbEntity
  8
0
  6
CONTINUOUS
 62
     7
100
AcDbLine
 10
145.0
 20
81.042
 30
0.0
 11
145.3215299999999
 21
82.24200000000001
 31
0.0
  0
TEXT
  5
CA
330
1E
100
AcDbEntity
  8
0
  6
CONTINUOUS
 62
     7
100
AcDbText
 10
144.5999999999999
 20
92.896
 30
0.0
 40
3.2
  1
630
 50
90.0
 41
0.8125
  7
BIGFONT
100
AcDbText
  0
LINE
  5
CB
330
1E
100
AcDbEntity
  8
0
  6
CONTINUOUS
 62
     7
100
AcDbLine
 10
170.0
 20
-58.14705
 30
0.0
 11
170.0
 21
-20.64705
 31
0.0
  0
LINE
  5
CC
330
1E
100
AcDbEntity
  8
0
  6
CONTINUOUS
 62
     7
100
AcDbLine
 10
170.0
 20
-20.64705
 30
0.0
 11
207.5
 21
-20.64705
 31
0.0
  0
LINE
  5
CD
330
1E
100
AcDbEntity
  8
0
  6
CONTINUOUS
 62
     7
100
AcDbLine
 10
170.0
 20
-58.14705
 30
0.0
 11
197.5
 21
-58.14705
 31
0.0
  0
LINE
  5
CE
330
1E
100
AcDbEntity
  8
0
  6
CONTINUOUS
 62
     7
100
AcDbLine
 10
185.0
 20
-29.14705
 30
0.0
 11
207.5
 21
-29.14705
 31
0.0
  0
LINE
  5
CF
330
1E
100
AcDbEntity
  8
0
  6
CONTINUOUS
 62
     7
100
AcDbLine
 10
185.0
 20
-29.14705
 30
0.0
 11
185.0
 21
-26.64705
 31
0.0
  0
LINE
  5
D0
330
1E
100
AcDbEntity
  8
0
  6
CONTINUOUS
 62
     7
100
AcDbLine
 10
178.5
 20
-58.14705
 30
0.0
 11
178.5
 21
-35.64705
 31
0.0
  0
LINE
  5
D1
330
1E
100
AcDbEntity
  8
0
  6
CONTINUOUS
 62
     7
100
AcDbLine
 10
176.0
 20
-35.64705
 30
0.0
 11
178.5
 21
-35.64705
 31
0.0
  0
LINE
  5
D2
330
1E
100
AcDbEntity
  8
0
  6
CONTINUOUS
 62
     7
100
AcDbLine
 10
152.5
 20
-58.14705
 30
0.0
 11
152.5
 21
-20.64705
 31
0.0
  0
LINE
  5
D3
330
1E
100
AcDbEntity
  8
0
  6
CONTINUOUS
 62
     7
100
AcDbLine
 10
169.0
 20
-20.64705
 30
0.0
 11
151.6999999999999
 21
-20.64705
 31
0.0
  0
LINE
  5
D4
330
1E
100
AcDbEntity
  8
0
  6
CONTINUOUS
 62
     7
100
AcDbLine
 10
169.0
 20
-58.14705
 30
0.0
 11
151.6999999999999
 21
-58.14705
 31
0.0
  0
LINE
  5
D5
330
1E
100
AcDbEntity
  8
0
  6
CONTINUOUS
 62
     7
100
AcDbLine
 10
152.82153
 20
-21.84699999999998
 30
0.0
 11
152.5
 21
-20.64699999999997
 31
0.0
  0
LINE
  5
D6
330
1E
100
AcDbEntity
  8
0
  6
CONTINUOUS
 62
     7
100
AcDbLine
 10
152.5
 20
-20.64699999999997
 30
0.0
 11
152.17846
 21
-21.84699999999998
 31
0.0
  0
LINE
  5
D7
330
1E
100
AcDbEntity
  8
0
  6
CONTINUOUS
 62
     7
100
AcDbLine
 10
152.17846
 20
-56.947
 30
0.0
 11
152.5
 21
-58.147
 31
0.0
  0
LINE
  5
D8
330
1E
100
AcDbEntity
  8
0
  6
CONTINUOUS
 62
     7
100
AcDbLine
 10
152.5
 20
-58.147
 30
0.0
 11
152.82153
 21
-56.947
 31
0.0
  0
TEXT
  5
D9
330
1E
100
AcDbEntity
  8
0
  6
CONTINUOUS
 62
     7
100
AcDbText
 10
152.0999999999999
 20
-43.29704999999999
 30
0.0
 40
3.2
  1
750
 50
90.0
 41
0.8125
  7
BIGFONT
100
AcDbText
  0
LINE
  5
DA
330
1E
100
AcDbEntity
  8
0
  6
CONTINUOUS
 62
     7
100
AcDbLine
 10
159.9791999999998
 20
-58.14705
 30
0.0
 11
159.9791999999998
 21
-35.69984999999999
 31
0.0
  0
LINE
  5
DB
330
1E
100
AcDbEntity
  8
0
  6
CONTINUOUS
 62
     7
100
AcDbLine
 10
169.0
 20
-35.69984999999999
 30
0.0
 11
159.1792
 21
-35.69984999999999
 31
0.0
  0
LINE
  5
DC
330
1E
100
AcDbEntity
  8
0
  6
CONTINUOUS
 62
     7
100
AcDbLine
 10
163.59905
 20
-58.14705
 30
0.0
 11
159.1792
 21
-58.14705
 31
0.0
  0
LINE
  5
DD
330
1E
100
AcDbEntity
  8
0
  6
CONTINUOUS
 62
     7
100
AcDbLine
 10
160.30053
 20
-36.899
 30
0.0
 11
159.9789999999998
 21
-35.699
 31
0.0
  0
LINE
  5
DE
330
1E
100
AcDbEntity
  8
0
  6
CONTINUOUS
 62
     7
100
AcDbLine
 10
159.9789999999998
 20
-35.699
 30
0.0
 11
159.65746
 21
-36.899
 31
0.0
  0
LINE
  5
DF
330
1E
100
AcDbEntity
  8
0
  6
CONTINUOUS
 62
     7
100
AcDbLine
 10
159.65746
 20
-56.947
 30
0.0
 11
159.9789999999998
 21
-58.147
 31
0.0
  0
LINE
  5
E0
330
1E
100
AcDbEntity
  8
0
  6
CONTINUOUS
 62
     7
100
AcDbLine
 10
159.9789999999998
 20
-58.147
 30
0.0
 11
160.30053
 21
-56.947
 31
0.0
  0
TEXT
  5
E1
330
1E
100
AcDbEntity
  8
0
  6
CONTINUOUS
 62
     7
100
AcDbText
 10
159.5791999999998
 20
-50.82345
 30
0.0
 40
3.2
  1
450
 50
90.0
 41
0.8125
  7
BIGFONT
100
AcDbText
  0
LINE
  5
E2
330
1E
100
AcDbEntity
  8
0
  6
CONTINUOUS
 62
     7
100
AcDbLine
 10
170.0
 20
-75.64705
 30
0.0
 11
197.5
 21
-75.64705
 31
0.0
  0
LINE
  5
E3
330
1E
100
AcDbEntity
  8
0
  6
CONTINUOUS
 62
     7
100
AcDbLine
 10
197.5
 20
-59.14705
 30
0.0
 11
197.5
 21
-76.44705
 31
0.0
  0
LINE
  5
E4
330
1E
100
AcDbEntity
  8
0
  6
CONTINUOUS
 62
     7
100
AcDbLine
 10
170.0
 20
-59.14705
 30
0.0
 11
170.0
 21
-76.44705
 31
0.0
  0
LINE
  5
E5
330
1E
100
AcDbEntity
  8
0
  6
CONTINUOUS
 62
     7
100
AcDbLine
 10
196.3
 20
-75.96853
 30
0.0
 11
197.5
 21
-75.64700000000001
 31
0.0
  0
LINE
  5
E6
330
1E
100
AcDbEntity
  8
0
  6
CONTINUOUS
 62
     7
100
AcDbLine
 10
197.5
 20
-75.64700000000001
 30
0.0
 11
196.3
 21
-75.32545999999998
 31
0.0
  0
LINE
  5
E7
330
1E
100
AcDbEntity
  8
0
  6
CONTINUOUS
 62
     7
100
AcDbLine
 10
171.1999999999999
 20
-75.32545999999998
 30
0.0
 11
170.0
 21
-75.64700000000001
 31
0.0
  0
LINE
  5
E8
330
1E
100
AcDbEntity
  8
0
  6
CONTINUOUS
 62
     7
100
AcDbLine
 10
170.0
 20
-75.64700000000001
 30
0.0
 11
171.1999999999999
 21
-75.96853
 31
0.0
  0
TEXT
  5
E9
330
1E
100
AcDbEntity
  8
0
  6
CONTINUOUS
 62
     7
100
AcDbText
 10
179.8499999999999
 20
-75.24705
 30
0.0
 40
3.2
  1
550
 41
0.8125
  7
BIGFONT
100
AcDbText
  0
LINE
  5
EA
330
1E
100
AcDbEntity
  8
0
  6
CONTINUOUS
 62
     7
100
AcDbLine
 10
170.0
 20
-68.14705
 30
0.0
 11
176.0
 21
-68.14705
 31
0.0
  0
LINE
  5
EB
330
1E
100
AcDbEntity
  8
0
  6
CONTINUOUS
 62
     7
100
AcDbLine
 10
176.0
 20
-59.14705
 30
0.0
 11
176.0
 21
-68.94705
 31
0.0
  0
LINE
  5
EC
330
1E
100
AcDbEntity
  8
0
  6
CONTINUOUS
 62
     7
100
AcDbLine
 10
170.0
 20
-66.81355
 30
0.0
 11
170.0
 21
-68.94705
 31
0.0
  0
LINE
  5
ED
330
1E
100
AcDbEntity
  8
0
  6
CONTINUOUS
 62
     7
100
AcDbLine
 10
174.8
 20
-68.46853
 30
0.0
 11
176.0
 21
-68.14700000000001
 31
0.0
  0
LINE
  5
EE
330
1E
100
AcDbEntity
  8
0
  6
CONTINUOUS
 62
     7
100
AcDbLine
 10
176.0
 20
-68.14700000000001
 30
0.0
 11
174.8
 21
-67.82545999999999
 31
0.0
  0
LINE
  5
EF
330
1E
100
AcDbEntity
  8
0
  6
CONTINUOUS
 62
     7
100
AcDbLine
 10
171.1999999999999
 20
-67.82545999999999
 30
0.0
 11
170.0
 21
-68.14700000000001
 31
0.0
  0
LINE
  5
F0
330
1E
100
AcDbEntity
  8
0
  6
CONTINUOUS
 62
     7
100
AcDbLine
 10
170.0
 20
-68.14700000000001
 30
0.0
 11
171.1999999999999
 21
-68.46853
 31
0.0
  0
TEXT
  5
F1
330
1E
100
AcDbEntity
  8
0
  6
CONTINUOUS
 62
     7
100
AcDbText
 10
169.1
 20
-67.74705
 30
0.0
 40
3.2
  1
120
 41
0.8125
  7
BIGFONT
100
AcDbText
  0
LINE
  5
F2
330
1E
100
AcDbEntity
  8
0
  6
CONTINUOUS
 62
     7
100
AcDbLine
 10
176.0
 20
-68.14705
 30
0.0
 11
178.5
 21
-68.14705
 31
0.0
  0
LINE
  5
F3
330
1E
100
AcDbEntity
  8
0
  6
CONTINUOUS
 62
     7
100
AcDbLine
 10
178.5
 20
-59.14705
 30
0.0
 11
178.5
 21
-68.94705
 31
0.0
  0
LINE
  5
F4
330
1E
100
AcDbEntity
  8
0
  6
CONTINUOUS
 62
     7
100
AcDbLine
 10
180.9
 20
-68.14705
 30
0.0
 11
178.5
 21
-68.14705
 31
0.0
  0
LINE
  5
F5
330
1E
100
AcDbEntity
  8
0
  6
CONTINUOUS
 62
     7
100
AcDbLine
 10
179.6999999999999
 20
-67.82545999999999
 30
0.0
 11
178.5
 21
-68.14700000000001
 31
0.0
  0
LINE
  5
F6
330
1E
100
AcDbEntity
  8
0
  6
CONTINUOUS
 62
     7
100
AcDbLine
 10
178.5
 20
-68.14700000000001
 30
0.0
 11
179.6999999999999
 21
-68.46853
 31
0.0
  0
LINE
  5
F7
330
1E
100
AcDbEntity
  8
0
  6
CONTINUOUS
 62
     7
100
AcDbLine
 10
176.0
 20
-68.14705
 30
0.0
 11
173.5999999999999
 21
-68.14705
 31
0.0
  0
LINE
  5
F8
330
1E
100
AcDbEntity
  8
0
  6
CONTINUOUS
 62
     7
100
AcDbLine
 10
174.8
 20
-68.46853
 30
0.0
 11
176.0
 21
-68.14700000000001
 31
0.0
  0
LINE
  5
F9
330
1E
100
AcDbEntity
  8
0
  6
CONTINUOUS
 62
     7
100
AcDbLine
 10
176.0
 20
-68.14700000000001
 30
0.0
 11
174.8
 21
-67.82545999999999
 31
0.0
  0
LINE
  5
FA
330
1E
100
AcDbEntity
  8
0
  6
CONTINUOUS
 62
     7
100
AcDbLine
 10
180.9
 20
-68.14705
 30
0.0
 11
186.3
 21
-68.14705
 31
0.0
  0
TEXT
  5
FB
330
1E
100
AcDbEntity
  8
0
  6
CONTINUOUS
 62
     7
100
AcDbText
 10
181.0999999999999
 20
-67.74705
 30
0.0
 40
3.2
  1
50
 41
0.8125
  7
BIGFONT
100
AcDbText
  0
ARC
  5
FC
330
1E
100
AcDbEntity
  8
0
  6
CONTINUOUS
 62
     7
100
AcDbCircle
 10
170.0
 20
-20.64705
 30
0.0
 40
6.408249999999998
100
AcDbArc
 50
270.0
 51
0.0
  0
ARC
  5
FD
330
1E
100
AcDbEntity
  8
0
  6
CONTINUOUS
 62
     7
100
AcDbCircle
 10
168.34148
 20
-20.86533999999999
 30
0.0
 40
6.407999999999997
100
AcDbArc
 50
285.0
 51
295.7295399999998
  0
ARC
  5
FE
330
1E
100
AcDbEntity
  8
0
  6
CONTINUOUS
 62
     7
100
AcDbCircle
 10
171.65851
 20
-20.86533999999999
 30
0.0
 40
6.407999999999997
100
AcDbArc
 50
255.0
 51
265.7295399999999
  0
ARC
  5
FF
330
1E
100
AcDbEntity
  8
0
  6
CONTINUOUS
 62
     7
100
AcDbCircle
 10
170.2183399999999
 20
-22.30551
 30
0.0
 40
6.407999999999997
100
AcDbArc
 50
4.270453199999998
 51
15.0
  0
ARC
  5
100
330
1E
100
AcDbEntity
  8
0
  6
CONTINUOUS
 62
     7
100
AcDbCircle
 10
170.2183399999999
 20
-18.98848
 30
0.0
 40
6.407999999999997
100
AcDbArc
 50
334.2704499999998
 51
345.0
  0
TEXT
  5
101
330
1E
100
AcDbEntity
  8
0
  6
CONTINUOUS
 62
     7
100
AcDbText
 10
175.0609
 20
-30.0696
 30
0.0
 40
3.2
  1
90゜
 50
45.0
  7
BIGFONT
100
AcDbText
  0
LINE
  5
102
330
1E
100
AcDbEntity
  8
0
  6
CONTINUOUS
 62
     7
100
AcDbLine
 10
207.5
 20
104.9312999999999
 30
0.0
 11
207.5
 21
112.5493999999999
 31
0.0
  0
LINE
  5
103
330
1E
100
AcDbEntity
  8
0
  6
CONTINUOUS
 62
     7
100
AcDbLine
 10
207.35
 20
92.2813
 30
0.0
 11
207.5
 21
92.43129999999998
 31
0.0
  0
LINE
  5
104
330
1E
100
AcDbEntity
  8
0
  6
CONTINUOUS
 62
     7
100
AcDbLine
 10
207.35
 20
87.6994
 30
0.0
 11
207.5
 21
87.54940000000003
 31
0.0
  0
LINE
  5
105
330
1E
100
AcDbEntity
  8
0
  6
CONTINUOUS
 62
     7
100
AcDbLine
 10
173.5492
 20
92.54940000000001
 30
0.0
 11
173.6868
 21
92.54940000000001
 31
0.0
  0
LINE
  5
106
330
1E
100
AcDbEntity
  8
0
  6
CONTINUOUS
 62
     7
100
AcDbLine
 10
170.0
 20
92.54940000000001
 30
0.0
 11
176.0
 21
92.54940000000001
 31
0.0
  0
LINE
  5
107
330
1E
100
AcDbEntity
  8
0
  6
CONTINUOUS
 62
     7
100
AcDbLine
 10
170.0
 20
87.54940000000003
 30
0.0
 11
176.0
 21
87.54940000000003
 31
0.0
  0
LINE
  5
108
330
1E
100
AcDbEntity
  8
0
  6
CONTINUOUS
 62
     7
100
AcDbLine
 10
170.0
 20
75.04940000000002
 30
0.0
 11
170.0
 21
112.0994
 31
0.0
  0
LINE
  5
109
330
1E
100
AcDbEntity
  8
0
  6
CONTINUOUS
 62
     7
100
AcDbLine
 10
170.0
 20
75.04940000000002
 30
0.0
 11
207.5
 21
75.04940000000002
 31
0.0
  0
LINE
  5
10A
330
1E
100
AcDbEntity
  8
0
  6
CONTINUOUS
 62
     7
100
AcDbLine
 10
170.4499999999999
 20
112.5493999999999
 30
0.0
 11
175.55
 21
112.5493999999999
 31
0.0
  0
LINE
  5
10B
330
1E
100
AcDbEntity
  8
0
  6
CONTINUOUS
 62
     7
100
AcDbLine
 10
170.0
 20
112.0994
 30
0.0
 11
170.4499999999999
 21
112.5493999999999
 31
0.0
  0
LINE
  5
10C
330
1E
100
AcDbEntity
  8
0
  6
CONTINUOUS
 62
     7
100
AcDbLine
 10
175.55
 20
112.5493999999999
 30
0.0
 11
176.0
 21
112.0994
 31
0.0
  0
LINE
  5
10D
330
1E
100
AcDbEntity
  8
0
  6
CONTINUOUS
 62
     7
100
AcDbLine
 10
207.35
 20
87.6994
 30
0.0
 11
207.35
 21
92.2813
 31
0.0
  0
LINE
  5
10E
330
1E
100
AcDbEntity
  8
0
  6
CONTINUOUS
 62
     7
100
AcDbLine
 10
176.0
 20
83.5494
 30
0.0
 11
176.0
 21
112.0994
 31
0.0
  0
LINE
  5
10F
330
1E
100
AcDbEntity
  8
0
  6
CONTINUOUS
 62
     7
100
AcDbLine
 10
178.5
 20
81.0494
 30
0.0
 11
207.5
 21
81.0494
 31
0.0
  0
LINE
  5
110
330
1E
100
AcDbEntity
  8
0
  6
CONTINUOUS
 62
     7
100
AcDbLine
 10
207.5
 20
75.04940000000002
 30
0.0
 11
207.5
 21
81.0494
 31
0.0
  0
LINE
  5
111
330
1E
100
AcDbEntity
  8
0
  6
CONTINUOUS
 62
     7
100
AcDbLine
 10
176.0
 20
83.5494
 30
0.0
 11
178.5
 21
81.0494
 31
0.0
  0
LINE
  5
112
330
1E
100
AcDbEntity
  8
0
  6
CONTINUOUS
 62
     7
100
AcDbLine
 10
197.5
 20
75.04940000000002
 30
0.0
 11
197.5
 21
81.0494
 31
0.0
  0
LINE
  5
113
330
1E
100
AcDbEntity
  8
0
  6
CONTINUOUS
 62
     7
100
AcDbLine
 10
207.5
 20
80.42104999999997
 30
0.0
 11
207.5
 21
87.54940000000003
 31
0.0
  0
LINE
  5
114
330
1E
100
AcDbEntity
  8
0
  6
CONTINUOUS
 62
     7
100
AcDbLine
 10
207.5
 20
92.43129999999998
 30
0.0
 11
207.5
 21
93.28230000000001
 31
0.0
  0
LINE
  5
115
330
1E
100
AcDbEntity
  8
0
  6
CONTINUOUS
 62
     7
100
AcDbLine
 10
207.5
 20
93.28230000000001
 30
0.0
 11
207.5
 21
102.3319
 31
0.0
  0
LINE
  5
116
330
1E
100
AcDbEntity
  8
0
  6
CONTINUOUS
 62
     7
100
AcDbLine
 10
207.5
 20
102.3319
 30
0.0
 11
207.5
 21
104.9312999999999
 31
0.0
  0
LINE
  5
117
330
1E
100
AcDbEntity
  8
0
  6
CONTINUOUS
 62
     7
100
AcDbLine
 10
181.0397
 20
81.0426
 30
0.0
 11
207.5
 21
81.0426
 31
0.0
  0
LINE
  5
118
330
1E
100
AcDbEntity
  8
0
  6
CONTINUOUS
 62
     7
100
AcDbLine
 10
173.8891999999999
 20
112.5493999999999
 30
0.0
 11
207.5
 21
112.5493999999999
 31
0.0
  0
LINE
  5
119
330
1E
100
AcDbEntity
  8
0
  6
CONTINUOUS
 62
     7
100
AcDbLine
 10
185.0
 20
83.5426
 30
0.0
 11
207.5
 21
83.5426
 31
0.0
  0
LINE
  5
11A
330
1E
100
AcDbEntity
  8
0
  6
CONTINUOUS
 62
     7
100
AcDbLine
 10
185.0
 20
81.0426
 30
0.0
 11
185.0
 21
83.5494
 31
0.0
  0
LINE
  5
11B
330
1E
100
AcDbEntity
  8
0
  6
CONTINUOUS
 62
     7
100
AcDbLine
 10
190.0
 20
81.0426
 30
0.0
 11
190.0
 21
81.0494
 31
0.0
  0
LINE
  5
11C
330
1E
100
AcDbEntity
  8
0
  6
CONTINUOUS
 62
     7
100
AcDbLine
 10
-87.62500000000001
 20
-58.14705
 30
0.0
 11
-87.62500000000001
 21
-20.64705
 31
0.0
  0
LINE
  5
11D
330
1E
100
AcDbEntity
  8
0
  6
CONTINUOUS
 62
     7
100
AcDbLine
 10
-87.62500000000001
 20
-20.64705
 30
0.0
 11
-50.125
 21
-20.64705
 31
0.0
  0
LINE
  5
11E
330
1E
100
AcDbEntity
  8
0
  6
CONTINUOUS
 62
     7
100
AcDbLine
 10
-202.0656999999999
 20
-58.14705
 30
0.0
 11
-202.0656999999999
 21
-20.64705
 31
0.0
  0
LINE
  5
11F
330
1E
100
AcDbEntity
  8
0
  6
CONTINUOUS
 62
     7
100
AcDbLine
 10
-202.0656999999999
 20
-20.64705
 30
0.0
 11
-164.5656999999999
 21
-20.64705
 31
0.0
  0
LINE
  5
120
330
1E
100
AcDbEntity
  8
0
  6
CONTINUOUS
 62
     7
100
AcDbLine
 10
-94.23104999999999
 20
140.0493999999999
 30
0.0
 11
-41.71375
 21
140.0493999999999
 31
0.0
  0
LINE
  5
121
330
1E
100
AcDbEntity
  8
0
  6
CONTINUOUS
 62
     7
100
AcDbLine
 10
-208.7524999999998
 20
140.0967
 30
0.0
 11
-156.3059
 21
140.0967
 31
0.0
  0
TEXT
  5
122
330
1E
100
AcDbEntity
  8
0
  6
CONTINUOUS
 62
     7
100
AcDbText
 10
-205.65685
 20
140.79665
 30
0.0
 40
6.0
  1
Ａ－Ａ
 41
0.8666665999999999
  7
BIGFONT
100
AcDbText
  0
TEXT
  5
123
330
1E
100
AcDbEntity
  8
0
  6
CONTINUOUS
 62
     7
100
AcDbText
 10
-91.09785
 20
140.63595
 30
0.0
 40
6.0
  1
Ｂ－Ｂ
 41
0.8666665999999999
  7
BIGFONT
100
AcDbText
  0
TEXT
  5
124
330
1E
100
AcDbEntity
  8
0
  6
CONTINUOUS
 62
     7
100
AcDbText
 10
-205.8308499999998
 20
7.70155
 30
0.0
 40
6.0
  1
Ｃ－Ｃ
 41
0.8666665999999999
  7
BIGFONT
100
AcDbText
  0
TEXT
  5
125
330
1E
100
AcDbEntity
  8
0
  6
CONTINUOUS
 62
     7
100
AcDbText
 10
-91.24315000000001
 20
7.6192
 30
0.0
 40
6.0
  1
Ｄ－Ｄ
 41
0.8666665999999999
  7
BIGFONT
100
AcDbText
  0
TEXT
  5
126
330
1E
100
AcDbEntity
  8
0
  6
CONTINUOUS
 62
     7
100
AcDbText
 10
-67.42985
 20
7.495499999999998
 30
0.0
 40
6.0
  1
断面図
  7
BIGFONT
100
AcDbText
  0
TEXT
  5
127
330
1E
100
AcDbEntity
  8
0
  6
CONTINUOUS
 62
     7
100
AcDbText
 10
-182.14935
 20
7.554649999999997
 30
0.0
 40
6.0
  1
断面図
  7
BIGFONT
100
AcDbText
  0
TEXT
  5
128
330
1E
100
AcDbEntity
  8
0
  6
CONTINUOUS
 62
     7
100
AcDbText
 10
-182.1167
 20
140.7078
 30
0.0
 40
6.0
  1
断面図
  7
BIGFONT
100
AcDbText
  0
TEXT
  5
129
330
1E
100
AcDbEntity
  8
0
  6
CONTINUOUS
 62
     7
100
AcDbText
 10
-67.59755
 20
140.78145
 30
0.0
 40
6.0
  1
断面図
  7
BIGFONT
100
AcDbText
  0
LINE
  5
12A
330
1E
100
AcDbEntity
  8
0
  6
CONTINUOUS
 62
     7
100
AcDbLine
 10
-208.7524999999998
 20
6.852949999999997
 30
0.0
 11
-156.4589499999998
 21
6.852949999999997
 31
0.0
  0
LINE
  5
12B
330
1E
100
AcDbEntity
  8
0
  6
CONTINUOUS
 62
     7
100
AcDbLine
 10
175.0
 20
140.0493999999999
 30
0.0
 11
201.5100499999999
 21
140.0493999999999
 31
0.0
  0
TEXT
  5
12C
330
1E
100
AcDbEntity
  8
0
  6
CONTINUOUS
 62
     7
100
AcDbText
 10
176.2345
 20
141.1944
 30
0.0
 40
6.2
  1
側面図
  7
BIGFONT
100
AcDbText
  0
TEXT
  5
12D
330
1E
100
AcDbEntity
  8
0
  6
CONTINUOUS
 62
     7
100
AcDbText
 10
175.9762
 20
8.008599999999999
 30
0.0
 40
6.2
  1
平面図
  7
BIGFONT
100
AcDbText
  0
LINE
  5
12E
330
1E
100
AcDbEntity
  8
0
  6
CONTINUOUS
 62
     7
100
AcDbLine
 10
175.0
 20
6.852949999999997
 30
0.0
 11
201.4900499999999
 21
6.852949999999997
 31
0.0
  0
LINE
  5
12F
330
1E
100
AcDbEntity
  8
0
  6
CONTINUOUS
 62
     7
100
AcDbLine
 10
-94.23104999999999
 20
6.852949999999997
 30
0.0
 11
-41.9375
 21
6.852949999999997
 31
0.0
  0
LINE
  5
130
330
1E
100
AcDbEntity
  8
0
  6
CONTINUOUS
 62
     7
100
AcDbLine
 10
-269.375
 20
192.38625
 30
0.0
 11
269.375
 21
192.38625
 31
0.0
  0
LINE
  5
131
330
1E
100
AcDbEntity
  8
0
  6
CONTINUOUS
 62
     7
100
AcDbLine
 10
269.375
 20
-192.3863
 30
0.0
 11
269.375
 21
192.38625
 31
0.0
  0
LINE
  5
132
330
1E
100
AcDbEntity
  8
0
  6
CONTINUOUS
 62
     7
100
AcDbLine
 10
-269.375
 20
-192.3863
 30
0.0
 11
-269.375
 21
192.38625
 31
0.0
  0
LINE
  5
133
330
1E
100
AcDbEntity
  8
0
  6
CONTINUOUS
 62
     7
100
AcDbLine
 10
-269.375
 20
-192.3863
 30
0.0
 11
269.375
 21
-192.3863
 31
0.0
  0
LINE
  5
134
330
1E
100
AcDbEntity
  8
0
  6
CONTINUOUS
 62
     7
100
AcDbLine
 10
-155.7868
 20
169.4627
 30
0.0
 11
155.75555
 21
169.4627
 31
0.0
  0
TEXT
  5
135
330
1E
100
AcDbEntity
  8
0
  6
CONTINUOUS
 62
     7
100
AcDbText
 10
-151.3677999999998
 20
171.65395
 30
0.0
 40
10.0
  1
ＫＬウォール３型．コーナー部構造図
  7
BIGFONT
100
AcDbText
  0
TEXT
  5
136
330
1E
100
AcDbEntity
  8
0
  6
CONTINUOUS
 62
     7
100
AcDbText
 10
126.0627469366415
 20
172.48105
 30
0.0
 40
5.5
  1
S=1:20
  7
BIGFONT
100
AcDbText
  0
TEXT
  5
137
330
1E
100
AcDbEntity
  8
0
  6
CONTINUOUS
 62
     7
100
AcDbText
 10
55.26257212973447
 20
172.5300999999999
 30
0.0
 40
6.5
  1
(H=750-90°)
  7
BIGFONT
100
AcDbText
  0
TEXT
  5
138
330
1E
100
AcDbEntity
  8
3
  6
CONTINUOUS
 62
     7
100
AcDbText
 10
196.202
 20
-149.865
 30
0.0
 40
3.7
  1
コーナー部構造図
  7
BIGFONT
100
AcDbText
  0
TEXT
  5
139
330
1E
100
AcDbEntity
  8
3
  6
CONTINUOUS
 62
     7
100
AcDbText
 10
196.222
 20
-145.185
 30
0.0
 40
3.7
  1
ＫＬウォール３型
  7
BIGFONT
100
AcDbText
  0
TEXT
  5
13B
330
1E
100
AcDbEntity
  8
3
  6
CONTINUOUS
 62
     7
100
AcDbText
 10
233.3455240878155
 20
-149.71
 30
0.0
 40
3.7
  1
(H=750-90)
  7
BIGFONT
100
AcDbText
  0
TEXT
  5
13C
330
1E
100
AcDbEntity
  8
3
  6
CONTINUOUS
 62
     7
100
AcDbText
 10
262.8477765953074
 20
-149.114
 30
0.0
 40
3.7
  1
゜
  7
BIGFONT
100
AcDbText
  0
LINE
  5
13D
330
1E
100
AcDbEntity
  8
0
  6
CONTINUOUS
 62
     7
100
AcDbLine
 10
176.0
 20
129.7358
 30
0.0
 11
178.5
 21
129.7358
 31
0.0
  0
LINE
  5
13E
330
1E
100
AcDbEntity
  8
0
  6
CONTINUOUS
 62
     7
100
AcDbLine
 10
178.5
 20
113.5494
 30
0.0
 11
178.5
 21
130.5358
 31
0.0
  0
LINE
  5
13F
330
1E
100
AcDbEntity
  8
0
  6
CONTINUOUS
 62
     7
100
AcDbLine
 10
176.0
 20
126.5149
 30
0.0
 11
176.0
 21
130.5358
 31
0.0
  0
LINE
  5
140
330
1E
100
AcDbEntity
  8
0
  6
CONTINUOUS
 62
     7
100
AcDbLine
 10
180.9
 20
129.7358
 30
0.0
 11
178.5
 21
129.7358
 31
0.0
  0
LINE
  5
141
330
1E
100
AcDbEntity
  8
0
  6
CONTINUOUS
 62
     7
100
AcDbLine
 10
179.6999999999999
 20
130.05653
 30
0.0
 11
178.5
 21
129.735
 31
0.0
  0
LINE
  5
142
330
1E
100
AcDbEntity
  8
0
  6
CONTINUOUS
 62
     7
100
AcDbLine
 10
178.5
 20
129.735
 30
0.0
 11
179.6999999999999
 21
129.41346
 31
0.0
  0
LINE
  5
143
330
1E
100
AcDbEntity
  8
0
  6
CONTINUOUS
 62
     7
100
AcDbLine
 10
176.0
 20
129.7358
 30
0.0
 11
173.5999999999999
 21
129.7358
 31
0.0
  0
LINE
  5
144
330
1E
100
AcDbEntity
  8
0
  6
CONTINUOUS
 62
     7
100
AcDbLine
 10
174.8
 20
129.41346
 30
0.0
 11
176.0
 21
129.735
 31
0.0
  0
LINE
  5
145
330
1E
100
AcDbEntity
  8
0
  6
CONTINUOUS
 62
     7
100
AcDbLine
 10
176.0
 20
129.735
 30
0.0
 11
174.8
 21
130.05653
 31
0.0
  0
LINE
  5
146
330
1E
100
AcDbEntity
  8
0
  6
CONTINUOUS
 62
     7
100
AcDbLine
 10
180.9
 20
129.7358
 30
0.0
 11
186.3
 21
129.7358
 31
0.0
  0
TEXT
  5
147
330
1E
100
AcDbEntity
  8
0
  6
CONTINUOUS
 62
     7
100
AcDbText
 10
181.0999999999999
 20
130.1358
 30
0.0
 40
3.2
  1
50
 41
0.8125
  7
BIGFONT
100
AcDbText
  0
LINE
  5
148
330
1E
100
AcDbEntity
  8
0
  6
CONTINUOUS
 62
     7
100
AcDbLine
 10
176.0
 20
67.4766
 30
0.0
 11
176.0
 21
74.06570000000002
 31
0.0
  0
LINE
  5
149
330
1E
100
AcDbEntity
  8
0
  6
CONTINUOUS
 62
     7
100
AcDbLine
 10
-87.62500000000001
 20
92.55450000000001
 30
0.0
 11
-87.62500000000001
 21
105.0545
 31
0.0
  0
LINE
  5
14A
330
1E
100
AcDbEntity
  8
0
  6
CONTINUOUS
 62
     7
100
AcDbLine
 10
-87.62500000000001
 20
112.5545
 30
0.0
 11
-50.125
 21
112.5545
 31
0.0
  0
LINE
  5
14B
330
1E
100
AcDbEntity
  8
0
  6
CONTINUOUS
 62
     7
100
AcDbLine
 10
-87.025
 20
75.0545
 30
0.0
 11
-50.725
 21
75.0545
 31
0.0
  0
LINE
  5
14C
330
1E
100
AcDbEntity
  8
0
  6
CONTINUOUS
 62
     7
100
AcDbLine
 10
-87.62500000000001
 20
75.6545
 30
0.0
 11
-87.025
 21
75.0545
 31
0.0
  0
LINE
  5
14D
330
1E
100
AcDbEntity
  8
0
  6
CONTINUOUS
 62
     7
100
AcDbLine
 10
-50.725
 20
75.0545
 30
0.0
 11
-50.125
 21
75.6545
 31
0.0
  0
LINE
  5
14E
330
1E
100
AcDbEntity
  8
0
  6
CONTINUOUS
 62
     7
100
AcDbLine
 10
-87.62500000000001
 20
105.0545
 30
0.0
 11
-87.62500000000001
 21
112.5493999999999
 31
0.0
  0
LINE
  5
14F
330
1E
100
AcDbEntity
  8
0
  6
CONTINUOUS
 62
     7
100
AcDbLine
 10
-87.475
 20
87.7045
 30
0.0
 11
-87.475
 21
92.4045
 31
0.0
  0
LINE
  5
150
330
1E
100
AcDbEntity
  8
0
  6
CONTINUOUS
 62
     7
100
AcDbLine
 10
-87.62500000000001
 20
92.55450000000001
 30
0.0
 11
-87.475
 21
92.4045
 31
0.0
  0
LINE
  5
151
330
1E
100
AcDbEntity
  8
0
  6
CONTINUOUS
 62
     7
100
AcDbLine
 10
-87.62500000000001
 20
87.55450000000001
 30
0.0
 11
-87.475
 21
87.7045
 31
0.0
  0
LINE
  5
152
330
1E
100
AcDbEntity
  8
0
  6
CONTINUOUS
 62
     7
100
AcDbLine
 10
-87.62500000000001
 20
75.6545
 30
0.0
 11
-87.62500000000001
 21
77.45515000000001
 31
0.0
  0
LINE
  5
153
330
1E
100
AcDbEntity
  8
0
  6
CONTINUOUS
 62
     7
100
AcDbLine
 10
-87.62500000000001
 20
77.45515000000001
 30
0.0
 11
-87.62500000000001
 21
79.3545
 31
0.0
  0
LINE
  5
154
330
1E
100
AcDbEntity
  8
0
  6
CONTINUOUS
 62
     7
100
AcDbLine
 10
-87.62500000000001
 20
79.3545
 30
0.0
 11
-87.62500000000001
 21
87.55450000000001
 31
0.0
  0
LINE
  5
155
330
1E
100
AcDbEntity
  8
0
  6
CONTINUOUS
 62
     7
100
AcDbLine
 10
-202.0656999999999
 20
92.55959999999999
 30
0.0
 11
-201.9156999999999
 21
92.40959999999999
 31
0.0
  0
LINE
  5
156
330
1E
100
AcDbEntity
  8
0
  6
CONTINUOUS
 62
     7
100
AcDbLine
 10
-202.0656999999999
 20
87.55959999999998
 30
0.0
 11
-201.9156999999999
 21
87.7096
 31
0.0
  0
LINE
  5
157
330
1E
100
AcDbEntity
  8
0
  6
CONTINUOUS
 62
     7
100
AcDbLine
 10
-164.5656999999999
 20
92.55959999999999
 30
0.0
 11
-164.5656999999999
 21
105.0596
 31
0.0
  0
LINE
  5
158
330
1E
100
AcDbEntity
  8
0
  6
CONTINUOUS
 62
     7
100
AcDbLine
 10
-202.0656999999999
 20
92.55959999999999
 30
0.0
 11
-202.0656999999999
 21
105.0596
 31
0.0
  0
LINE
  5
159
330
1E
100
AcDbEntity
  8
0
  6
CONTINUOUS
 62
     7
100
AcDbLine
 10
-201.9156999999999
 20
87.7096
 30
0.0
 11
-201.9156999999999
 21
92.40959999999999
 31
0.0
  0
LINE
  5
15A
330
1E
100
AcDbEntity
  8
0
  6
CONTINUOUS
 62
     7
100
AcDbLine
 10
-202.0656999999999
 20
112.5596
 30
0.0
 11
-164.5656999999999
 21
112.5596
 31
0.0
  0
LINE
  5
15B
330
1E
100
AcDbEntity
  8
0
  6
CONTINUOUS
 62
     7
100
AcDbLine
 10
-201.4657
 20
75.0596
 30
0.0
 11
-165.1656999999999
 21
75.0596
 31
0.0
  0
LINE
  5
15C
330
1E
100
AcDbEntity
  8
0
  6
CONTINUOUS
 62
     7
100
AcDbLine
 10
-165.1656999999999
 20
75.0596
 30
0.0
 11
-164.5656999999999
 21
75.6596
 31
0.0
  0
LINE
  5
15D
330
1E
100
AcDbEntity
  8
0
  6
CONTINUOUS
 62
     7
100
AcDbLine
 10
-202.0656999999999
 20
75.6596
 30
0.0
 11
-201.4657
 21
75.0596
 31
0.0
  0
LINE
  5
15E
330
1E
100
AcDbEntity
  8
0
  6
CONTINUOUS
 62
     7
100
AcDbLine
 10
-202.0656999999999
 20
75.6596
 30
0.0
 11
-202.0656999999999
 21
87.55959999999998
 31
0.0
  0
LINE
  5
15F
330
1E
100
AcDbEntity
  8
0
  6
DASHED
 62
     1
100
AcDbLine
 10
-199.0656999999999
 20
77.18375
 30
0.0
 11
-199.0656999999999
 21
88.01225
 31
0.0
  0
LINE
  5
160
330
1E
100
AcDbEntity
  8
0
  6
CONTINUOUS
 62
     7
100
AcDbLine
 10
-164.5656999999999
 20
105.0596
 30
0.0
 11
-164.5656999999999
 21
112.5545
 31
0.0
  0
LINE
  5
161
330
1E
100
AcDbEntity
  8
0
  6
CONTINUOUS
 62
     7
100
AcDbLine
 10
-164.5656999999999
 20
75.6596
 30
0.0
 11
-164.5656999999999
 21
97.46025000000001
 31
0.0
  0
LINE
  5
162
330
1E
100
AcDbEntity
  8
0
  6
CONTINUOUS
 62
     7
100
AcDbLine
 10
-164.5656999999999
 20
97.46025000000001
 30
0.0
 11
-164.5656999999999
 21
99.35960000000001
 31
0.0
  0
LINE
  5
163
330
1E
100
AcDbEntity
  8
0
  6
CONTINUOUS
 62
     1
100
AcDbLine
 10
-85.12500000000001
 20
77.20449999999998
 30
0.0
 11
-85.12500000000001
 21
110.0545
 31
0.0
  0
LINE
  5
164
330
1E
100
AcDbEntity
  8
0
  6
CONTINUOUS
 62
     7
100
AcDbLine
 10
-85.12500000000001
 20
77.20449999999998
 30
0.0
 11
-85.12500000000001
 21
77.45515000000001
 31
0.0
  0
LINE
  5
165
330
1E
100
AcDbEntity
  8
0
  6
CONTINUOUS
 62
     7
100
AcDbLine
 10
-199.5656999999999
 20
75.0596
 30
0.0
 11
-165.5157
 21
75.0596
 31
0.0
  0
LINE
  5
166
330
1E
100
AcDbEntity
  8
0
  6
CONTINUOUS
 62
     1
100
AcDbLine
 10
-199.5656999999999
 20
77.20959999999998
 30
0.0
 11
-199.5656999999999
 21
97.55960000000001
 31
0.0
  0
LINE
  5
167
330
1E
100
AcDbEntity
  8
0
  6
CONTINUOUS
 62
     7
100
AcDbLine
 10
-199.5656999999999
 20
75.0596
 30
0.0
 11
-165.5157
 21
75.0596
 31
0.0
  0
LINE
  5
168
330
1E
100
AcDbEntity
  8
0
  6
CONTINUOUS
 62
     7
100
AcDbLine
 10
-87.62500000000001
 20
112.5493999999999
 30
0.0
 11
-87.62500000000001
 21
112.5545
 31
0.0
  0
LINE
  5
169
330
1E
100
AcDbEntity
  8
0
  6
CONTINUOUS
 62
     7
100
AcDbLine
 10
-50.125
 20
105.0545
 30
0.0
 11
-50.125
 21
112.5545
 31
0.0
  0
LINE
  5
16A
330
1E
100
AcDbEntity
  8
0
  6
CONTINUOUS
 62
     7
100
AcDbLine
 10
-202.0656999999999
 20
105.0596
 30
0.0
 11
-202.0656999999999
 21
112.5596
 31
0.0
  0
LINE
  5
16B
330
1E
100
AcDbEntity
  8
0
  6
CONTINUOUS
 62
     7
100
AcDbLine
 10
-164.5656999999999
 20
112.5545
 30
0.0
 11
-164.5656999999999
 21
112.5596
 31
0.0
  0
LINE
  5
16C
330
1E
100
AcDbEntity
  8
0
  6
CONTINUOUS
 62
     7
100
AcDbLine
 10
-87.62500000000001
 20
50.0494
 30
0.0
 11
-50.1243
 21
50.0494
 31
0.0
  0
LINE
  5
16D
330
1E
100
AcDbEntity
  8
0
  6
CONTINUOUS
 62
     7
100
AcDbLine
 10
-50.1243
 20
74.0494
 30
0.0
 11
-50.1243
 21
49.2494
 31
0.0
  0
LINE
  5
16E
330
1E
100
AcDbEntity
  8
0
  6
CONTINUOUS
 62
     7
100
AcDbLine
 10
-87.62500000000001
 20
74.0494
 30
0.0
 11
-87.62500000000001
 21
49.2494
 31
0.0
  0
LINE
  5
16F
330
1E
100
AcDbEntity
  8
0
  6
CONTINUOUS
 62
     7
100
AcDbLine
 10
-51.324
 20
49.72746
 30
0.0
 11
-50.12399999999999
 21
50.049
 31
0.0
  0
LINE
  5
170
330
1E
100
AcDbEntity
  8
0
  6
CONTINUOUS
 62
     7
100
AcDbLine
 10
-50.12399999999999
 20
50.049
 30
0.0
 11
-51.324
 21
50.37053
 31
0.0
  0
LINE
  5
171
330
1E
100
AcDbEntity
  8
0
  6
CONTINUOUS
 62
     7
100
AcDbLine
 10
-86.425
 20
50.37053
 30
0.0
 11
-87.62500000000001
 21
50.049
 31
0.0
  0
LINE
  5
172
330
1E
100
AcDbEntity
  8
0
  6
CONTINUOUS
 62
     7
100
AcDbLine
 10
-87.62500000000001
 20
50.049
 30
0.0
 11
-86.425
 21
49.72746
 31
0.0
  0
TEXT
  5
173
330
1E
100
AcDbEntity
  8
0
  6
CONTINUOUS
 62
     7
100
AcDbText
 10
-72.77464999999998
 20
50.4494
 30
0.0
 40
3.2
  1
750
 41
0.8125
  7
BIGFONT
100
AcDbText
  0
LINE
  5
174
330
1E
100
AcDbEntity
  8
0
  6
CONTINUOUS
 62
     7
100
AcDbLine
 10
-202.0656999999999
 20
50.0494
 30
0.0
 11
-164.5637999999999
 21
50.0494
 31
0.0
  0
LINE
  5
175
330
1E
100
AcDbEntity
  8
0
  6
CONTINUOUS
 62
     7
100
AcDbLine
 10
-164.5637999999999
 20
74.0494
 30
0.0
 11
-164.5637999999999
 21
49.2494
 31
0.0
  0
LINE
  5
176
330
1E
100
AcDbEntity
  8
0
  6
CONTINUOUS
 62
     7
100
AcDbLine
 10
-202.0656999999999
 20
74.0494
 30
0.0
 11
-202.0656999999999
 21
49.2494
 31
0.0
  0
LINE
  5
177
330
1E
100
AcDbEntity
  8
0
  6
CONTINUOUS
 62
     7
100
AcDbLine
 10
-165.763
 20
49.72746
 30
0.0
 11
-164.5629999999998
 21
50.049
 31
0.0
  0
LINE
  5
178
330
1E
100
AcDbEntity
  8
0
  6
CONTINUOUS
 62
     7
100
AcDbLine
 10
-164.5629999999998
 20
50.049
 30
0.0
 11
-165.763
 21
50.37053
 31
0.0
  0
LINE
  5
179
330
1E
100
AcDbEntity
  8
0
  6
CONTINUOUS
 62
     7
100
AcDbLine
 10
-200.865
 20
50.37053
 30
0.0
 11
-202.0649999999998
 21
50.049
 31
0.0
  0
LINE
  5
17A
330
1E
100
AcDbEntity
  8
0
  6
CONTINUOUS
 62
     7
100
AcDbLine
 10
-202.0649999999998
 20
50.049
 30
0.0
 11
-200.865
 21
49.72746
 31
0.0
  0
TEXT
  5
17B
330
1E
100
AcDbEntity
  8
0
  6
CONTINUOUS
 62
     7
100
AcDbText
 10
-187.21475
 20
50.4494
 30
0.0
 40
3.2
  1
750
 41
0.8125
  7
BIGFONT
100
AcDbText
  0
LINE
  5
17C
330
1E
100
AcDbEntity
  8
0
  6
CONTINUOUS
 62
     7
100
AcDbLine
 10
65.53119999999998
 20
75.04940000000002
 30
0.0
 11
75.5
 21
75.04940000000002
 31
0.0
  0
LINE
  5
17D
330
1E
100
AcDbEntity
  8
0
  6
CONTINUOUS
 62
     7
100
AcDbLine
 10
65.53119999999998
 20
81.0494
 30
0.0
 11
75.5
 21
81.0494
 31
0.0
  0
LINE
  5
17E
330
1E
100
AcDbEntity
  8
0
  6
CONTINUOUS
 62
     7
100
AcDbLine
 10
44.0
 20
112.5493999999999
 30
0.0
 11
75.5
 21
112.5493999999999
 31
0.0
  0
LINE
  5
17F
330
1E
100
AcDbEntity
  8
0
  6
CONTINUOUS
 62
     7
100
AcDbLine
 10
38.0
 20
75.04940000000002
 30
0.0
 11
38.0
 21
112.0994
 31
0.0
  0
LINE
  5
180
330
1E
100
AcDbEntity
  8
0
  6
CONTINUOUS
 62
     7
100
AcDbLine
 10
38.45
 20
112.5493999999999
 30
0.0
 11
43.54999999999999
 21
112.5493999999999
 31
0.0
  0
LINE
  5
181
330
1E
100
AcDbEntity
  8
0
  6
CONTINUOUS
 62
     7
100
AcDbLine
 10
38.0
 20
112.0994
 30
0.0
 11
38.45
 21
112.5493999999999
 31
0.0
  0
LINE
  5
182
330
1E
100
AcDbEntity
  8
0
  6
CONTINUOUS
 62
     7
100
AcDbLine
 10
43.54999999999999
 20
112.5493999999999
 30
0.0
 11
44.0
 21
112.0994
 31
0.0
  0
LINE
  5
183
330
1E
100
AcDbEntity
  8
0
  6
CONTINUOUS
 62
     7
100
AcDbLine
 10
44.0
 20
83.5494
 30
0.0
 11
44.0
 21
112.0994
 31
0.0
  0
LINE
  5
184
330
1E
100
AcDbEntity
  8
0
  6
CONTINUOUS
 62
     7
100
AcDbLine
 10
44.0
 20
83.5494
 30
0.0
 11
46.5
 21
81.0494
 31
0.0
  0
LINE
  5
185
330
1E
100
AcDbEntity
  8
0
  6
CONTINUOUS
 62
     7
100
AcDbLine
 10
65.5
 20
75.04940000000002
 30
0.0
 11
65.5
 21
81.0494
 31
0.0
  0
LINE
  5
186
330
1E
100
AcDbEntity
  8
0
  6
CONTINUOUS
 62
     7
100
AcDbLine
 10
74.15359999999998
 20
81.0426
 30
0.0
 11
75.5
 21
81.0426
 31
0.0
  0
LINE
  5
187
330
1E
100
AcDbEntity
  8
0
  6
CONTINUOUS
 62
     7
100
AcDbLine
 10
74.15359999999998
 20
81.0426
 30
0.0
 11
74.15359999999998
 21
81.0466
 31
0.0
  0
LINE
  5
188
330
1E
100
AcDbEntity
  8
0
  6
CONTINUOUS
 62
     7
100
AcDbLine
 10
41.8892
 20
112.5493999999999
 30
0.0
 11
43.54999999999999
 21
112.5493999999999
 31
0.0
  0
ARC
  5
189
330
1E
100
AcDbEntity
  8
0
  6
CONTINUOUS
 62
     1
100
AcDbCircle
 10
41.65
 20
78.69939999999998
 30
0.0
 40
1.5
100
AcDbArc
 50
180.0
 51
270.0
  0
ARC
  5
18A
330
1E
100
AcDbEntity
  8
0
  6
CONTINUOUS
 62
     1
100
AcDbCircle
 10
41.65
 20
80.29940000000001
 30
0.0
 40
1.5
100
AcDbArc
 50
180.0
 51
270.0
  0
LINE
  5
18B
330
1E
100
AcDbEntity
  8
0
  6
CONTINUOUS
 62
     7
100
AcDbLine
 10
40.14999999999999
 20
78.69939999999998
 30
0.0
 11
40.14999999999999
 21
80.89485000000001
 31
0.0
  0
ARC
  5
18C
330
1E
100
AcDbEntity
  8
0
  6
CONTINUOUS
 62
     1
100
AcDbCircle
 10
43.0
 20
78.68850000000001
 30
0.0
 40
1.5
100
AcDbArc
 50
180.0
 51
270.0
  0
LINE
  5
18D
330
1E
100
AcDbEntity
  8
0
  6
CONTINUOUS
 62
     1
100
AcDbLine
 10
41.65
 20
77.1994
 30
0.0
 11
44.09835
 21
77.1994
 31
0.0
  0
LINE
  5
18E
330
1E
100
AcDbEntity
  8
0
  6
CONTINUOUS
 62
     1
100
AcDbLine
 10
40.14999999999999
 20
84.38695
 30
0.0
 11
47.33755
 21
77.1994
 31
0.0
  0
LINE
  5
18F
330
1E
100
AcDbEntity
  8
0
  6
CONTINUOUS
 62
     1
100
AcDbLine
 10
40.14999999999999
 20
80.29940000000001
 30
0.0
 11
40.14999999999999
 21
97.54940000000001
 31
0.0
  0
POINT
  5
190
330
1E
100
AcDbEntity
  8
0
  6
CONTINUOUS
 62
     7
100
AcDbPoint
 10
41.95
 20
110.0384999999999
 30
0.0
  0
POINT
  5
191
330
1E
100
AcDbEntity
  8
0
  6
CONTINUOUS
 62
     7
100
AcDbPoint
 10
40.61475
 20
94.3096
 30
0.0
  0
POINT
  5
192
330
1E
100
AcDbEntity
  8
0
  6
CONTINUOUS
 62
     1
100
AcDbPoint
 10
40.9147
 20
79.41374999999998
 30
0.0
  0
LINE
  5
193
330
1E
100
AcDbEntity
  8
0
  6
CONTINUOUS
 62
     7
100
AcDbLine
 10
2.932349999999998
 20
78.4374
 30
0.0
 11
16.75
 21
78.4374
 31
0.0
  0
LINE
  5
194
330
1E
100
AcDbEntity
  8
0
  6
CONTINUOUS
 62
     7
100
AcDbLine
 10
7.928849999999997
 20
77.6313
 30
0.0
 11
16.70279999999999
 21
77.6313
 31
0.0
  0
LINE
  5
195
330
1E
100
AcDbEntity
  8
0
  6
CONTINUOUS
 62
     7
100
AcDbLine
 10
79.24945
 20
78.4374
 30
0.0
 11
93.0671
 21
78.4374
 31
0.0
  0
LINE
  5
196
330
1E
100
AcDbEntity
  8
0
  6
CONTINUOUS
 62
     7
100
AcDbLine
 10
79.2929
 20
77.6463
 30
0.0
 11
88.06684999999998
 21
77.6463
 31
0.0
  0
TEXT
  5
197
330
1E
100
AcDbEntity
  8
0
  6
CONTINUOUS
 62
     7
100
AcDbText
 10
86.49500000000001
 20
68.0678
 30
0.0
 40
4.2
  1
Ｃ
 41
0.8333332999999999
  7
BIGFONT
100
AcDbText
  0
TEXT
  5
198
330
1E
100
AcDbEntity
  8
0
  6
CONTINUOUS
 62
     7
100
AcDbText
 10
91.6205
 20
68.05645
 30
0.0
 40
4.2
  1
Ｄ
 41
0.8333332999999999
  7
BIGFONT
100
AcDbText
  0
TEXT
  5
199
330
1E
100
AcDbEntity
  8
0
  6
CONTINUOUS
 62
     7
100
AcDbText
 10
1.5857
 20
68.19835000000001
 30
0.0
 40
4.2
  1
Ｄ
 41
0.8333332999999999
  7
BIGFONT
100
AcDbText
  0
TEXT
  5
19A
330
1E
100
AcDbEntity
  8
0
  6
CONTINUOUS
 62
     7
100
AcDbText
 10
6.269849999999999
 20
68.18725
 30
0.0
 40
4.2
  1
Ｃ
 41
0.8333332999999999
  7
BIGFONT
100
AcDbText
  0
TEXT
  5
19B
330
1E
100
AcDbEntity
  8
0
  6
CONTINUOUS
 62
     7
100
AcDbText
 10
31.1287
 20
35.55254999999997
 30
0.0
 40
4.2
  1
Ａ
 41
0.8333332999999999
  7
BIGFONT
100
AcDbText
  0
TEXT
  5
19C
330
1E
100
AcDbEntity
  8
0
  6
CONTINUOUS
 62
     7
100
AcDbText
 10
31.36635
 20
128.18625
 30
0.0
 40
4.2
  1
Ｂ
 41
0.8333332999999999
  7
BIGFONT
100
AcDbText
  0
TEXT
  5
19D
330
1E
100
AcDbEntity
  8
0
  6
CONTINUOUS
 62
     7
100
AcDbText
 10
31.15295
 20
122.9138
 30
0.0
 40
4.2
  1
Ａ
 41
0.8333332999999999
  7
BIGFONT
100
AcDbText
  0
LINE
  5
19E
330
1E
100
AcDbEntity
  8
0
  6
CONTINUOUS
 62
     7
100
AcDbLine
 10
41.716
 20
116.30985
 30
0.0
 11
41.716
 21
130.5902499999999
 31
0.0
  0
LINE
  5
19F
330
1E
100
AcDbEntity
  8
0
  6
CONTINUOUS
 62
     7
100
AcDbLine
 10
40.54124999999999
 20
116.30985
 30
0.0
 11
40.54124999999999
 21
125.0827
 31
0.0
  0
LINE
  5
1A0
330
1E
100
AcDbEntity
  8
0
  6
CONTINUOUS
 62
     7
100
AcDbLine
 10
41.716
 20
32.0713
 30
0.0
 11
41.716
 21
46.3517
 31
0.0
  0
LINE
  5
1A1
330
1E
100
AcDbEntity
  8
0
  6
CONTINUOUS
 62
     7
100
AcDbLine
 10
40.54124999999999
 20
37.57025
 30
0.0
 11
40.54124999999999
 21
46.3431
 31
0.0
  0
TEXT
  5
1A2
330
1E
100
AcDbEntity
  8
0
  6
CONTINUOUS
 62
     7
100
AcDbText
 10
31.3108
 20
29.73435
 30
0.0
 40
4.2
  1
Ｂ
 41
0.8333332999999999
  7
BIGFONT
100
AcDbText
  0
LINE
  5
1A3
330
1E
100
AcDbEntity
  8
0
  6
CONTINUOUS
 62
     7
100
AcDbLine
 10
93.0671
 20
78.4374
 30
0.0
 11
93.06535
 21
73.41124999999998
 31
0.0
  0
LINE
  5
1A4
330
1E
100
AcDbEntity
  8
0
  6
CONTINUOUS
 62
     7
100
AcDbLine
 10
92.74387
 20
74.61110999999998
 30
0.0
 11
93.06499999999999
 21
73.411
 31
0.0
  0
LINE
  5
1A5
330
1E
100
AcDbEntity
  8
0
  6
CONTINUOUS
 62
     7
100
AcDbLine
 10
93.06499999999999
 20
73.411
 30
0.0
 11
93.38694999999999
 21
74.61088000000002
 31
0.0
  0
LINE
  5
1A6
330
1E
100
AcDbEntity
  8
0
  6
CONTINUOUS
 62
     7
100
AcDbLine
 10
88.06684999999998
 20
77.6463
 30
0.0
 11
88.06684999999998
 21
73.41124999999998
 31
0.0
  0
LINE
  5
1A7
330
1E
100
AcDbEntity
  8
0
  6
CONTINUOUS
 62
     7
100
AcDbLine
 10
87.74446000000002
 20
74.611
 30
0.0
 11
88.06600000000001
 21
73.411
 31
0.0
  0
LINE
  5
1A8
330
1E
100
AcDbEntity
  8
0
  6
CONTINUOUS
 62
     7
100
AcDbLine
 10
88.06600000000001
 20
73.411
 30
0.0
 11
88.38753
 21
74.611
 31
0.0
  0
LINE
  5
1A9
330
1E
100
AcDbEntity
  8
0
  6
CONTINUOUS
 62
     7
100
AcDbLine
 10
7.928849999999997
 20
77.6313
 30
0.0
 11
7.928849999999997
 21
73.39624999999998
 31
0.0
  0
LINE
  5
1AA
330
1E
100
AcDbEntity
  8
0
  6
CONTINUOUS
 62
     7
100
AcDbLine
 10
7.60646
 20
74.596
 30
0.0
 11
7.927999999999999
 21
73.396
 31
0.0
  0
LINE
  5
1AB
330
1E
100
AcDbEntity
  8
0
  6
CONTINUOUS
 62
     7
100
AcDbLine
 10
7.927999999999999
 20
73.396
 30
0.0
 11
8.24953
 21
74.596
 31
0.0
  0
LINE
  5
1AC
330
1E
100
AcDbEntity
  8
0
  6
CONTINUOUS
 62
     7
100
AcDbLine
 10
2.932349999999998
 20
78.4374
 30
0.0
 11
2.929499999999998
 21
73.39624999999998
 31
0.0
  0
LINE
  5
1AD
330
1E
100
AcDbEntity
  8
0
  6
CONTINUOUS
 62
     7
100
AcDbLine
 10
2.60813
 20
74.59618
 30
0.0
 11
2.928999999999998
 21
73.396
 31
0.0
  0
LINE
  5
1AE
330
1E
100
AcDbEntity
  8
0
  6
CONTINUOUS
 62
     7
100
AcDbLine
 10
2.928999999999998
 20
73.396
 30
0.0
 11
3.251209999999998
 21
74.59581
 31
0.0
  0
LINE
  5
1AF
330
1E
100
AcDbEntity
  8
0
  6
CONTINUOUS
 62
     7
100
AcDbLine
 10
41.716
 20
130.5902499999999
 30
0.0
 11
35.63575
 21
130.60005
 31
0.0
  0
LINE
  5
1B0
330
1E
100
AcDbEntity
  8
0
  6
CONTINUOUS
 62
     7
100
AcDbLine
 10
36.83551
 20
130.9196
 30
0.0
 11
35.63499999999999
 21
130.6
 31
0.0
  0
LINE
  5
1B1
330
1E
100
AcDbEntity
  8
0
  6
CONTINUOUS
 62
     7
100
AcDbLine
 10
35.63499999999999
 20
130.6
 30
0.0
 11
36.83448
 21
130.27652
 31
0.0
  0
LINE
  5
1B2
330
1E
100
AcDbEntity
  8
0
  6
CONTINUOUS
 62
     7
100
AcDbLine
 10
40.54124999999999
 20
125.0827
 30
0.0
 11
35.63575
 21
125.0974999999999
 31
0.0
  0
LINE
  5
1B3
330
1E
100
AcDbEntity
  8
0
  6
CONTINUOUS
 62
     7
100
AcDbLine
 10
36.83596
 20
125.41491
 30
0.0
 11
35.63499999999999
 21
125.0969999999999
 31
0.0
  0
LINE
  5
1B4
330
1E
100
AcDbEntity
  8
0
  6
CONTINUOUS
 62
     7
100
AcDbLine
 10
35.63499999999999
 20
125.0969999999999
 30
0.0
 11
36.83402
 21
124.7718399999999
 31
0.0
  0
LINE
  5
1B5
330
1E
100
AcDbEntity
  8
0
  6
CONTINUOUS
 62
     7
100
AcDbLine
 10
40.54124999999999
 20
37.57025
 30
0.0
 11
35.63575
 21
37.57025
 31
0.0
  0
LINE
  5
1B6
330
1E
100
AcDbEntity
  8
0
  6
CONTINUOUS
 62
     7
100
AcDbLine
 10
36.835
 20
37.89152999999997
 30
0.0
 11
35.63499999999999
 21
37.57
 31
0.0
  0
LINE
  5
1B7
330
1E
100
AcDbEntity
  8
0
  6
CONTINUOUS
 62
     7
100
AcDbLine
 10
35.63499999999999
 20
37.57
 30
0.0
 11
36.835
 21
37.24845999999995
 31
0.0
  0
LINE
  5
1B8
330
1E
100
AcDbEntity
  8
0
  6
CONTINUOUS
 62
     7
100
AcDbLine
 10
41.716
 20
32.0713
 30
0.0
 11
35.63575
 21
32.0713
 31
0.0
  0
LINE
  5
1B9
330
1E
100
AcDbEntity
  8
0
  6
CONTINUOUS
 62
     7
100
AcDbLine
 10
36.835
 20
32.39253
 30
0.0
 11
35.63499999999999
 21
32.071
 31
0.0
  0
LINE
  5
1BA
330
1E
100
AcDbEntity
  8
0
  6
CONTINUOUS
 62
     7
100
AcDbLine
 10
35.63499999999999
 20
32.071
 30
0.0
 11
36.835
 21
31.74946
 31
0.0
  0
LINE
  5
1BB
330
1E
100
AcDbEntity
  8
0
  6
CONTINUOUS
 62
     1
100
AcDbLine
 10
41.5
 20
78.68850000000001
 30
0.0
 11
41.5
 21
110.4885
 31
0.0
  0
LINE
  5
1BC
330
1E
100
AcDbEntity
  8
0
  6
CONTINUOUS
 62
     7
100
AcDbLine
 10
38.0
 20
50.0494
 30
0.0
 11
65.5
 21
50.0494
 31
0.0
  0
LINE
  5
1BD
330
1E
100
AcDbEntity
  8
0
  6
CONTINUOUS
 62
     7
100
AcDbLine
 10
65.5
 20
74.0494
 30
0.0
 11
65.5
 21
49.2494
 31
0.0
  0
LINE
  5
1BE
330
1E
100
AcDbEntity
  8
0
  6
CONTINUOUS
 62
     7
100
AcDbLine
 10
38.0
 20
74.0494
 30
0.0
 11
38.0
 21
49.2494
 31
0.0
  0
LINE
  5
1BF
330
1E
100
AcDbEntity
  8
0
  6
CONTINUOUS
 62
     7
100
AcDbLine
 10
64.29999999999999
 20
49.72746
 30
0.0
 11
65.5
 21
50.049
 31
0.0
  0
LINE
  5
1C0
330
1E
100
AcDbEntity
  8
0
  6
CONTINUOUS
 62
     7
100
AcDbLine
 10
65.5
 20
50.049
 30
0.0
 11
64.29999999999999
 21
50.37053
 31
0.0
  0
LINE
  5
1C1
330
1E
100
AcDbEntity
  8
0
  6
CONTINUOUS
 62
     7
100
AcDbLine
 10
39.2
 20
50.37053
 30
0.0
 11
38.0
 21
50.049
 31
0.0
  0
LINE
  5
1C2
330
1E
100
AcDbEntity
  8
0
  6
CONTINUOUS
 62
     7
100
AcDbLine
 10
38.0
 20
50.049
 30
0.0
 11
39.2
 21
49.72746
 31
0.0
  0
TEXT
  5
1C3
330
1E
100
AcDbEntity
  8
0
  6
CONTINUOUS
 62
     7
100
AcDbText
 10
47.85
 20
50.4494
 30
0.0
 40
3.2
  1
550
 41
0.8125
  7
BIGFONT
100
AcDbText
  0
LINE
  5
1C4
330
1E
100
AcDbEntity
  8
0
  6
CONTINUOUS
 62
     7
100
AcDbLine
 10
20.5
 20
75.04940000000002
 30
0.0
 11
20.5
 21
77.2055
 31
0.0
  0
LINE
  5
1C5
330
1E
100
AcDbEntity
  8
0
  6
CONTINUOUS
 62
     7
100
AcDbLine
 10
37.0
 20
77.2055
 30
0.0
 11
19.69999999999998
 21
77.2055
 31
0.0
  0
LINE
  5
1C6
330
1E
100
AcDbEntity
  8
0
  6
CONTINUOUS
 62
     7
100
AcDbLine
 10
37.0
 20
75.04940000000002
 30
0.0
 11
19.69999999999998
 21
75.04940000000002
 31
0.0
  0
LINE
  5
1C7
330
1E
100
AcDbEntity
  8
0
  6
CONTINUOUS
 62
     7
100
AcDbLine
 10
20.5
 20
79.60550000000002
 30
0.0
 11
20.5
 21
77.2055
 31
0.0
  0
LINE
  5
1C8
330
1E
100
AcDbEntity
  8
0
  6
CONTINUOUS
 62
     7
100
AcDbLine
 10
20.17846
 20
78.405
 30
0.0
 11
20.5
 21
77.205
 31
0.0
  0
LINE
  5
1C9
330
1E
100
AcDbEntity
  8
0
  6
CONTINUOUS
 62
     7
100
AcDbLine
 10
20.5
 20
77.205
 30
0.0
 11
20.82152999999999
 21
78.405
 31
0.0
  0
LINE
  5
1CA
330
1E
100
AcDbEntity
  8
0
  6
CONTINUOUS
 62
     7
100
AcDbLine
 10
20.5
 20
75.04940000000002
 30
0.0
 11
20.5
 21
72.6494
 31
0.0
  0
LINE
  5
1CB
330
1E
100
AcDbEntity
  8
0
  6
CONTINUOUS
 62
     7
100
AcDbLine
 10
20.82152999999999
 20
73.84899999999998
 30
0.0
 11
20.5
 21
75.04900000000002
 31
0.0
  0
LINE
  5
1CC
330
1E
100
AcDbEntity
  8
0
  6
CONTINUOUS
 62
     7
100
AcDbLine
 10
20.5
 20
75.04900000000002
 30
0.0
 11
20.17846
 21
73.84899999999998
 31
0.0
  0
LINE
  5
1CD
330
1E
100
AcDbEntity
  8
0
  6
CONTINUOUS
 62
     7
100
AcDbLine
 10
20.5
 20
72.6494
 30
0.0
 11
20.5
 21
67.2494
 31
0.0
  0
TEXT
  5
1CE
330
1E
100
AcDbEntity
  8
0
  6
CONTINUOUS
 62
     7
100
AcDbText
 10
20.1
 20
67.2494
 30
0.0
 40
3.2
  1
45
 50
90.0
 41
0.8125
  7
BIGFONT
100
AcDbText
  0
LINE
  5
1CF
330
1E
100
AcDbEntity
  8
0
  6
CONTINUOUS
 62
     7
100
AcDbLine
 10
20.5
 20
77.2055
 30
0.0
 11
20.5
 21
110.0198
 31
0.0
  0
LINE
  5
1D0
330
1E
100
AcDbEntity
  8
0
  6
CONTINUOUS
 62
     7
100
AcDbLine
 10
37.0
 20
110.0198
 30
0.0
 11
19.69999999999998
 21
110.0198
 31
0.0
  0
LINE
  5
1D1
330
1E
100
AcDbEntity
  8
0
  6
CONTINUOUS
 62
     7
100
AcDbLine
 10
20.82152999999999
 20
108.8189999999999
 30
0.0
 11
20.5
 21
110.019
 31
0.0
  0
LINE
  5
1D2
330
1E
100
AcDbEntity
  8
0
  6
CONTINUOUS
 62
     7
100
AcDbLine
 10
20.5
 20
110.019
 30
0.0
 11
20.17846
 21
108.8189999999999
 31
0.0
  0
LINE
  5
1D3
330
1E
100
AcDbEntity
  8
0
  6
CONTINUOUS
 62
     7
100
AcDbLine
 10
20.17846
 20
78.405
 30
0.0
 11
20.5
 21
77.205
 31
0.0
  0
LINE
  5
1D4
330
1E
100
AcDbEntity
  8
0
  6
CONTINUOUS
 62
     7
100
AcDbLine
 10
20.5
 20
77.205
 30
0.0
 11
20.82152999999999
 21
78.405
 31
0.0
  0
TEXT
  5
1D5
330
1E
100
AcDbEntity
  8
0
  6
CONTINUOUS
 62
     7
100
AcDbText
 10
20.1
 20
89.71265
 30
0.0
 40
3.2
  1
655
 50
90.0
 41
0.8125
  7
BIGFONT
100
AcDbText
  0
LINE
  5
1D6
330
1E
100
AcDbEntity
  8
0
  6
CONTINUOUS
 62
     7
100
AcDbLine
 10
20.5
 20
110.0198
 30
0.0
 11
20.5
 21
112.5493999999999
 31
0.0
  0
LINE
  5
1D7
330
1E
100
AcDbEntity
  8
0
  6
CONTINUOUS
 62
     7
100
AcDbLine
 10
37.0
 20
112.5493999999999
 30
0.0
 11
19.69999999999998
 21
112.5493999999999
 31
0.0
  0
LINE
  5
1D8
330
1E
100
AcDbEntity
  8
0
  6
CONTINUOUS
 62
     7
100
AcDbLine
 10
20.5
 20
114.9494
 30
0.0
 11
20.5
 21
112.5493999999999
 31
0.0
  0
LINE
  5
1D9
330
1E
100
AcDbEntity
  8
0
  6
CONTINUOUS
 62
     7
100
AcDbLine
 10
20.17846
 20
113.7489999999999
 30
0.0
 11
20.5
 21
112.5489999999996
 31
0.0
  0
LINE
  5
1DA
330
1E
100
AcDbEntity
  8
0
  6
CONTINUOUS
 62
     7
100
AcDbLine
 10
20.5
 20
112.5489999999996
 30
0.0
 11
20.82152999999999
 21
113.7489999999999
 31
0.0
  0
LINE
  5
1DB
330
1E
100
AcDbEntity
  8
0
  6
CONTINUOUS
 62
     7
100
AcDbLine
 10
20.5
 20
110.0198
 30
0.0
 11
20.5
 21
107.6197999999999
 31
0.0
  0
LINE
  5
1DC
330
1E
100
AcDbEntity
  8
0
  6
CONTINUOUS
 62
     7
100
AcDbLine
 10
20.82152999999999
 20
108.8189999999999
 30
0.0
 11
20.5
 21
110.019
 31
0.0
  0
LINE
  5
1DD
330
1E
100
AcDbEntity
  8
0
  6
CONTINUOUS
 62
     7
100
AcDbLine
 10
20.5
 20
110.019
 30
0.0
 11
20.17846
 21
108.8189999999999
 31
0.0
  0
LINE
  5
1DE
330
1E
100
AcDbEntity
  8
0
  6
CONTINUOUS
 62
     7
100
AcDbLine
 10
20.5
 20
114.9494
 30
0.0
 11
20.5
 21
120.3494
 31
0.0
  0
TEXT
  5
1DF
330
1E
100
AcDbEntity
  8
0
  6
CONTINUOUS
 62
     7
100
AcDbText
 10
20.1
 20
115.1494
 30
0.0
 40
3.2
  1
50
 50
90.0
 41
0.8125
  7
BIGFONT
100
AcDbText
  0
LINE
  5
1E0
330
1E
100
AcDbEntity
  8
0
  6
CONTINUOUS
 62
     1
100
AcDbLine
 10
43.25
 20
77.1994
 30
0.0
 11
55.5
 21
77.1994
 31
0.0
  0
LINE
  5
1E1
330
1E
100
AcDbEntity
  8
0
  6
CONTINUOUS
 62
     7
100
AcDbLine
 10
41.47695
 20
112.5493999999999
 30
0.0
 11
43.54999999999999
 21
112.5493999999999
 31
0.0
  0
LINE
  5
1E2
330
1E
100
AcDbEntity
  8
0
  6
CONTINUOUS
 62
     7
100
AcDbLine
 10
38.0
 20
75.04940000000002
 30
0.0
 11
75.5
 21
75.04940000000002
 31
0.0
  0
LINE
  5
1E3
330
1E
100
AcDbEntity
  8
0
  6
CONTINUOUS
 62
     7
100
AcDbLine
 10
46.4549
 20
81.0466
 30
0.0
 11
75.5
 21
81.0466
 31
0.0
  0
LINE
  5
1E4
330
1E
100
AcDbEntity
  8
0
  6
CONTINUOUS
 62
     1
100
AcDbLine
 10
-85.1087
 20
78.3045
 30
0.0
 11
-53.8587
 21
78.3045
 31
0.0
  0
LINE
  5
1E5
330
1E
100
AcDbEntity
  8
0
  6
CONTINUOUS
 62
     1
100
AcDbLine
 10
-85.12500000000001
 20
110.0545
 30
0.0
 11
-53.875
 21
110.0545
 31
0.0
  0
LINE
  5
1E6
330
1E
100
AcDbEntity
  8
0
  6
CONTINUOUS
 62
     1
100
AcDbLine
 10
-199.5656999999999
 20
79.3096
 30
0.0
 11
-168.0657
 21
79.3096
 31
0.0
  0
LINE
  5
1E7
330
1E
100
AcDbEntity
  8
0
  6
CONTINUOUS
 62
     1
100
AcDbLine
 10
-199.5656999999999
 20
94.3096
 30
0.0
 11
-168.0657
 21
94.3096
 31
0.0
  0
LINE
  5
1E8
330
1E
100
AcDbEntity
  8
0
  6
CONTINUOUS
 62
     1
100
AcDbLine
 10
-199.5656999999999
 20
79.3096
 30
0.0
 11
-167.5656999999999
 21
79.3096
 31
0.0
  0
LINE
  5
1E9
330
1E
100
AcDbEntity
  8
0
  6
CONTINUOUS
 62
     1
100
AcDbLine
 10
-199.5656999999999
 20
94.3096
 30
0.0
 11
-167.5656999999999
 21
94.3096
 31
0.0
  0
LINE
  5
1EA
330
1E
100
AcDbEntity
  8
0
  6
CONTINUOUS
 62
     1
100
AcDbLine
 10
-199.5656999999999
 20
94.3096
 30
0.0
 11
-167.3156999999999
 21
94.3096
 31
0.0
  0
LINE
  5
1EB
330
1E
100
AcDbEntity
  8
0
  6
CONTINUOUS
 62
     1
100
AcDbLine
 10
-199.5656999999999
 20
79.3096
 30
0.0
 11
-167.3156999999999
 21
79.3096
 31
0.0
  0
LINE
  5
1EC
330
1E
100
AcDbEntity
  8
0
  6
CONTINUOUS
 62
     7
100
AcDbLine
 10
170.0
 20
58.5805
 30
0.0
 11
175.9895
 21
58.5805
 31
0.0
  0
LINE
  5
1ED
330
1E
100
AcDbEntity
  8
0
  6
CONTINUOUS
 62
     7
100
AcDbLine
 10
175.9895
 20
64.0494
 30
0.0
 11
175.9895
 21
57.7805
 31
0.0
  0
LINE
  5
1EE
330
1E
100
AcDbEntity
  8
0
  6
CONTINUOUS
 62
     7
100
AcDbLine
 10
170.0
 20
61.95615
 30
0.0
 11
170.0
 21
57.7805
 31
0.0
  0
LINE
  5
1EF
330
1E
100
AcDbEntity
  8
0
  6
CONTINUOUS
 62
     7
100
AcDbLine
 10
174.7889999999999
 20
58.25846
 30
0.0
 11
175.989
 21
58.58
 31
0.0
  0
LINE
  5
1F0
330
1E
100
AcDbEntity
  8
0
  6
CONTINUOUS
 62
     7
100
AcDbLine
 10
175.989
 20
58.58
 30
0.0
 11
174.7889999999999
 21
58.90153000000001
 31
0.0
  0
LINE
  5
1F1
330
1E
100
AcDbEntity
  8
0
  6
CONTINUOUS
 62
     7
100
AcDbLine
 10
171.1999999999999
 20
58.90153000000001
 30
0.0
 11
170.0
 21
58.58
 31
0.0
  0
LINE
  5
1F2
330
1E
100
AcDbEntity
  8
0
  6
CONTINUOUS
 62
     7
100
AcDbLine
 10
170.0
 20
58.58
 30
0.0
 11
171.1999999999999
 21
58.25846
 31
0.0
  0
TEXT
  5
1F3
330
1E
100
AcDbEntity
  8
0
  6
CONTINUOUS
 62
     7
100
AcDbText
 10
170.3802572893958
 20
58.9805
 30
0.0
 40
3.2
  1
120
 41
0.8125
  7
BIGFONT
100
AcDbText
  0
LINE
  5
1F4
330
1E
100
AcDbEntity
  8
0
  6
CONTINUOUS
 62
     7
100
AcDbLine
 10
175.9895
 20
58.5805
 30
0.0
 11
197.5
 21
58.5805
 31
0.0
  0
LINE
  5
1F5
330
1E
100
AcDbEntity
  8
0
  6
CONTINUOUS
 62
     7
100
AcDbLine
 10
197.5
 20
58.65265
 30
0.0
 11
197.5
 21
57.7805
 31
0.0
  0
LINE
  5
1F6
330
1E
100
AcDbEntity
  8
0
  6
CONTINUOUS
 62
     7
100
AcDbLine
 10
196.3
 20
58.25846
 30
0.0
 11
197.5
 21
58.58
 31
0.0
  0
LINE
  5
1F7
330
1E
100
AcDbEntity
  8
0
  6
CONTINUOUS
 62
     7
100
AcDbLine
 10
197.5
 20
58.58
 30
0.0
 11
196.3
 21
58.90153000000001
 31
0.0
  0
LINE
  5
1F8
330
1E
100
AcDbEntity
  8
0
  6
CONTINUOUS
 62
     7
100
AcDbLine
 10
177.1889999999999
 20
58.90153000000001
 30
0.0
 11
175.989
 21
58.58
 31
0.0
  0
LINE
  5
1F9
330
1E
100
AcDbEntity
  8
0
  6
CONTINUOUS
 62
     7
100
AcDbLine
 10
175.989
 20
58.58
 30
0.0
 11
177.1889999999999
 21
58.25846
 31
0.0
  0
TEXT
  5
1FA
330
1E
100
AcDbEntity
  8
0
  6
CONTINUOUS
 62
     7
100
AcDbText
 10
182.84475
 20
58.9805
 30
0.0
 40
3.2
  1
430
 41
0.8125
  7
BIGFONT
100
AcDbText
  0
LINE
  5
1FB
330
1E
100
AcDbEntity
  8
0
  6
CONTINUOUS
 62
     7
100
AcDbLine
 10
170.0
 20
66.0494
 30
0.0
 11
190.0
 21
66.0494
 31
0.0
  0
LINE
  5
1FC
330
1E
100
AcDbEntity
  8
0
  6
CONTINUOUS
 62
     7
100
AcDbLine
 10
190.0
 20
74.0494
 30
0.0
 11
190.0
 21
65.24939999999999
 31
0.0
  0
LINE
  5
1FD
330
1E
100
AcDbEntity
  8
0
  6
CONTINUOUS
 62
     7
100
AcDbLine
 10
170.0
 20
68.1813
 30
0.0
 11
170.0
 21
65.24939999999999
 31
0.0
  0
LINE
  5
1FE
330
1E
100
AcDbEntity
  8
0
  6
CONTINUOUS
 62
     7
100
AcDbLine
 10
188.8
 20
65.72745999999999
 30
0.0
 11
190.0
 21
66.04899999999999
 31
0.0
  0
LINE
  5
1FF
330
1E
100
AcDbEntity
  8
0
  6
CONTINUOUS
 62
     7
100
AcDbLine
 10
190.0
 20
66.04899999999999
 30
0.0
 11
188.8
 21
66.37053
 31
0.0
  0
LINE
  5
200
330
1E
100
AcDbEntity
  8
0
  6
CONTINUOUS
 62
     7
100
AcDbLine
 10
171.1999999999999
 20
66.37053
 30
0.0
 11
170.0
 21
66.04899999999999
 31
0.0
  0
LINE
  5
201
330
1E
100
AcDbEntity
  8
0
  6
CONTINUOUS
 62
     7
100
AcDbLine
 10
170.0
 20
66.04899999999999
 30
0.0
 11
171.1999999999999
 21
65.72745999999999
 31
0.0
  0
TEXT
  5
202
330
1E
100
AcDbEntity
  8
0
  6
CONTINUOUS
 62
     7
100
AcDbText
 10
176.0999999999999
 20
66.4494
 30
0.0
 40
3.2
  1
400
 41
0.8125
  7
BIGFONT
100
AcDbText
  0
LINE
  5
203
330
1E
100
AcDbEntity
  8
0
  6
CONTINUOUS
 62
     7
100
AcDbLine
 10
190.0
 20
66.0494
 30
0.0
 11
197.5
 21
66.0494
 31
0.0
  0
LINE
  5
204
330
1E
100
AcDbEntity
  8
0
  6
CONTINUOUS
 62
     7
100
AcDbLine
 10
197.5
 20
66.0494
 30
0.0
 11
197.5
 21
65.24939999999999
 31
0.0
  0
LINE
  5
205
330
1E
100
AcDbEntity
  8
0
  6
CONTINUOUS
 62
     7
100
AcDbLine
 10
196.3
 20
65.72745999999999
 30
0.0
 11
197.5
 21
66.04899999999999
 31
0.0
  0
LINE
  5
206
330
1E
100
AcDbEntity
  8
0
  6
CONTINUOUS
 62
     7
100
AcDbLine
 10
197.5
 20
66.04899999999999
 30
0.0
 11
196.3
 21
66.37053
 31
0.0
  0
LINE
  5
207
330
1E
100
AcDbEntity
  8
0
  6
CONTINUOUS
 62
     7
100
AcDbLine
 10
191.1999999999999
 20
66.37053
 30
0.0
 11
190.0
 21
66.04899999999999
 31
0.0
  0
LINE
  5
208
330
1E
100
AcDbEntity
  8
0
  6
CONTINUOUS
 62
     7
100
AcDbLine
 10
190.0
 20
66.04899999999999
 30
0.0
 11
191.1999999999999
 21
65.72745999999999
 31
0.0
  0
TEXT
  5
209
330
1E
100
AcDbEntity
  8
0
  6
CONTINUOUS
 62
     7
100
AcDbText
 10
191.264056293563
 20
66.4494
 30
0.0
 40
3.2
  1
150
 41
0.8125
  7
BIGFONT
100
AcDbText
  0
LINE
  5
20A
330
1E
100
AcDbEntity
  8
0
  6
CONTINUOUS
 62
     7
100
AcDbLine
 10
38.0
 20
58.5805
 30
0.0
 11
40.1412
 21
58.5805
 31
0.0
  0
LINE
  5
20B
330
1E
100
AcDbEntity
  8
0
  6
CONTINUOUS
 62
     7
100
AcDbLine
 10
40.1412
 20
74.0494
 30
0.0
 11
40.1412
 21
57.7805
 31
0.0
  0
LINE
  5
20C
330
1E
100
AcDbEntity
  8
0
  6
CONTINUOUS
 62
     7
100
AcDbLine
 10
38.0
 20
60.05044999999999
 30
0.0
 11
38.0
 21
57.7805
 31
0.0
  0
LINE
  5
20D
330
1E
100
AcDbEntity
  8
0
  6
CONTINUOUS
 62
     7
100
AcDbLine
 10
42.5412
 20
58.5805
 30
0.0
 11
40.1412
 21
58.5805
 31
0.0
  0
LINE
  5
20E
330
1E
100
AcDbEntity
  8
0
  6
CONTINUOUS
 62
     7
100
AcDbLine
 10
41.341
 20
58.90153000000001
 30
0.0
 11
40.141
 21
58.58
 31
0.0
  0
LINE
  5
20F
330
1E
100
AcDbEntity
  8
0
  6
CONTINUOUS
 62
     7
100
AcDbLine
 10
40.141
 20
58.58
 30
0.0
 11
41.341
 21
58.25846
 31
0.0
  0
LINE
  5
210
330
1E
100
AcDbEntity
  8
0
  6
CONTINUOUS
 62
     7
100
AcDbLine
 10
38.0
 20
58.5805
 30
0.0
 11
35.6
 21
58.5805
 31
0.0
  0
LINE
  5
211
330
1E
100
AcDbEntity
  8
0
  6
CONTINUOUS
 62
     7
100
AcDbLine
 10
36.79999999999999
 20
58.25846
 30
0.0
 11
38.0
 21
58.58
 31
0.0
  0
LINE
  5
212
330
1E
100
AcDbEntity
  8
0
  6
CONTINUOUS
 62
     7
100
AcDbLine
 10
38.0
 20
58.58
 30
0.0
 11
36.79999999999999
 21
58.90153000000001
 31
0.0
  0
LINE
  5
213
330
1E
100
AcDbEntity
  8
0
  6
CONTINUOUS
 62
     7
100
AcDbLine
 10
35.6
 20
58.5805
 30
0.0
 11
30.2
 21
58.5805
 31
0.0
  0
TEXT
  5
214
330
1E
100
AcDbEntity
  8
0
  6
CONTINUOUS
 62
     7
100
AcDbText
 10
30.2
 20
58.9805
 30
0.0
 40
3.2
  1
45
 41
0.8125
  7
BIGFONT
100
AcDbText
  0
LINE
  5
215
330
1E
100
AcDbEntity
  8
0
  6
CONTINUOUS
 62
     7
100
AcDbLine
 10
40.1412
 20
58.5805
 30
0.0
 11
65.5
 21
58.5805
 31
0.0
  0
LINE
  5
216
330
1E
100
AcDbEntity
  8
0
  6
CONTINUOUS
 62
     7
100
AcDbLine
 10
65.5
 20
59.31239999999998
 30
0.0
 11
65.5
 21
57.7805
 31
0.0
  0
LINE
  5
217
330
1E
100
AcDbEntity
  8
0
  6
CONTINUOUS
 62
     7
100
AcDbLine
 10
64.29999999999999
 20
58.25846
 30
0.0
 11
65.5
 21
58.58
 31
0.0
  0
LINE
  5
218
330
1E
100
AcDbEntity
  8
0
  6
CONTINUOUS
 62
     7
100
AcDbLine
 10
65.5
 20
58.58
 30
0.0
 11
64.29999999999999
 21
58.90153000000001
 31
0.0
  0
LINE
  5
219
330
1E
100
AcDbEntity
  8
0
  6
CONTINUOUS
 62
     7
100
AcDbLine
 10
41.341
 20
58.90153000000001
 30
0.0
 11
40.141
 21
58.58
 31
0.0
  0
LINE
  5
21A
330
1E
100
AcDbEntity
  8
0
  6
CONTINUOUS
 62
     7
100
AcDbLine
 10
40.141
 20
58.58
 30
0.0
 11
41.341
 21
58.25846
 31
0.0
  0
TEXT
  5
21B
330
1E
100
AcDbEntity
  8
0
  6
CONTINUOUS
 62
     7
100
AcDbText
 10
48.9206
 20
58.9805
 30
0.0
 40
3.2
  1
505
 41
0.8125
  7
BIGFONT
100
AcDbText
  0
LINE
  5
21C
330
1E
100
AcDbEntity
  8
0
  6
CONTINUOUS
 62
     1
100
AcDbLine
 10
-200.2657
 20
-24.39705
 30
0.0
 11
-167.0657
 21
-24.39705
 31
0.0
  0
LINE
  5
21D
330
1E
100
AcDbEntity
  8
0
  6
CONTINUOUS
 62
     7
100
AcDbLine
 10
-200.2657
 20
-20.64705
 30
0.0
 11
-164.5656999999999
 21
-20.64705
 31
0.0
  0
LINE
  5
21E
330
1E
100
AcDbEntity
  8
0
  6
CONTINUOUS
 62
     7
100
AcDbLine
 10
-200.2657
 20
-20.64705
 30
0.0
 11
-167.0657
 21
-20.64705
 31
0.0
  0
LINE
  5
21F
330
1E
100
AcDbEntity
  8
0
  6
CONTINUOUS
 62
     1
100
AcDbLine
 10
-200.2657
 20
-24.39705
 30
0.0
 11
-167.0657
 21
-24.39705
 31
0.0
  0
LINE
  5
220
330
1E
100
AcDbEntity
  8
0
  6
CONTINUOUS
 62
     1
100
AcDbLine
 10
-198.3157
 20
-55.64705
 30
0.0
 11
-198.3157
 21
-22.44705
 31
0.0
  0
LINE
  5
221
330
1E
100
AcDbEntity
  8
0
  6
DASHED
 62
     1
100
AcDbLine
 10
-200.2657
 20
-55.14705
 30
0.0
 11
-189.43455
 21
-55.14705
 31
0.0
  0
LINE
  5
222
330
1E
100
AcDbEntity
  8
0
  6
DASHED
 62
     1
100
AcDbLine
 10
-167.5656999999999
 20
-33.2782
 30
0.0
 11
-167.5656999999999
 21
-22.44705
 31
0.0
  0
TEXT
  5
223
330
1E
100
AcDbEntity
  8
0
  6
CONTINUOUS
 62
     7
100
AcDbText
 10
-186.3779
 20
-10.30594999999999
 30
0.0
 40
3.2
  1
2×250
  7
BIGFONT
100
AcDbText
  0
TEXT
  5
224
330
1E
100
AcDbEntity
  8
0
  6
CONTINUOUS
 62
     7
100
AcDbText
 10
-186.3745999999999
 20
-14.2779
 30
0.0
 40
3.2
  1
=500
  7
BIGFONT
100
AcDbText
  0
ARC
  5
225
330
1E
100
AcDbEntity
  8
0
  6
CONTINUOUS
 62
     1
100
AcDbCircle
 10
-83.375
 20
-24.94705
 30
0.0
 40
1.5
100
AcDbArc
 50
90.0
 51
180.0
  0
LINE
  5
226
330
1E
100
AcDbEntity
  8
0
  6
CONTINUOUS
 62
     1
100
AcDbLine
 10
-83.375
 20
-23.44705
 30
0.0
 11
-52.625
 21
-23.44705
 31
0.0
  0
LINE
  5
227
330
1E
100
AcDbEntity
  8
0
  6
CONTINUOUS
 62
     1
100
AcDbLine
 10
-84.875
 20
-55.64705
 30
0.0
 11
-84.875
 21
-24.94705
 31
0.0
  0
CIRCLE
  5
228
330
1E
100
AcDbEntity
  8
0
  6
CONTINUOUS
 62
     7
100
AcDbCircle
 10
174.2499999999999
 20
96.04915
 30
0.0
 40
0.75
  0
LINE
  5
229
330
1E
100
AcDbEntity
  8
0
  6
CONTINUOUS
 62
     7
100
AcDbLine
 10
174.2499999999999
 20
94.04915
 30
0.0
 11
174.2499999999999
 21
98.04915000000001
 31
0.0
  0
LINE
  5
22A
330
1E
100
AcDbEntity
  8
0
  6
CONTINUOUS
 62
     7
100
AcDbLine
 10
172.25
 20
96.04915
 30
0.0
 11
176.25
 21
96.04915
 31
0.0
  0
LINE
  5
22B
330
1E
100
AcDbEntity
  8
0
  6
CONTINUOUS
 62
     7
100
AcDbLine
 10
170.0
 20
105.2759999999999
 30
0.0
 11
174.2499999999999
 21
105.2759999999999
 31
0.0
  0
LINE
  5
22C
330
1E
100
AcDbEntity
  8
0
  6
CONTINUOUS
 62
     7
100
AcDbLine
 10
174.2499999999999
 20
98.63700000000001
 30
0.0
 11
174.2499999999999
 21
106.0759999999999
 31
0.0
  0
LINE
  5
22D
330
1E
100
AcDbEntity
  8
0
  6
CONTINUOUS
 62
     7
100
AcDbLine
 10
170.0
 20
102.26915
 30
0.0
 11
170.0
 21
106.0759999999999
 31
0.0
  0
LINE
  5
22E
330
1E
100
AcDbEntity
  8
0
  6
CONTINUOUS
 62
     7
100
AcDbLine
 10
176.65
 20
105.2759999999999
 30
0.0
 11
174.2499999999999
 21
105.2759999999999
 31
0.0
  0
LINE
  5
22F
330
1E
100
AcDbEntity
  8
0
  6
CONTINUOUS
 62
     7
100
AcDbLine
 10
175.4499999999999
 20
105.59753
 30
0.0
 11
174.2499999999999
 21
105.2759999999999
 31
0.0
  0
LINE
  5
230
330
1E
100
AcDbEntity
  8
0
  6
CONTINUOUS
 62
     7
100
AcDbLine
 10
174.2499999999999
 20
105.2759999999999
 30
0.0
 11
175.4499999999999
 21
104.95446
 31
0.0
  0
LINE
  5
231
330
1E
100
AcDbEntity
  8
0
  6
CONTINUOUS
 62
     7
100
AcDbLine
 10
170.0
 20
105.2759999999999
 30
0.0
 11
167.5999999999999
 21
105.2759999999999
 31
0.0
  0
LINE
  5
232
330
1E
100
AcDbEntity
  8
0
  6
CONTINUOUS
 62
     7
100
AcDbLine
 10
168.8
 20
104.95446
 30
0.0
 11
170.0
 21
105.2759999999999
 31
0.0
  0
LINE
  5
233
330
1E
100
AcDbEntity
  8
0
  6
CONTINUOUS
 62
     7
100
AcDbLine
 10
170.0
 20
105.2759999999999
 30
0.0
 11
168.8
 21
105.59753
 31
0.0
  0
LINE
  5
234
330
1E
100
AcDbEntity
  8
0
  6
CONTINUOUS
 62
     7
100
AcDbLine
 10
167.5999999999999
 20
105.2759999999999
 30
0.0
 11
164.02
 21
105.2759999999999
 31
0.0
  0
TEXT
  5
235
330
1E
100
AcDbEntity
  8
0
  6
CONTINUOUS
 62
     7
100
AcDbText
 10
164.02
 20
105.676
 30
0.0
 40
3.2
  1
85
 41
0.8125
  7
BIGFONT
100
AcDbText
  0
LINE
  5
236
330
1E
100
AcDbEntity
  8
0
  6
CONTINUOUS
 62
     7
100
AcDbLine
 10
-87.62500000000001
 20
-3.14705
 30
0.0
 11
-50.125
 21
-3.14705
 31
0.0
  0
LINE
  5
237
330
1E
100
AcDbEntity
  8
0
  6
CONTINUOUS
 62
     7
100
AcDbLine
 10
-50.125
 20
-19.64705
 30
0.0
 11
-50.125
 21
-2.347049999999998
 31
0.0
  0
LINE
  5
238
330
1E
100
AcDbEntity
  8
0
  6
CONTINUOUS
 62
     7
100
AcDbLine
 10
-87.62500000000001
 20
-19.64705
 30
0.0
 11
-87.62500000000001
 21
-2.347049999999998
 31
0.0
  0
LINE
  5
239
330
1E
100
AcDbEntity
  8
0
  6
CONTINUOUS
 62
     7
100
AcDbLine
 10
-51.325
 20
-3.46853
 30
0.0
 11
-50.125
 21
-3.146999999999998
 31
0.0
  0
LINE
  5
23A
330
1E
100
AcDbEntity
  8
0
  6
CONTINUOUS
 62
     7
100
AcDbLine
 10
-50.125
 20
-3.146999999999998
 30
0.0
 11
-51.325
 21
-2.825459999999998
 31
0.0
  0
LINE
  5
23B
330
1E
100
AcDbEntity
  8
0
  6
CONTINUOUS
 62
     7
100
AcDbLine
 10
-86.425
 20
-2.825459999999998
 30
0.0
 11
-87.62500000000001
 21
-3.146999999999998
 31
0.0
  0
LINE
  5
23C
330
1E
100
AcDbEntity
  8
0
  6
CONTINUOUS
 62
     7
100
AcDbLine
 10
-87.62500000000001
 20
-3.146999999999998
 30
0.0
 11
-86.425
 21
-3.46853
 31
0.0
  0
TEXT
  5
23D
330
1E
100
AcDbEntity
  8
0
  6
CONTINUOUS
 62
     7
100
AcDbText
 10
-72.775
 20
-2.74705
 30
0.0
 40
3.2
  1
750
 41
0.8125
  7
BIGFONT
100
AcDbText
  0
LINE
  5
23E
330
1E
100
AcDbEntity
  8
0
  6
CONTINUOUS
 62
     7
100
AcDbLine
 10
-202.0656999999999
 20
-3.14705
 30
0.0
 11
-164.5656999999999
 21
-3.14705
 31
0.0
  0
LINE
  5
23F
330
1E
100
AcDbEntity
  8
0
  6
CONTINUOUS
 62
     7
100
AcDbLine
 10
-164.5656999999999
 20
-19.64705
 30
0.0
 11
-164.5656999999999
 21
-2.347049999999998
 31
0.0
  0
LINE
  5
240
330
1E
100
AcDbEntity
  8
0
  6
CONTINUOUS
 62
     7
100
AcDbLine
 10
-202.0656999999999
 20
-19.64705
 30
0.0
 11
-202.0656999999999
 21
-2.347049999999998
 31
0.0
  0
LINE
  5
241
330
1E
100
AcDbEntity
  8
0
  6
CONTINUOUS
 62
     7
100
AcDbLine
 10
-165.7649999999998
 20
-3.46853
 30
0.0
 11
-164.565
 21
-3.146999999999998
 31
0.0
  0
LINE
  5
242
330
1E
100
AcDbEntity
  8
0
  6
CONTINUOUS
 62
     7
100
AcDbLine
 10
-164.565
 20
-3.146999999999998
 30
0.0
 11
-165.7649999999998
 21
-2.825459999999998
 31
0.0
  0
LINE
  5
243
330
1E
100
AcDbEntity
  8
0
  6
CONTINUOUS
 62
     7
100
AcDbLine
 10
-200.865
 20
-2.825459999999998
 30
0.0
 11
-202.0649999999998
 21
-3.146999999999998
 31
0.0
  0
LINE
  5
244
330
1E
100
AcDbEntity
  8
0
  6
CONTINUOUS
 62
     7
100
AcDbLine
 10
-202.0649999999998
 20
-3.146999999999998
 30
0.0
 11
-200.865
 21
-3.46853
 31
0.0
  0
TEXT
  5
245
330
1E
100
AcDbEntity
  8
0
  6
CONTINUOUS
 62
     7
100
AcDbText
 10
-187.2156999999999
 20
-2.74705
 30
0.0
 40
3.2
  1
750
 41
0.8125
  7
BIGFONT
100
AcDbText
  0
POINT
  5
246
330
1E
100
AcDbEntity
  8
0
  6
CONTINUOUS
 62
     1
100
AcDbPoint
 10
42.30949999999999
 20
77.6327
 30
0.0
  0
LINE
  5
247
330
1E
100
AcDbEntity
  8
0
  6
CONTINUOUS
 62
     7
100
AcDbLine
 10
-186.5656999999999
 20
83.91535000000002
 30
0.0
 11
-199.0656999999999
 21
83.91535000000002
 31
0.0
  0
LINE
  5
248
330
1E
100
AcDbEntity
  8
0
  6
CONTINUOUS
 62
     7
100
AcDbLine
 10
-197.865
 20
84.23652999999999
 30
0.0
 11
-199.065
 21
83.915
 31
0.0
  0
LINE
  5
249
330
1E
100
AcDbEntity
  8
0
  6
CONTINUOUS
 62
     7
100
AcDbLine
 10
-199.065
 20
83.915
 30
0.0
 11
-197.865
 21
83.59346
 31
0.0
  0
LINE
  5
24A
330
1E
100
AcDbEntity
  8
0
  6
CONTINUOUS
 62
     7
100
AcDbLine
 10
-193.3156999999999
 20
94.3096
 30
0.0
 11
-193.3156999999999
 21
79.3096
 31
0.0
  0
LINE
  5
24B
330
1E
100
AcDbEntity
  8
0
  6
CONTINUOUS
 62
     7
100
AcDbLine
 10
-193.63653
 20
80.509
 30
0.0
 11
-193.3149999999999
 21
79.309
 31
0.0
  0
LINE
  5
24C
330
1E
100
AcDbEntity
  8
0
  6
CONTINUOUS
 62
     7
100
AcDbLine
 10
-193.3149999999999
 20
79.309
 30
0.0
 11
-192.9934599999999
 21
80.509
 31
0.0
  0
LINE
  5
24D
330
1E
100
AcDbEntity
  8
0
  6
CONTINUOUS
 62
     7
100
AcDbLine
 10
-193.3156999999999
 20
104.3096
 30
0.0
 11
-193.3156999999999
 21
94.3096
 31
0.0
  0
LINE
  5
24E
330
1E
100
AcDbEntity
  8
0
  6
CONTINUOUS
 62
     7
100
AcDbLine
 10
-193.63653
 20
95.509
 30
0.0
 11
-193.3149999999999
 21
94.30899999999999
 31
0.0
  0
LINE
  5
24F
330
1E
100
AcDbEntity
  8
0
  6
CONTINUOUS
 62
     7
100
AcDbLine
 10
-193.3149999999999
 20
94.30899999999999
 30
0.0
 11
-192.9934599999999
 21
95.509
 31
0.0
  0
LINE
  5
250
330
1E
100
AcDbEntity
  8
0
  6
CONTINUOUS
 62
     7
100
AcDbLine
 10
-72.6087
 20
98.0545
 30
0.0
 11
-85.1087
 21
98.0545
 31
0.0
  0
LINE
  5
251
330
1E
100
AcDbEntity
  8
0
  6
CONTINUOUS
 62
     7
100
AcDbLine
 10
-83.90799999999998
 20
98.37552999999999
 30
0.0
 11
-85.10800000000001
 21
98.054
 31
0.0
  0
LINE
  5
252
330
1E
100
AcDbEntity
  8
0
  6
CONTINUOUS
 62
     7
100
AcDbLine
 10
-85.10800000000001
 20
98.054
 30
0.0
 11
-83.90799999999998
 21
97.73246
 31
0.0
  0
CIRCLE
  5
253
330
1E
100
AcDbEntity
  8
0
  6
CONTINUOUS
 62
     7
100
AcDbCircle
 10
-42.6045
 20
101.6321499999999
 30
0.0
 40
2.5
  0
TEXT
  5
254
330
1E
100
AcDbEntity
  8
0
  6
CONTINUOUS
 62
     7
100
AcDbText
 10
-40.83969999999999
 20
100.0438999999999
 30
0.0
 40
3.2
  1
１
 50
90.0
  7
BIGFONT
100
AcDbText
  0
TEXT
  5
255
330
1E
100
AcDbEntity
  8
0
  6
CONTINUOUS
 62
     7
100
AcDbText
 10
-40.8403
 20
104.8555
 30
0.0
 40
3.2
  1
Ｄ１０
 50
90.0
  7
BIGFONT
100
AcDbText
  0
LINE
  5
256
330
1E
100
AcDbEntity
  8
0
  6
CONTINUOUS
 62
     7
100
AcDbLine
 10
-40.10869999999999
 20
98.0545
 30
0.0
 11
-40.10869999999999
 21
113.0545
 31
0.0
  0
CIRCLE
  5
257
330
1E
100
AcDbEntity
  8
0
  6
CONTINUOUS
 62
     7
100
AcDbCircle
 10
54.3697
 20
108.6466
 30
0.0
 40
2.5
  0
TEXT
  5
258
330
1E
100
AcDbEntity
  8
0
  6
CONTINUOUS
 62
     7
100
AcDbText
 10
52.78145
 20
107.0218499999999
 30
0.0
 40
3.2
  1
１
  7
BIGFONT
100
AcDbText
  0
TEXT
  5
259
330
1E
100
AcDbEntity
  8
0
  6
CONTINUOUS
 62
     7
100
AcDbText
 10
57.59305
 20
107.02245
 30
0.0
 40
3.2
  1
D10
  7
BIGFONT
100
AcDbText
  0
POINT
  5
25A
330
1E
100
AcDbEntity
  8
0
  6
CONTINUOUS
 62
     7
100
AcDbPoint
 10
48.0
 20
77.6318
 30
0.0
  0
POINT
  5
25B
330
1E
100
AcDbEntity
  8
0
  6
CONTINUOUS
 62
     7
100
AcDbPoint
 10
60.5
 20
78.29439999999998
 30
0.0
  0
LINE
  5
25C
330
1E
100
AcDbEntity
  8
0
  6
CONTINUOUS
 62
     1
100
AcDbLine
 10
41.65
 20
78.79940000000002
 30
0.0
 11
64.4645
 21
78.79940000000002
 31
0.0
  0
LINE
  5
25D
330
1E
100
AcDbEntity
  8
0
  6
CONTINUOUS
 62
     7
100
AcDbLine
 10
64.4645
 20
81.0466
 30
0.0
 11
64.4645
 21
81.0494
 31
0.0
  0
LINE
  5
25E
330
1E
100
AcDbEntity
  8
0
  6
CONTINUOUS
 62
     7
100
AcDbLine
 10
66.94670000000001
 20
106.1508
 30
0.0
 11
41.5
 21
106.1508
 31
0.0
  0
LINE
  5
25F
330
1E
100
AcDbEntity
  8
0
  6
CONTINUOUS
 62
     7
100
AcDbLine
 10
42.7
 20
106.47153
 30
0.0
 11
41.5
 21
106.15
 31
0.0
  0
LINE
  5
260
330
1E
100
AcDbEntity
  8
0
  6
CONTINUOUS
 62
     7
100
AcDbLine
 10
41.5
 20
106.15
 30
0.0
 11
42.7
 21
105.82846
 31
0.0
  0
LINE
  5
261
330
1E
100
AcDbEntity
  8
0
  6
CONTINUOUS
 62
     7
100
AcDbLine
 10
29.504
 20
88.17629999999999
 30
0.0
 11
40.154
 21
88.17629999999999
 31
0.0
  0
LINE
  5
262
330
1E
100
AcDbEntity
  8
0
  6
CONTINUOUS
 62
     7
100
AcDbLine
 10
38.954
 20
87.85446
 30
0.0
 11
40.154
 21
88.176
 31
0.0
  0
LINE
  5
263
330
1E
100
AcDbEntity
  8
0
  6
CONTINUOUS
 62
     7
100
AcDbLine
 10
40.154
 20
88.176
 30
0.0
 11
38.954
 21
88.49752999999996
 31
0.0
  0
LINE
  5
264
330
1E
100
AcDbEntity
  8
0
  6
CONTINUOUS
 62
     7
100
AcDbLine
 10
-195.1907
 20
-55.14705
 30
0.0
 11
-195.1907
 21
-42.64705
 31
0.0
  0
LINE
  5
265
330
1E
100
AcDbEntity
  8
0
  6
CONTINUOUS
 62
     7
100
AcDbLine
 10
-195.1907
 20
-42.64705
 30
0.0
 11
-195.1907
 21
-40.24704999999999
 31
0.0
  0
LINE
  5
266
330
1E
100
AcDbEntity
  8
0
  6
CONTINUOUS
 62
     7
100
AcDbLine
 10
-194.8684599999999
 20
-43.847
 30
0.0
 11
-195.19
 21
-42.647
 31
0.0
  0
LINE
  5
267
330
1E
100
AcDbEntity
  8
0
  6
CONTINUOUS
 62
     7
100
AcDbLine
 10
-195.19
 20
-42.647
 30
0.0
 11
-195.5115299999999
 21
-43.847
 31
0.0
  0
LINE
  5
268
330
1E
100
AcDbEntity
  8
0
  6
CONTINUOUS
 62
     7
100
AcDbLine
 10
-195.1907
 20
-68.14705
 30
0.0
 11
-195.1907
 21
-55.14545
 31
0.0
  0
LINE
  5
269
330
1E
100
AcDbEntity
  8
0
  6
CONTINUOUS
 62
     7
100
AcDbLine
 10
-194.8684599999999
 20
-56.345
 30
0.0
 11
-195.19
 21
-55.145
 31
0.0
  0
LINE
  5
26A
330
1E
100
AcDbEntity
  8
0
  6
CONTINUOUS
 62
     7
100
AcDbLine
 10
-195.19
 20
-55.145
 30
0.0
 11
-195.5115299999999
 21
-56.345
 31
0.0
  0
LINE
  5
26B
330
1E
100
AcDbEntity
  8
0
  6
CONTINUOUS
 62
     7
100
AcDbLine
 10
-186.77095
 20
-55.64705
 30
0.0
 11
-186.77095
 21
-43.14705
 31
0.0
  0
LINE
  5
26C
330
1E
100
AcDbEntity
  8
0
  6
CONTINUOUS
 62
     7
100
AcDbLine
 10
-186.44846
 20
-44.347
 30
0.0
 11
-186.77
 21
-43.147
 31
0.0
  0
LINE
  5
26D
330
1E
100
AcDbEntity
  8
0
  6
CONTINUOUS
 62
     7
100
AcDbLine
 10
-186.77
 20
-43.147
 30
0.0
 11
-187.09153
 21
-44.347
 31
0.0
  0
LINE
  5
26E
330
1E
100
AcDbEntity
  8
0
  6
CONTINUOUS
 62
     7
100
AcDbLine
 10
-186.77095
 20
-68.14705
 30
0.0
 11
-186.77095
 21
-55.64705
 31
0.0
  0
LINE
  5
26F
330
1E
100
AcDbEntity
  8
0
  6
CONTINUOUS
 62
     7
100
AcDbLine
 10
-186.44846
 20
-56.847
 30
0.0
 11
-186.77
 21
-55.647
 31
0.0
  0
LINE
  5
270
330
1E
100
AcDbEntity
  8
0
  6
CONTINUOUS
 62
     7
100
AcDbLine
 10
-186.77
 20
-55.647
 30
0.0
 11
-187.09153
 21
-56.847
 31
0.0
  0
LINE
  5
271
330
1E
100
AcDbEntity
  8
0
  6
CONTINUOUS
 62
     7
100
AcDbLine
 10
-167.5656999999999
 20
-27.52205
 30
0.0
 11
-180.0656999999999
 21
-27.52205
 31
0.0
  0
LINE
  5
272
330
1E
100
AcDbEntity
  8
0
  6
CONTINUOUS
 62
     7
100
AcDbLine
 10
-178.865
 20
-27.20045999999999
 30
0.0
 11
-180.065
 21
-27.522
 31
0.0
  0
LINE
  5
273
330
1E
100
AcDbEntity
  8
0
  6
CONTINUOUS
 62
     7
100
AcDbLine
 10
-180.065
 20
-27.522
 30
0.0
 11
-178.865
 21
-27.84352999999999
 31
0.0
  0
LINE
  5
274
330
1E
100
AcDbEntity
  8
0
  6
CONTINUOUS
 62
     7
100
AcDbLine
 10
-154.5657
 20
-27.52205
 30
0.0
 11
-167.5672999999999
 21
-27.52205
 31
0.0
  0
LINE
  5
275
330
1E
100
AcDbEntity
  8
0
  6
CONTINUOUS
 62
     7
100
AcDbLine
 10
-166.3669999999999
 20
-27.20045999999999
 30
0.0
 11
-167.567
 21
-27.522
 31
0.0
  0
LINE
  5
276
330
1E
100
AcDbEntity
  8
0
  6
CONTINUOUS
 62
     7
100
AcDbLine
 10
-167.567
 20
-27.522
 30
0.0
 11
-166.3669999999999
 21
-27.84352999999999
 31
0.0
  0
LINE
  5
277
330
1E
100
AcDbEntity
  8
0
  6
CONTINUOUS
 62
     7
100
AcDbLine
 10
-167.0657
 20
-35.07595
 30
0.0
 11
-179.5657
 21
-35.07595
 31
0.0
  0
LINE
  5
278
330
1E
100
AcDbEntity
  8
0
  6
CONTINUOUS
 62
     7
100
AcDbLine
 10
-178.365
 20
-34.75346
 30
0.0
 11
-179.565
 21
-35.075
 31
0.0
  0
LINE
  5
279
330
1E
100
AcDbEntity
  8
0
  6
CONTINUOUS
 62
     7
100
AcDbLine
 10
-179.565
 20
-35.075
 30
0.0
 11
-178.365
 21
-35.39652999999999
 31
0.0
  0
LINE
  5
27A
330
1E
100
AcDbEntity
  8
0
  6
CONTINUOUS
 62
     7
100
AcDbLine
 10
-154.5657
 20
-35.07595
 30
0.0
 11
-167.0657
 21
-35.07595
 31
0.0
  0
LINE
  5
27B
330
1E
100
AcDbEntity
  8
0
  6
CONTINUOUS
 62
     7
100
AcDbLine
 10
-165.865
 20
-34.75346
 30
0.0
 11
-167.065
 21
-35.075
 31
0.0
  0
LINE
  5
27C
330
1E
100
AcDbEntity
  8
0
  6
CONTINUOUS
 62
     7
100
AcDbLine
 10
-167.065
 20
-35.075
 30
0.0
 11
-165.865
 21
-35.39652999999999
 31
0.0
  0
CIRCLE
  5
27D
330
1E
100
AcDbEntity
  8
0
  6
CONTINUOUS
 62
     7
100
AcDbCircle
 10
190.0
 20
78.74939999999998
 30
0.0
 40
0.75
  0
LINE
  5
27E
330
1E
100
AcDbEntity
  8
0
  6
CONTINUOUS
 62
     7
100
AcDbLine
 10
190.0
 20
76.74939999999998
 30
0.0
 11
190.0
 21
80.74939999999998
 31
0.0
  0
LINE
  5
27F
330
1E
100
AcDbEntity
  8
0
  6
CONTINUOUS
 62
     7
100
AcDbLine
 10
188.0
 20
78.74939999999998
 30
0.0
 11
192.0
 21
78.74939999999998
 31
0.0
  0
LINE
  5
280
330
1E
100
AcDbEntity
  8
0
  6
CONTINUOUS
 62
     7
100
AcDbLine
 10
200.1443
 20
75.04940000000002
 30
0.0
 11
200.1443
 21
78.74939999999998
 31
0.0
  0
LINE
  5
281
330
1E
100
AcDbEntity
  8
0
  6
CONTINUOUS
 62
     7
100
AcDbLine
 10
192.5961499999999
 20
78.74939999999998
 30
0.0
 11
200.9443
 21
78.74939999999998
 31
0.0
  0
LINE
  5
282
330
1E
100
AcDbEntity
  8
0
  6
CONTINUOUS
 62
     7
100
AcDbLine
 10
193.6122
 20
75.04940000000002
 30
0.0
 11
200.9443
 21
75.04940000000002
 31
0.0
  0
LINE
  5
283
330
1E
100
AcDbEntity
  8
0
  6
CONTINUOUS
 62
     7
100
AcDbLine
 10
200.1443
 20
81.1494
 30
0.0
 11
200.1443
 21
78.74939999999998
 31
0.0
  0
LINE
  5
284
330
1E
100
AcDbEntity
  8
0
  6
CONTINUOUS
 62
     7
100
AcDbLine
 10
199.82246
 20
79.949
 30
0.0
 11
200.144
 21
78.749
 31
0.0
  0
LINE
  5
285
330
1E
100
AcDbEntity
  8
0
  6
CONTINUOUS
 62
     7
100
AcDbLine
 10
200.144
 20
78.749
 30
0.0
 11
200.46553
 21
79.949
 31
0.0
  0
LINE
  5
286
330
1E
100
AcDbEntity
  8
0
  6
CONTINUOUS
 62
     7
100
AcDbLine
 10
200.1443
 20
75.04940000000002
 30
0.0
 11
200.1443
 21
72.6494
 31
0.0
  0
LINE
  5
287
330
1E
100
AcDbEntity
  8
0
  6
CONTINUOUS
 62
     7
100
AcDbLine
 10
200.46553
 20
73.84899999999998
 30
0.0
 11
200.144
 21
75.04900000000002
 31
0.0
  0
LINE
  5
288
330
1E
100
AcDbEntity
  8
0
  6
CONTINUOUS
 62
     7
100
AcDbLine
 10
200.144
 20
75.04900000000002
 30
0.0
 11
199.82246
 21
73.84899999999998
 31
0.0
  0
LINE
  5
289
330
1E
100
AcDbEntity
  8
0
  6
CONTINUOUS
 62
     7
100
AcDbLine
 10
200.1443
 20
81.1494
 30
0.0
 11
200.1443
 21
86.2894
 31
0.0
  0
TEXT
  5
28A
330
1E
100
AcDbEntity
  8
0
  6
CONTINUOUS
 62
     7
100
AcDbText
 10
199.7443
 20
81.0894
 30
0.0
 40
3.2
  1
74
 50
90.0
 41
0.8125
  7
BIGFONT
100
AcDbText
  0
LINE
  5
28B
330
1E
100
AcDbEntity
  8
0
  6
CONTINUOUS
 62
     1
100
AcDbLine
 10
-200.2657
 20
-55.64705
 30
0.0
 11
-184.5656999999999
 21
-55.64705
 31
0.0
  0
TEXT
  5
28C
330
1E
100
AcDbEntity
  8
0
  6
CONTINUOUS
 62
     7
100
AcDbText
 10
190.8793
 20
121.8163
 30
0.0
 40
3.2
  1
4-埋め込みインサート
  7
BIGFONT
100
AcDbText
  0
TEXT
  5
28D
330
1E
100
AcDbEntity
  8
0
  6
CONTINUOUS
 62
     7
100
AcDbText
 10
191.22415
 20
117.4927
 30
0.0
 40
3.2
  1
W1/2
  7
BIGFONT
100
AcDbText
  0
LINE
  5
28E
330
1E
100
AcDbEntity
  8
0
  6
CONTINUOUS
 62
     7
100
AcDbLine
 10
189.7007
 20
121.3637
 30
0.0
 11
226.6313
 21
121.3637
 31
0.0
  0
LINE
  5
28F
330
1E
100
AcDbEntity
  8
0
  6
CONTINUOUS
 62
     7
100
AcDbLine
 10
189.7007
 20
121.3637
 30
0.0
 11
174.71125
 21
96.64055000000001
 31
0.0
  0
LINE
  5
290
330
1E
100
AcDbEntity
  8
0
  6
CONTINUOUS
 62
     7
100
AcDbLine
 10
175.0581799999999
 20
97.83283
 30
0.0
 11
174.7109999999999
 21
96.64000000000001
 31
0.0
  0
LINE
  5
291
330
1E
100
AcDbEntity
  8
0
  6
CONTINUOUS
 62
     7
100
AcDbLine
 10
174.7109999999999
 20
96.64000000000001
 30
0.0
 11
175.60808
 21
97.49943000000001
 31
0.0
  0
LINE
  5
292
330
1E
100
AcDbEntity
  8
0
  6
CONTINUOUS
 62
     7
100
AcDbLine
 10
-66.38375
 20
103.3044999999999
 30
0.0
 11
-66.38375
 21
90.8045
 31
0.0
  0
LINE
  5
293
330
1E
100
AcDbEntity
  8
0
  6
CONTINUOUS
 62
     7
100
AcDbLine
 10
-66.70453000000001
 20
92.004
 30
0.0
 11
-66.383
 21
90.804
 31
0.0
  0
LINE
  5
294
330
1E
100
AcDbEntity
  8
0
  6
CONTINUOUS
 62
     7
100
AcDbLine
 10
-66.383
 20
90.804
 30
0.0
 11
-66.06145999999999
 21
92.004
 31
0.0
  0
CIRCLE
  5
295
330
1E
100
AcDbEntity
  8
0
  6
CONTINUOUS
 62
     7
100
AcDbCircle
 10
-83.8138
 20
-65.6175
 30
0.0
 40
2.5
  0
TEXT
  5
296
330
1E
100
AcDbEntity
  8
0
  6
CONTINUOUS
 62
     7
100
AcDbText
 10
-85.37175000000003
 20
-67.2114
 30
0.0
 40
3.2
  1
２
  7
BIGFONT
100
AcDbText
  0
TEXT
  5
297
330
1E
100
AcDbEntity
  8
0
  6
CONTINUOUS
 62
     7
100
AcDbText
 10
-80.57399999999999
 20
-67.28069999999999
 30
0.0
 40
3.2
  1
D10
  7
BIGFONT
100
AcDbText
  0
LINE
  5
298
330
1E
100
AcDbEntity
  8
0
  6
CONTINUOUS
 62
     7
100
AcDbLine
 10
-86.37500000000001
 20
-68.14705
 30
0.0
 11
-71.375
 21
-68.14705
 31
0.0
  0
CIRCLE
  5
299
330
1E
100
AcDbEntity
  8
0
  6
CONTINUOUS
 62
     7
100
AcDbCircle
 10
-42.65455
 20
-33.5382
 30
0.0
 40
2.5
  0
TEXT
  5
29A
330
1E
100
AcDbEntity
  8
0
  6
CONTINUOUS
 62
     7
100
AcDbText
 10
-41.06065
 20
-35.09615
 30
0.0
 40
3.2
  1
２
 50
90.0
  7
BIGFONT
100
AcDbText
  0
TEXT
  5
29B
330
1E
100
AcDbEntity
  8
0
  6
CONTINUOUS
 62
     7
100
AcDbText
 10
-40.99134999999999
 20
-30.2984
 30
0.0
 40
3.2
  1
D10
 50
90.0
  7
BIGFONT
100
AcDbText
  0
LINE
  5
29C
330
1E
100
AcDbEntity
  8
0
  6
CONTINUOUS
 62
     7
100
AcDbLine
 10
-40.125
 20
-37.0994
 30
0.0
 11
-40.125
 21
-22.0994
 31
0.0
  0
TEXT
  5
29D
330
1E
100
AcDbEntity
  8
3
  6
CONTINUOUS
 62
     7
100
AcDbText
 10
244.3309999999999
 20
-156.4209999999999
 30
0.0
 40
4.0
  1
ＫＬ－３１０１
 41
0.7
  7
BIGFONT
100
AcDbText
  0
TEXT
  5
29E
330
1E
100
AcDbEntity
  8
1
  6
CONTINUOUS
 62
     7
100
AcDbText
 10
-99.61678
 20
-152.5949399999998
 30
0.0
 40
3.2
  1
Ｌ
  7
BIGFONT
100
AcDbText
  0
TEXT
  5
29F
330
1E
100
AcDbEntity
  8
1
  6
CONTINUOUS
 62
     7
100
AcDbText
 10
-96.60702
 20
-152.41886
 30
0.0
 40
2.2
  1
１
 41
1.1363636
  7
BIGFONT
100
AcDbText
  0
LINE
  5
2A0
330
1E
100
AcDbEntity
  8
1
  6
CONTINUOUS
 62
     1
100
AcDbLine
 10
-105.49128
 20
-145.21208
 30
0.0
 11
-88.89128000000004
 21
-145.21208
 31
0.0
  0
LINE
  5
2A1
330
1E
100
AcDbEntity
  8
1
  6
CONTINUOUS
 62
     7
100
AcDbLine
 10
-105.49128
 20
-153.2117799999998
 30
0.0
 11
-88.89128000000004
 21
-153.2117799999998
 31
0.0
  0
LINE
  5
2A2
330
1E
100
AcDbEntity
  8
1
  6
CONTINUOUS
 62
     7
100
AcDbLine
 10
-88.89128000000004
 20
-146.21208
 30
0.0
 11
-88.89128000000004
 21
-154.01178
 31
0.0
  0
LINE
  5
2A3
330
1E
100
AcDbEntity
  8
1
  6
CONTINUOUS
 62
     7
100
AcDbLine
 10
-105.49128
 20
-146.21208
 30
0.0
 11
-105.49128
 21
-154.01178
 31
0.0
  0
LINE
  5
2A4
330
1E
100
AcDbEntity
  8
1
  6
CONTINUOUS
 62
     7
100
AcDbLine
 10
-90.091
 20
-153.53253
 30
0.0
 11
-88.891
 21
-153.211
 31
0.0
  0
LINE
  5
2A5
330
1E
100
AcDbEntity
  8
1
  6
CONTINUOUS
 62
     7
100
AcDbLine
 10
-88.891
 20
-153.211
 30
0.0
 11
-90.091
 21
-152.88946
 31
0.0
  0
LINE
  5
2A6
330
1E
100
AcDbEntity
  8
1
  6
CONTINUOUS
 62
     7
100
AcDbLine
 10
-104.291
 20
-152.88946
 30
0.0
 11
-105.491
 21
-153.211
 31
0.0
  0
LINE
  5
2A7
330
1E
100
AcDbEntity
  8
1
  6
CONTINUOUS
 62
     7
100
AcDbLine
 10
-105.491
 20
-153.211
 30
0.0
 11
-104.291
 21
-153.53253
 31
0.0
  0
CIRCLE
  5
2A8
330
1E
100
AcDbEntity
  8
1
  6
CONTINUOUS
 62
     7
100
AcDbCircle
 10
-97.06924
 20
-136.5695199999999
 30
0.0
 40
2.497799999999998
  0
TEXT
  5
2A9
330
1E
100
AcDbEntity
  8
1
  6
CONTINUOUS
 62
     7
100
AcDbText
 10
-98.77228000000002
 20
-138.4148999999995
 30
0.0
 40
3.2
  1
７
  7
BIGFONT
100
AcDbText
  0
LINE
  5
2AA
330
1E
100
AcDbEntity
  8
1
  6
CONTINUOUS
 62
     7
100
AcDbLine
 10
-102.26674
 20
-139.03708
 30
0.0
 11
-91.74291999999999
 21
-139.03708
 31
0.0
  0
TEXT
  5
2AB
330
1E
100
AcDbEntity
  8
1
  6
CONTINUOUS
 62
     7
100
AcDbText
 10
-197.0569343042548
 20
-108.90754
 30
0.0
 40
4.5
  1
鉄筋加工図
  7
BIGFONT
100
AcDbText
  0
LINE
  5
2AC
330
1E
100
AcDbEntity
  8
1
  6
CONTINUOUS
 62
     7
100
AcDbLine
 10
-201.7845
 20
-109.7146399999999
 30
0.0
 11
-165.50068
 21
-109.7146399999999
 31
0.0
  0
LINE
  5
2AD
330
1E
100
AcDbEntity
  8
1
  6
CONTINUOUS
 62
     7
100
AcDbLine
 10
-173.50068
 20
-109.7146399999999
 30
0.0
 11
-172.7920799999999
 21
-109.7146399999999
 31
0.0
  0
LINE
  5
2AE
330
1E
100
AcDbEntity
  8
1
  6
CONTINUOUS
 62
     1
100
AcDbLine
 10
-235.5954399999999
 20
-145.21208
 30
0.0
 11
-226.27142
 21
-145.21208
 31
0.0
  0
LINE
  5
2AF
330
1E
100
AcDbEntity
  8
1
  6
CONTINUOUS
 62
     7
100
AcDbLine
 10
-235.5954399999999
 20
-153.17944
 30
0.0
 11
-226.27142
 21
-153.17944
 31
0.0
  0
LINE
  5
2B0
330
1E
100
AcDbEntity
  8
1
  6
CONTINUOUS
 62
     7
100
AcDbLine
 10
-226.27142
 20
-146.21208
 30
0.0
 11
-226.27142
 21
-153.9794399999999
 31
0.0
  0
LINE
  5
2B1
330
1E
100
AcDbEntity
  8
1
  6
CONTINUOUS
 62
     7
100
AcDbLine
 10
-235.5954399999999
 20
-145.5365
 30
0.0
 11
-235.5954399999999
 21
-153.9794399999999
 31
0.0
  0
LINE
  5
2B2
330
1E
100
AcDbEntity
  8
1
  6
CONTINUOUS
 62
     7
100
AcDbLine
 10
-227.4709999999999
 20
-153.5005299999999
 30
0.0
 11
-226.2709999999999
 21
-153.1789999999999
 31
0.0
  0
LINE
  5
2B3
330
1E
100
AcDbEntity
  8
1
  6
CONTINUOUS
 62
     7
100
AcDbLine
 10
-226.2709999999999
 20
-153.1789999999999
 30
0.0
 11
-227.4709999999999
 21
-152.8574599999999
 31
0.0
  0
LINE
  5
2B4
330
1E
100
AcDbEntity
  8
1
  6
CONTINUOUS
 62
     7
100
AcDbLine
 10
-234.3949999999999
 20
-152.8574599999999
 30
0.0
 11
-235.5949999999999
 21
-153.1789999999999
 31
0.0
  0
LINE
  5
2B5
330
1E
100
AcDbEntity
  8
1
  6
CONTINUOUS
 62
     7
100
AcDbLine
 10
-235.5949999999999
 20
-153.1789999999999
 30
0.0
 11
-234.3949999999999
 21
-153.5005299999999
 31
0.0
  0
LINE
  5
2B6
330
1E
100
AcDbEntity
  8
1
  6
CONTINUOUS
 62
     1
100
AcDbLine
 10
-204.0954399999999
 20
-145.21208
 30
0.0
 11
-170.09544
 21
-145.21208
 31
0.0
  0
LINE
  5
2B7
330
1E
100
AcDbEntity
  8
1
  6
CONTINUOUS
 62
     7
100
AcDbLine
 10
-204.0954399999999
 20
-153.18166
 30
0.0
 11
-170.09544
 21
-153.18166
 31
0.0
  0
LINE
  5
2B8
330
1E
100
AcDbEntity
  8
1
  6
CONTINUOUS
 62
     7
100
AcDbLine
 10
-170.09544
 20
-146.21208
 30
0.0
 11
-170.09544
 21
-153.9816599999998
 31
0.0
  0
LINE
  5
2B9
330
1E
100
AcDbEntity
  8
1
  6
CONTINUOUS
 62
     7
100
AcDbLine
 10
-204.0954399999999
 20
-145.5365
 30
0.0
 11
-204.0954399999999
 21
-153.9816599999998
 31
0.0
  0
LINE
  5
2BA
330
1E
100
AcDbEntity
  8
1
  6
CONTINUOUS
 62
     7
100
AcDbLine
 10
-171.295
 20
-153.50253
 30
0.0
 11
-170.0949999999999
 21
-153.181
 31
0.0
  0
LINE
  5
2BB
330
1E
100
AcDbEntity
  8
1
  6
CONTINUOUS
 62
     7
100
AcDbLine
 10
-170.0949999999999
 20
-153.181
 30
0.0
 11
-171.295
 21
-152.85946
 31
0.0
  0
LINE
  5
2BC
330
1E
100
AcDbEntity
  8
1
  6
CONTINUOUS
 62
     7
100
AcDbLine
 10
-202.895
 20
-152.85946
 30
0.0
 11
-204.095
 21
-153.181
 31
0.0
  0
LINE
  5
2BD
330
1E
100
AcDbEntity
  8
1
  6
CONTINUOUS
 62
     7
100
AcDbLine
 10
-204.095
 20
-153.181
 30
0.0
 11
-202.895
 21
-153.50253
 31
0.0
  0
LINE
  5
2BE
330
1E
100
AcDbEntity
  8
1
  6
CONTINUOUS
 62
     1
100
AcDbLine
 10
-148.9903999999999
 20
-145.21208
 30
0.0
 11
-121.5904
 21
-145.21208
 31
0.0
  0
LINE
  5
2BF
330
1E
100
AcDbEntity
  8
1
  6
CONTINUOUS
 62
     1
100
AcDbLine
 10
-149.5903999999999
 20
-144.6120799999999
 30
0.0
 11
-149.5903999999999
 21
-120.21208
 31
0.0
  0
ARC
  5
2C0
330
1E
100
AcDbEntity
  8
1
  6
CONTINUOUS
 62
     1
100
AcDbCircle
 10
-148.9903999999999
 20
-144.6120799999999
 30
0.0
 40
0.6
100
AcDbArc
 50
180.0
 51
270.0
  0
LINE
  5
2C1
330
1E
100
AcDbEntity
  8
1
  6
CONTINUOUS
 62
     7
100
AcDbLine
 10
-149.09206
 20
-153.18166
 30
0.0
 11
-121.5904
 21
-153.18166
 31
0.0
  0
LINE
  5
2C2
330
1E
100
AcDbEntity
  8
1
  6
CONTINUOUS
 62
     7
100
AcDbLine
 10
-121.5904
 20
-146.21208
 30
0.0
 11
-121.5904
 21
-153.9816599999998
 31
0.0
  0
LINE
  5
2C3
330
1E
100
AcDbEntity
  8
1
  6
CONTINUOUS
 62
     7
100
AcDbLine
 10
-149.09206
 20
-145.59438
 30
0.0
 11
-149.09206
 21
-153.9816599999998
 31
0.0
  0
LINE
  5
2C4
330
1E
100
AcDbEntity
  8
1
  6
CONTINUOUS
 62
     7
100
AcDbLine
 10
-122.7899999999999
 20
-153.50253
 30
0.0
 11
-121.5899999999999
 21
-153.181
 31
0.0
  0
LINE
  5
2C5
330
1E
100
AcDbEntity
  8
1
  6
CONTINUOUS
 62
     7
100
AcDbLine
 10
-121.5899999999999
 20
-153.181
 30
0.0
 11
-122.7899999999999
 21
-152.85946
 31
0.0
  0
LINE
  5
2C6
330
1E
100
AcDbEntity
  8
1
  6
CONTINUOUS
 62
     7
100
AcDbLine
 10
-147.892
 20
-152.85946
 30
0.0
 11
-149.092
 21
-153.181
 31
0.0
  0
LINE
  5
2C7
330
1E
100
AcDbEntity
  8
1
  6
CONTINUOUS
 62
     7
100
AcDbLine
 10
-149.092
 20
-153.181
 30
0.0
 11
-147.892
 21
-153.50253
 31
0.0
  0
LINE
  5
2C8
330
1E
100
AcDbEntity
  8
1
  6
CONTINUOUS
 62
     7
100
AcDbLine
 10
-157.6673199999999
 20
-144.6120799999999
 30
0.0
 11
-157.6673199999999
 21
-120.21208
 31
0.0
  0
LINE
  5
2C9
330
1E
100
AcDbEntity
  8
1
  6
CONTINUOUS
 62
     7
100
AcDbLine
 10
-150.6673199999999
 20
-120.21208
 30
0.0
 11
-158.46732
 21
-120.21208
 31
0.0
  0
LINE
  5
2CA
330
1E
100
AcDbEntity
  8
1
  6
CONTINUOUS
 62
     7
100
AcDbLine
 10
-150.6673199999999
 20
-144.6120799999999
 30
0.0
 11
-158.46732
 21
-144.6120799999999
 31
0.0
  0
LINE
  5
2CB
330
1E
100
AcDbEntity
  8
1
  6
CONTINUOUS
 62
     7
100
AcDbLine
 10
-157.3454599999999
 20
-121.412
 30
0.0
 11
-157.667
 21
-120.212
 31
0.0
  0
LINE
  5
2CC
330
1E
100
AcDbEntity
  8
1
  6
CONTINUOUS
 62
     7
100
AcDbLine
 10
-157.667
 20
-120.212
 30
0.0
 11
-157.9885299999999
 21
-121.412
 31
0.0
  0
LINE
  5
2CD
330
1E
100
AcDbEntity
  8
1
  6
CONTINUOUS
 62
     7
100
AcDbLine
 10
-157.9885299999999
 20
-143.412
 30
0.0
 11
-157.667
 21
-144.612
 31
0.0
  0
LINE
  5
2CE
330
1E
100
AcDbEntity
  8
1
  6
CONTINUOUS
 62
     7
100
AcDbLine
 10
-157.667
 20
-144.612
 30
0.0
 11
-157.3454599999999
 21
-143.412
 31
0.0
  0
ARC
  5
2CF
330
1E
100
AcDbEntity
  8
1
  6
CONTINUOUS
 62
     7
100
AcDbCircle
 10
-149.09206
 20
-144.6120799999999
 30
0.0
 40
8.57526
100
AcDbArc
 50
191.5780499999999
 51
238.71324
  0
ARC
  5
2D0
330
1E
100
AcDbEntity
  8
1
  6
CONTINUOUS
 62
     7
100
AcDbCircle
 10
-149.09206
 20
-144.6120799999999
 30
0.0
 40
8.57526
100
AcDbArc
 50
238.71324
 51
246.3633899999999
  0
LINE
  5
2D1
330
1E
100
AcDbEntity
  8
1
  6
CONTINUOUS
 62
     7
100
AcDbLine
 10
-149.09206
 20
-152.3648
 30
0.0
 11
-149.09206
 21
-150.58158
 31
0.0
  0
ARC
  5
2D2
330
1E
100
AcDbEntity
  8
1
  6
CONTINUOUS
 62
     7
100
AcDbCircle
 10
-149.09206
 20
-144.6120799999999
 30
0.0
 40
8.57526
100
AcDbArc
 50
246.3633899999999
 51
247.8281799999999
  0
ARC
  5
2D3
330
1E
100
AcDbEntity
  8
1
  6
CONTINUOUS
 62
     7
100
AcDbCircle
 10
-149.09206
 20
-144.6120799999999
 30
0.0
 40
8.57526
100
AcDbArc
 50
247.8281799999999
 51
258.01527
  0
LINE
  5
2D4
330
1E
100
AcDbEntity
  8
1
  6
CONTINUOUS
 62
     7
100
AcDbLine
 10
-157.5087199999998
 20
-146.25368
 30
0.0
 11
-157.6673199999999
 21
-144.6120799999999
 31
0.0
  0
LINE
  5
2D5
330
1E
100
AcDbEntity
  8
1
  6
CONTINUOUS
 62
     7
100
AcDbLine
 10
-157.23155
 20
-145.7755099999999
 30
0.0
 11
-157.667
 21
-144.612
 31
0.0
  0
LINE
  5
2D6
330
1E
100
AcDbEntity
  8
1
  6
CONTINUOUS
 62
     7
100
AcDbLine
 10
-157.667
 20
-144.612
 30
0.0
 11
-157.8716499999998
 21
-145.8373499999999
 31
0.0
  0
LINE
  5
2D7
330
1E
100
AcDbEntity
  8
1
  6
CONTINUOUS
 62
     7
100
AcDbLine
 10
-150.80446
 20
-153.01462
 30
0.0
 11
-149.09206
 21
-153.1873399999998
 31
0.0
  0
LINE
  5
2D8
330
1E
100
AcDbEntity
  8
1
  6
CONTINUOUS
 62
     7
100
AcDbLine
 10
-150.31821
 20
-153.38648
 30
0.0
 11
-149.092
 21
-153.187
 31
0.0
  0
LINE
  5
2D9
330
1E
100
AcDbEntity
  8
1
  6
CONTINUOUS
 62
     7
100
AcDbLine
 10
-149.092
 20
-153.187
 30
0.0
 11
-150.25367
 21
-152.7466499999999
 31
0.0
  0
ARC
  5
2DA
330
1E
100
AcDbEntity
  8
1
  6
CONTINUOUS
 62
     7
100
AcDbCircle
 10
-149.09206
 20
-144.6120799999999
 30
0.0
 40
8.57526
100
AcDbArc
 50
258.01527
 51
258.41701
  0
LINE
  5
2DB
330
1E
100
AcDbEntity
  8
1
  6
CONTINUOUS
 62
     7
100
AcDbLine
 10
-149.09206
 20
-153.00988
 30
0.0
 11
-149.09206
 21
-152.3648
 31
0.0
  0
LINE
  5
2DC
330
1E
100
AcDbEntity
  8
1
  6
CONTINUOUS
 62
     7
100
AcDbLine
 10
-157.6673199999999
 20
-144.6120799999999
 30
0.0
 11
-157.6673199999999
 21
-140.25672
 31
0.0
  0
ARC
  5
2DD
330
1E
100
AcDbEntity
  8
1
  6
CONTINUOUS
 62
     7
100
AcDbCircle
 10
-149.09206
 20
-144.6120799999999
 30
0.0
 40
8.57526
100
AcDbArc
 50
191.0231699999999
 51
191.5780499999999
  0
LINE
  5
2DE
330
1E
100
AcDbEntity
  8
1
  6
CONTINUOUS
 62
     7
100
AcDbLine
 10
-149.09206
 20
-146.9282399999999
 30
0.0
 11
-149.09206
 21
-144.6120799999999
 31
0.0
  0
LINE
  5
2DF
330
1E
100
AcDbEntity
  8
1
  6
CONTINUOUS
 62
     7
100
AcDbLine
 10
-151.6496399999998
 20
-144.6120799999999
 30
0.0
 11
-149.09206
 21
-144.6120799999999
 31
0.0
  0
LINE
  5
2E0
330
1E
100
AcDbEntity
  8
1
  6
CONTINUOUS
 62
     1
100
AcDbLine
 10
-91.74483999999999
 20
-118.8050199999999
 30
0.0
 11
-88.91642
 21
-115.9766
 31
0.0
  0
LINE
  5
2E1
330
1E
100
AcDbEntity
  8
1
  6
CONTINUOUS
 62
     1
100
AcDbLine
 10
-101.74482
 20
-118.8050199999999
 30
0.0
 11
-91.74483999999999
 21
-118.8050199999999
 31
0.0
  0
LINE
  5
2E2
330
1E
100
AcDbEntity
  8
1
  6
CONTINUOUS
 62
     1
100
AcDbLine
 10
-104.57326
 20
-115.9766
 30
0.0
 11
-101.74482
 21
-118.8050199999999
 31
0.0
  0
LINE
  5
2E3
330
1E
100
AcDbEntity
  8
1
  6
CONTINUOUS
 62
     7
100
AcDbLine
 10
-110.23012
 20
-121.63346
 30
0.0
 11
-107.4016899999999
 21
-124.46189
 31
0.0
  0
LINE
  5
2E4
330
1E
100
AcDbEntity
  8
1
  6
CONTINUOUS
 62
     7
100
AcDbLine
 10
-102.45192
 20
-119.5121199999999
 30
0.0
 11
-107.9673699999996
 21
-125.0275699999999
 31
0.0
  0
LINE
  5
2E5
330
1E
100
AcDbEntity
  8
1
  6
CONTINUOUS
 62
     7
100
AcDbLine
 10
-105.28036
 20
-116.6837
 30
0.0
 11
-110.7957999999999
 21
-122.1991399999996
 31
0.0
  0
LINE
  5
2E6
330
1E
100
AcDbEntity
  8
1
  6
CONTINUOUS
 62
     7
100
AcDbLine
 10
-108.47689
 20
-123.83983
 30
0.0
 11
-107.4009999999999
 21
-124.4609999999999
 31
0.0
  0
LINE
  5
2E7
330
1E
100
AcDbEntity
  8
1
  6
CONTINUOUS
 62
     7
100
AcDbLine
 10
-107.4009999999999
 20
-124.4609999999999
 30
0.0
 11
-108.02216
 21
-123.3851
 31
0.0
  0
LINE
  5
2E8
330
1E
100
AcDbEntity
  8
1
  6
CONTINUOUS
 62
     7
100
AcDbLine
 10
-109.1541
 20
-122.25416
 30
0.0
 11
-110.23
 21
-121.6329999999999
 31
0.0
  0
LINE
  5
2E9
330
1E
100
AcDbEntity
  8
1
  6
CONTINUOUS
 62
     7
100
AcDbLine
 10
-110.23
 20
-121.6329999999999
 30
0.0
 11
-109.60883
 21
-122.70889
 31
0.0
  0
LINE
  5
2EA
330
1E
100
AcDbEntity
  8
1
  6
CONTINUOUS
 62
     7
100
AcDbLine
 10
-86.1095
 20
-124.44036
 30
0.0
 11
-83.28108
 21
-121.6119399999999
 31
0.0
  0
LINE
  5
2EB
330
1E
100
AcDbEntity
  8
1
  6
CONTINUOUS
 62
     7
100
AcDbLine
 10
-88.20930999999999
 20
-116.6837
 30
0.0
 11
-82.71539
 21
-122.1776199999995
 31
0.0
  0
LINE
  5
2EC
330
1E
100
AcDbEntity
  8
1
  6
CONTINUOUS
 62
     7
100
AcDbLine
 10
-91.03773000000002
 20
-119.5121199999999
 30
0.0
 11
-85.54380999999997
 21
-125.0060399999999
 31
0.0
  0
LINE
  5
2ED
330
1E
100
AcDbEntity
  8
1
  6
CONTINUOUS
 62
     7
100
AcDbLine
 10
-83.90216
 20
-122.6868899999999
 30
0.0
 11
-83.281
 21
-121.611
 31
0.0
  0
LINE
  5
2EE
330
1E
100
AcDbEntity
  8
1
  6
CONTINUOUS
 62
     7
100
AcDbLine
 10
-83.281
 20
-121.611
 30
0.0
 11
-84.35689000000001
 21
-122.23216
 31
0.0
  0
LINE
  5
2EF
330
1E
100
AcDbEntity
  8
1
  6
CONTINUOUS
 62
     7
100
AcDbLine
 10
-85.48783
 20
-123.3640999999999
 30
0.0
 11
-86.10899999999999
 21
-124.4399999999999
 31
0.0
  0
LINE
  5
2F0
330
1E
100
AcDbEntity
  8
1
  6
CONTINUOUS
 62
     7
100
AcDbLine
 10
-86.10899999999999
 20
-124.4399999999999
 30
0.0
 11
-85.0331
 21
-123.81883
 31
0.0
  0
LINE
  5
2F1
330
1E
100
AcDbEntity
  8
1
  6
CONTINUOUS
 62
     7
100
AcDbLine
 10
-101.74482
 20
-126.8050399999999
 30
0.0
 11
-91.74483999999999
 21
-126.8050399999999
 31
0.0
  0
LINE
  5
2F2
330
1E
100
AcDbEntity
  8
1
  6
CONTINUOUS
 62
     7
100
AcDbLine
 10
-91.74483999999999
 20
-119.8050199999999
 30
0.0
 11
-91.74483999999999
 21
-127.6050399999999
 31
0.0
  0
LINE
  5
2F3
330
1E
100
AcDbEntity
  8
1
  6
CONTINUOUS
 62
     7
100
AcDbLine
 10
-101.74482
 20
-119.8050199999999
 30
0.0
 11
-101.74482
 21
-127.6050399999999
 31
0.0
  0
LINE
  5
2F4
330
1E
100
AcDbEntity
  8
1
  6
CONTINUOUS
 62
     7
100
AcDbLine
 10
-92.94400000000001
 20
-127.12653
 30
0.0
 11
-91.744
 21
-126.805
 31
0.0
  0
LINE
  5
2F5
330
1E
100
AcDbEntity
  8
1
  6
CONTINUOUS
 62
     7
100
AcDbLine
 10
-91.744
 20
-126.805
 30
0.0
 11
-92.94400000000001
 21
-126.48346
 31
0.0
  0
LINE
  5
2F6
330
1E
100
AcDbEntity
  8
1
  6
CONTINUOUS
 62
     7
100
AcDbLine
 10
-100.5439999999999
 20
-126.48346
 30
0.0
 11
-101.744
 21
-126.805
 31
0.0
  0
LINE
  5
2F7
330
1E
100
AcDbEntity
  8
1
  6
CONTINUOUS
 62
     7
100
AcDbLine
 10
-101.744
 20
-126.805
 30
0.0
 11
-100.5439999999999
 21
-127.12653
 31
0.0
  0
TEXT
  5
2F8
330
1E
100
AcDbEntity
  8
1
  6
CONTINUOUS
 62
     7
100
AcDbText
 10
-235.2699799999999
 20
-144.9146399999999
 30
0.0
 40
3.2
  1
Ｒ
 50
2.0
  7
BIGFONT
100
AcDbText
  0
TEXT
  5
2F9
330
1E
100
AcDbEntity
  8
1
  6
CONTINUOUS
 62
     7
100
AcDbText
 10
-148.7666
 20
-144.9902199999999
 30
0.0
 40
3.2
  1
Ｒ
 50
2.0
  7
BIGFONT
100
AcDbText
  0
TEXT
  5
2FA
330
1E
100
AcDbEntity
  8
1
  6
CONTINUOUS
 62
     7
100
AcDbText
 10
-189.572
 20
-152.54282
 30
0.0
 40
3.2
  1
Ｌ
  7
BIGFONT
100
AcDbText
  0
TEXT
  5
2FB
330
1E
100
AcDbEntity
  8
1
  6
CONTINUOUS
 62
     7
100
AcDbText
 10
-186.56224
 20
-152.3667399999999
 30
0.0
 40
2.2
  1
１
 41
1.1363636
  7
BIGFONT
100
AcDbText
  0
TEXT
  5
2FC
330
1E
100
AcDbEntity
  8
1
  6
CONTINUOUS
 62
     7
100
AcDbText
 10
-233.4121799999999
 20
-152.5791
 30
0.0
 40
3.2
  1
Ｌ
  7
BIGFONT
100
AcDbText
  0
TEXT
  5
2FD
330
1E
100
AcDbEntity
  8
1
  6
CONTINUOUS
 62
     7
100
AcDbText
 10
-230.48134
 20
-152.4103799999999
 30
0.0
 40
2.2
  1
３
 41
1.1363636
  7
BIGFONT
100
AcDbText
  0
TEXT
  5
2FE
330
1E
100
AcDbEntity
  8
1
  6
CONTINUOUS
 62
     7
100
AcDbText
 10
-156.56986
 20
-148.21786
 30
0.0
 40
3.2
  1
Ｌ
 50
315.0
  7
BIGFONT
100
AcDbText
  0
TEXT
  5
2FF
330
1E
100
AcDbEntity
  8
1
  6
CONTINUOUS
 62
     7
100
AcDbText
 10
-154.3683399999999
 20
-150.1825399999999
 30
0.0
 40
2.2
  1
２
 50
315.0
 41
1.1363636
  7
BIGFONT
100
AcDbText
  0
TEXT
  5
300
330
1E
100
AcDbEntity
  8
1
  6
CONTINUOUS
 62
     7
100
AcDbText
 10
-137.52846
 20
-152.56482
 30
0.0
 40
3.2
  1
Ｌ
  7
BIGFONT
100
AcDbText
  0
TEXT
  5
301
330
1E
100
AcDbEntity
  8
1
  6
CONTINUOUS
 62
     7
100
AcDbText
 10
-134.5186999999999
 20
-152.3887399999999
 30
0.0
 40
2.2
  1
１
 41
1.1363636
  7
BIGFONT
100
AcDbText
  0
TEXT
  5
302
330
1E
100
AcDbEntity
  8
1
  6
CONTINUOUS
 62
     7
100
AcDbText
 10
-158.1137
 20
-135.5147
 30
0.0
 40
3.2
  1
Ｌ
 50
90.0
  7
BIGFONT
100
AcDbText
  0
TEXT
  5
303
330
1E
100
AcDbEntity
  8
1
  6
CONTINUOUS
 62
     7
100
AcDbText
 10
-158.28242
 20
-132.58386
 30
0.0
 40
2.2
  1
３
 50
90.0
 41
1.1363636
  7
BIGFONT
100
AcDbText
  0
TEXT
  5
304
330
1E
100
AcDbEntity
  8
1
  6
CONTINUOUS
 62
     7
100
AcDbText
 10
-99.65802
 20
-126.34246
 30
0.0
 40
3.2
  1
Ｌ
  7
BIGFONT
100
AcDbText
  0
TEXT
  5
305
330
1E
100
AcDbEntity
  8
1
  6
CONTINUOUS
 62
     7
100
AcDbText
 10
-96.71208
 20
-126.17498
 30
0.0
 40
2.2
  1
２
 41
1.1363636
  7
BIGFONT
100
AcDbText
  0
TEXT
  5
306
330
1E
100
AcDbEntity
  8
1
  6
CONTINUOUS
 62
     7
100
AcDbText
 10
-83.48338000000003
 20
-127.54118
 30
0.0
 40
3.2
  1
Ｌ
 50
45.0
  7
BIGFONT
100
AcDbText
  0
TEXT
  5
307
330
1E
100
AcDbEntity
  8
1
  6
CONTINUOUS
 62
     7
100
AcDbText
 10
-81.47966
 20
-125.28846
 30
0.0
 40
2.2
  1
１
 50
45.0
 41
1.1363636
  7
BIGFONT
100
AcDbText
  0
LINE
  5
308
330
1E
100
AcDbEntity
  8
1
  6
CONTINUOUS
 62
     1
100
AcDbLine
 10
-236.0937799999999
 20
-144.6120799999999
 30
0.0
 11
-236.0937799999999
 21
-111.31208
 31
0.0
  0
ARC
  5
309
330
1E
100
AcDbEntity
  8
1
  6
CONTINUOUS
 62
     1
100
AcDbCircle
 10
-235.49378
 20
-144.6120799999999
 30
0.0
 40
0.6
100
AcDbArc
 50
180.0
 51
270.0
  0
LINE
  5
30A
330
1E
100
AcDbEntity
  8
1
  6
CONTINUOUS
 62
     7
100
AcDbLine
 10
-244.1707
 20
-144.6120799999999
 30
0.0
 11
-244.1707
 21
-111.31208
 31
0.0
  0
LINE
  5
30B
330
1E
100
AcDbEntity
  8
1
  6
CONTINUOUS
 62
     7
100
AcDbLine
 10
-237.1707
 20
-111.31208
 30
0.0
 11
-244.9707
 21
-111.31208
 31
0.0
  0
LINE
  5
30C
330
1E
100
AcDbEntity
  8
1
  6
CONTINUOUS
 62
     7
100
AcDbLine
 10
-237.1707
 20
-144.6120799999999
 30
0.0
 11
-244.9707
 21
-144.6120799999999
 31
0.0
  0
LINE
  5
30D
330
1E
100
AcDbEntity
  8
1
  6
CONTINUOUS
 62
     7
100
AcDbLine
 10
-243.84846
 20
-112.512
 30
0.0
 11
-244.1699999999999
 21
-111.312
 31
0.0
  0
LINE
  5
30E
330
1E
100
AcDbEntity
  8
1
  6
CONTINUOUS
 62
     7
100
AcDbLine
 10
-244.1699999999999
 20
-111.312
 30
0.0
 11
-244.4915299999999
 21
-112.512
 31
0.0
  0
LINE
  5
30F
330
1E
100
AcDbEntity
  8
1
  6
CONTINUOUS
 62
     7
100
AcDbLine
 10
-244.4915299999999
 20
-143.412
 30
0.0
 11
-244.1699999999999
 21
-144.612
 31
0.0
  0
LINE
  5
310
330
1E
100
AcDbEntity
  8
1
  6
CONTINUOUS
 62
     7
100
AcDbLine
 10
-244.1699999999999
 20
-144.612
 30
0.0
 11
-243.84846
 21
-143.412
 31
0.0
  0
ARC
  5
311
330
1E
100
AcDbEntity
  8
1
  6
CONTINUOUS
 62
     7
100
AcDbCircle
 10
-235.5954399999999
 20
-144.6120799999999
 30
0.0
 40
8.57526
100
AcDbArc
 50
191.5780499999999
 51
238.71324
  0
ARC
  5
312
330
1E
100
AcDbEntity
  8
1
  6
CONTINUOUS
 62
     7
100
AcDbCircle
 10
-235.5954399999999
 20
-144.6120799999999
 30
0.0
 40
8.57526
100
AcDbArc
 50
238.71324
 51
246.3633899999999
  0
ARC
  5
313
330
1E
100
AcDbEntity
  8
1
  6
CONTINUOUS
 62
     7
100
AcDbCircle
 10
-235.5954399999999
 20
-144.6120799999999
 30
0.0
 40
8.57526
100
AcDbArc
 50
246.3633899999999
 51
247.8281799999999
  0
ARC
  5
314
330
1E
100
AcDbEntity
  8
1
  6
CONTINUOUS
 62
     7
100
AcDbCircle
 10
-235.5954399999999
 20
-144.6120799999999
 30
0.0
 40
8.57526
100
AcDbArc
 50
247.8281799999999
 51
258.01527
  0
LINE
  5
315
330
1E
100
AcDbEntity
  8
1
  6
CONTINUOUS
 62
     7
100
AcDbLine
 10
-244.0120999999999
 20
-146.25368
 30
0.0
 11
-244.1707
 21
-144.6120799999999
 31
0.0
  0
LINE
  5
316
330
1E
100
AcDbEntity
  8
1
  6
CONTINUOUS
 62
     7
100
AcDbLine
 10
-243.73455
 20
-145.7755099999999
 30
0.0
 11
-244.1699999999999
 21
-144.612
 31
0.0
  0
LINE
  5
317
330
1E
100
AcDbEntity
  8
1
  6
CONTINUOUS
 62
     7
100
AcDbLine
 10
-244.1699999999999
 20
-144.612
 30
0.0
 11
-244.37465
 21
-145.8373499999999
 31
0.0
  0
LINE
  5
318
330
1E
100
AcDbEntity
  8
1
  6
CONTINUOUS
 62
     7
100
AcDbLine
 10
-237.30784
 20
-153.01462
 30
0.0
 11
-235.5954399999999
 21
-153.1873399999998
 31
0.0
  0
LINE
  5
319
330
1E
100
AcDbEntity
  8
1
  6
CONTINUOUS
 62
     7
100
AcDbLine
 10
-236.82121
 20
-153.38648
 30
0.0
 11
-235.5949999999999
 21
-153.187
 31
0.0
  0
LINE
  5
31A
330
1E
100
AcDbEntity
  8
1
  6
CONTINUOUS
 62
     7
100
AcDbLine
 10
-235.5949999999999
 20
-153.187
 30
0.0
 11
-236.75667
 21
-152.7466499999999
 31
0.0
  0
ARC
  5
31B
330
1E
100
AcDbEntity
  8
1
  6
CONTINUOUS
 62
     7
100
AcDbCircle
 10
-235.5954399999999
 20
-144.6120799999999
 30
0.0
 40
8.57526
100
AcDbArc
 50
258.01527
 51
258.41701
  0
LINE
  5
31C
330
1E
100
AcDbEntity
  8
1
  6
CONTINUOUS
 62
     7
100
AcDbLine
 10
-244.1707
 20
-144.6120799999999
 30
0.0
 11
-244.1707
 21
-140.25672
 31
0.0
  0
ARC
  5
31D
330
1E
100
AcDbEntity
  8
1
  6
CONTINUOUS
 62
     7
100
AcDbCircle
 10
-235.5954399999999
 20
-144.6120799999999
 30
0.0
 40
8.57526
100
AcDbArc
 50
191.0231699999999
 51
191.5780499999999
  0
LINE
  5
31E
330
1E
100
AcDbEntity
  8
1
  6
CONTINUOUS
 62
     7
100
AcDbLine
 10
-238.15302
 20
-144.6120799999999
 30
0.0
 11
-235.5954399999999
 21
-144.6120799999999
 31
0.0
  0
TEXT
  5
31F
330
1E
100
AcDbEntity
  8
1
  6
CONTINUOUS
 62
     7
100
AcDbText
 10
-243.07324
 20
-148.21786
 30
0.0
 40
3.2
  1
Ｌ
 50
315.0
  7
BIGFONT
100
AcDbText
  0
TEXT
  5
320
330
1E
100
AcDbEntity
  8
1
  6
CONTINUOUS
 62
     7
100
AcDbText
 10
-240.87172
 20
-150.1825399999999
 30
0.0
 40
2.2
  1
２
 50
315.0
 41
1.1363636
  7
BIGFONT
100
AcDbText
  0
LINE
  5
321
330
1E
100
AcDbEntity
  8
1
  6
CONTINUOUS
 62
     7
100
AcDbLine
 10
-235.5954399999999
 20
-146.93874
 30
0.0
 11
-235.5954399999999
 21
-144.6120799999999
 31
0.0
  0
TEXT
  5
322
330
1E
100
AcDbEntity
  8
1
  6
CONTINUOUS
 62
     7
100
AcDbText
 10
-203.7699799999999
 20
-144.9146399999999
 30
0.0
 40
3.2
  1
Ｒ
 50
2.0
  7
BIGFONT
100
AcDbText
  0
LINE
  5
323
330
1E
100
AcDbEntity
  8
1
  6
CONTINUOUS
 62
     1
100
AcDbLine
 10
-204.5937799999999
 20
-144.6120799999999
 30
0.0
 11
-204.5937799999999
 21
-137.5910799999995
 31
0.0
  0
ARC
  5
324
330
1E
100
AcDbEntity
  8
1
  6
CONTINUOUS
 62
     1
100
AcDbCircle
 10
-203.99378
 20
-144.6120799999999
 30
0.0
 40
0.6
100
AcDbArc
 50
180.0
 51
270.0
  0
LINE
  5
325
330
1E
100
AcDbEntity
  8
1
  6
CONTINUOUS
 62
     7
100
AcDbLine
 10
-212.6707
 20
-144.6120799999999
 30
0.0
 11
-212.6707
 21
-137.5910799999995
 31
0.0
  0
LINE
  5
326
330
1E
100
AcDbEntity
  8
1
  6
CONTINUOUS
 62
     7
100
AcDbLine
 10
-205.6707
 20
-137.5910799999995
 30
0.0
 11
-213.4707
 21
-137.5910799999995
 31
0.0
  0
LINE
  5
327
330
1E
100
AcDbEntity
  8
1
  6
CONTINUOUS
 62
     7
100
AcDbLine
 10
-205.6707
 20
-144.6120799999999
 30
0.0
 11
-213.4707
 21
-144.6120799999999
 31
0.0
  0
LINE
  5
328
330
1E
100
AcDbEntity
  8
1
  6
CONTINUOUS
 62
     7
100
AcDbLine
 10
-212.34846
 20
-138.7909999999999
 30
0.0
 11
-212.67
 21
-137.591
 31
0.0
  0
LINE
  5
329
330
1E
100
AcDbEntity
  8
1
  6
CONTINUOUS
 62
     7
100
AcDbLine
 10
-212.67
 20
-137.591
 30
0.0
 11
-212.9915299999999
 21
-138.7909999999999
 31
0.0
  0
LINE
  5
32A
330
1E
100
AcDbEntity
  8
1
  6
CONTINUOUS
 62
     7
100
AcDbLine
 10
-212.9915299999999
 20
-143.412
 30
0.0
 11
-212.67
 21
-144.612
 31
0.0
  0
LINE
  5
32B
330
1E
100
AcDbEntity
  8
1
  6
CONTINUOUS
 62
     7
100
AcDbLine
 10
-212.67
 20
-144.612
 30
0.0
 11
-212.34846
 21
-143.412
 31
0.0
  0
ARC
  5
32C
330
1E
100
AcDbEntity
  8
1
  6
CONTINUOUS
 62
     7
100
AcDbCircle
 10
-204.0954399999999
 20
-144.6120799999999
 30
0.0
 40
8.57526
100
AcDbArc
 50
191.5780499999999
 51
238.71324
  0
ARC
  5
32D
330
1E
100
AcDbEntity
  8
1
  6
CONTINUOUS
 62
     7
100
AcDbCircle
 10
-204.0954399999999
 20
-144.6120799999999
 30
0.0
 40
8.57526
100
AcDbArc
 50
238.71324
 51
246.3633899999999
  0
ARC
  5
32E
330
1E
100
AcDbEntity
  8
1
  6
CONTINUOUS
 62
     7
100
AcDbCircle
 10
-204.0954399999999
 20
-144.6120799999999
 30
0.0
 40
8.57526
100
AcDbArc
 50
246.3633899999999
 51
247.8281799999999
  0
ARC
  5
32F
330
1E
100
AcDbEntity
  8
1
  6
CONTINUOUS
 62
     7
100
AcDbCircle
 10
-204.0954399999999
 20
-144.6120799999999
 30
0.0
 40
8.57526
100
AcDbArc
 50
247.8281799999999
 51
258.01527
  0
LINE
  5
330
330
1E
100
AcDbEntity
  8
1
  6
CONTINUOUS
 62
     7
100
AcDbLine
 10
-212.5121
 20
-146.25368
 30
0.0
 11
-212.6707
 21
-144.6120799999999
 31
0.0
  0
LINE
  5
331
330
1E
100
AcDbEntity
  8
1
  6
CONTINUOUS
 62
     7
100
AcDbLine
 10
-212.23455
 20
-145.7755099999999
 30
0.0
 11
-212.67
 21
-144.612
 31
0.0
  0
LINE
  5
332
330
1E
100
AcDbEntity
  8
1
  6
CONTINUOUS
 62
     7
100
AcDbLine
 10
-212.67
 20
-144.612
 30
0.0
 11
-212.87465
 21
-145.8373499999999
 31
0.0
  0
LINE
  5
333
330
1E
100
AcDbEntity
  8
1
  6
CONTINUOUS
 62
     7
100
AcDbLine
 10
-205.8078399999998
 20
-153.01462
 30
0.0
 11
-204.0954399999999
 21
-153.1873399999998
 31
0.0
  0
LINE
  5
334
330
1E
100
AcDbEntity
  8
1
  6
CONTINUOUS
 62
     7
100
AcDbLine
 10
-205.32121
 20
-153.38648
 30
0.0
 11
-204.095
 21
-153.187
 31
0.0
  0
LINE
  5
335
330
1E
100
AcDbEntity
  8
1
  6
CONTINUOUS
 62
     7
100
AcDbLine
 10
-204.095
 20
-153.187
 30
0.0
 11
-205.2566699999999
 21
-152.7466499999999
 31
0.0
  0
ARC
  5
336
330
1E
100
AcDbEntity
  8
1
  6
CONTINUOUS
 62
     7
100
AcDbCircle
 10
-204.0954399999999
 20
-144.6120799999999
 30
0.0
 40
8.57526
100
AcDbArc
 50
258.01527
 51
258.41701
  0
LINE
  5
337
330
1E
100
AcDbEntity
  8
1
  6
CONTINUOUS
 62
     7
100
AcDbLine
 10
-212.6707
 20
-144.6120799999999
 30
0.0
 11
-212.6707
 21
-140.25672
 31
0.0
  0
ARC
  5
338
330
1E
100
AcDbEntity
  8
1
  6
CONTINUOUS
 62
     7
100
AcDbCircle
 10
-204.0954399999999
 20
-144.6120799999999
 30
0.0
 40
8.57526
100
AcDbArc
 50
191.0231699999999
 51
191.5780499999999
  0
LINE
  5
339
330
1E
100
AcDbEntity
  8
1
  6
CONTINUOUS
 62
     7
100
AcDbLine
 10
-206.6530199999998
 20
-144.6120799999999
 30
0.0
 11
-204.0954399999999
 21
-144.6120799999999
 31
0.0
  0
TEXT
  5
33A
330
1E
100
AcDbEntity
  8
1
  6
CONTINUOUS
 62
     7
100
AcDbText
 10
-211.57324
 20
-148.21786
 30
0.0
 40
3.2
  1
Ｌ
 50
315.0
  7
BIGFONT
100
AcDbText
  0
TEXT
  5
33B
330
1E
100
AcDbEntity
  8
1
  6
CONTINUOUS
 62
     7
100
AcDbText
 10
-209.3717199999999
 20
-150.1825399999999
 30
0.0
 40
2.2
  1
２
 50
315.0
 41
1.1363636
  7
BIGFONT
100
AcDbText
  0
TEXT
  5
33C
330
1E
100
AcDbEntity
  8
1
  6
CONTINUOUS
 62
     7
100
AcDbText
 10
-213.11708
 20
-143.8042
 30
0.0
 40
3.2
  1
Ｌ
 50
90.0
  7
BIGFONT
100
AcDbText
  0
TEXT
  5
33D
330
1E
100
AcDbEntity
  8
1
  6
CONTINUOUS
 62
     7
100
AcDbText
 10
-213.2858
 20
-140.87336
 30
0.0
 40
2.2
  1
３
 50
90.0
 41
1.1363636
  7
BIGFONT
100
AcDbText
  0
LINE
  5
33E
330
1E
100
AcDbEntity
  8
1
  6
CONTINUOUS
 62
     7
100
AcDbLine
 10
-204.0954399999999
 20
-146.93874
 30
0.0
 11
-204.0954399999999
 21
-144.6120799999999
 31
0.0
  0
TEXT
  5
33F
330
1E
100
AcDbEntity
  8
1
  6
CONTINUOUS
 62
     7
100
AcDbText
 10
-113.61886
 20
-123.9727399999999
 30
0.0
 40
3.2
  1
Ｌ
 50
315.0
  7
BIGFONT
100
AcDbText
  0
TEXT
  5
340
330
1E
100
AcDbEntity
  8
1
  6
CONTINUOUS
 62
     7
100
AcDbText
 10
-111.42714
 20
-125.92586
 30
0.0
 40
2.2
  1
３
 50
315.0
 41
1.1363636
  7
BIGFONT
100
AcDbText
  0
LINE
  5
341
330
1E
100
AcDbEntity
  8
1
  6
CONTINUOUS
 62
     1
100
AcDbLine
 10
-60.34985999999999
 20
-145.21208
 30
0.0
 11
-32.94986
 21
-145.21208
 31
0.0
  0
LINE
  5
342
330
1E
100
AcDbEntity
  8
1
  6
CONTINUOUS
 62
     1
100
AcDbLine
 10
-60.94986
 20
-144.6120799999999
 30
0.0
 11
-60.94986
 21
-120.21208
 31
0.0
  0
ARC
  5
343
330
1E
100
AcDbEntity
  8
1
  6
CONTINUOUS
 62
     1
100
AcDbCircle
 10
-60.34985999999999
 20
-144.6120799999999
 30
0.0
 40
0.6
100
AcDbArc
 50
180.0
 51
270.0
  0
LINE
  5
344
330
1E
100
AcDbEntity
  8
1
  6
CONTINUOUS
 62
     7
100
AcDbLine
 10
-60.45151999999998
 20
-153.18166
 30
0.0
 11
-32.94986
 21
-153.18166
 31
0.0
  0
LINE
  5
345
330
1E
100
AcDbEntity
  8
1
  6
CONTINUOUS
 62
     7
100
AcDbLine
 10
-32.94986
 20
-146.21208
 30
0.0
 11
-32.94986
 21
-153.9816599999998
 31
0.0
  0
LINE
  5
346
330
1E
100
AcDbEntity
  8
1
  6
CONTINUOUS
 62
     7
100
AcDbLine
 10
-60.45151999999998
 20
-145.59438
 30
0.0
 11
-60.45151999999998
 21
-153.9816599999998
 31
0.0
  0
LINE
  5
347
330
1E
100
AcDbEntity
  8
1
  6
CONTINUOUS
 62
     7
100
AcDbLine
 10
-34.149
 20
-153.50253
 30
0.0
 11
-32.949
 21
-153.181
 31
0.0
  0
LINE
  5
348
330
1E
100
AcDbEntity
  8
1
  6
CONTINUOUS
 62
     7
100
AcDbLine
 10
-32.949
 20
-153.181
 30
0.0
 11
-34.149
 21
-152.85946
 31
0.0
  0
LINE
  5
349
330
1E
100
AcDbEntity
  8
1
  6
CONTINUOUS
 62
     7
100
AcDbLine
 10
-59.251
 20
-152.85946
 30
0.0
 11
-60.451
 21
-153.181
 31
0.0
  0
LINE
  5
34A
330
1E
100
AcDbEntity
  8
1
  6
CONTINUOUS
 62
     7
100
AcDbLine
 10
-60.451
 20
-153.181
 30
0.0
 11
-59.251
 21
-153.50253
 31
0.0
  0
LINE
  5
34B
330
1E
100
AcDbEntity
  8
1
  6
CONTINUOUS
 62
     7
100
AcDbLine
 10
-69.02678
 20
-144.6120799999999
 30
0.0
 11
-69.02678
 21
-120.21208
 31
0.0
  0
LINE
  5
34C
330
1E
100
AcDbEntity
  8
1
  6
CONTINUOUS
 62
     7
100
AcDbLine
 10
-62.02678
 20
-120.21208
 30
0.0
 11
-69.82677999999999
 21
-120.21208
 31
0.0
  0
LINE
  5
34D
330
1E
100
AcDbEntity
  8
1
  6
CONTINUOUS
 62
     7
100
AcDbLine
 10
-62.02678
 20
-144.6120799999999
 30
0.0
 11
-69.82677999999999
 21
-144.6120799999999
 31
0.0
  0
LINE
  5
34E
330
1E
100
AcDbEntity
  8
1
  6
CONTINUOUS
 62
     7
100
AcDbLine
 10
-68.70446
 20
-121.412
 30
0.0
 11
-69.02599999999999
 21
-120.212
 31
0.0
  0
LINE
  5
34F
330
1E
100
AcDbEntity
  8
1
  6
CONTINUOUS
 62
     7
100
AcDbLine
 10
-69.02599999999999
 20
-120.212
 30
0.0
 11
-69.34753
 21
-121.412
 31
0.0
  0
LINE
  5
350
330
1E
100
AcDbEntity
  8
1
  6
CONTINUOUS
 62
     7
100
AcDbLine
 10
-69.34753
 20
-143.412
 30
0.0
 11
-69.02599999999999
 21
-144.612
 31
0.0
  0
LINE
  5
351
330
1E
100
AcDbEntity
  8
1
  6
CONTINUOUS
 62
     7
100
AcDbLine
 10
-69.02599999999999
 20
-144.612
 30
0.0
 11
-68.70446
 21
-143.412
 31
0.0
  0
ARC
  5
352
330
1E
100
AcDbEntity
  8
1
  6
CONTINUOUS
 62
     7
100
AcDbCircle
 10
-60.45151999999998
 20
-144.6120799999999
 30
0.0
 40
8.57526
100
AcDbArc
 50
191.5780499999999
 51
238.71324
  0
ARC
  5
353
330
1E
100
AcDbEntity
  8
1
  6
CONTINUOUS
 62
     7
100
AcDbCircle
 10
-60.45151999999998
 20
-144.6120799999999
 30
0.0
 40
8.57526
100
AcDbArc
 50
238.71324
 51
246.3633899999999
  0
LINE
  5
354
330
1E
100
AcDbEntity
  8
1
  6
CONTINUOUS
 62
     7
100
AcDbLine
 10
-60.45151999999998
 20
-152.3648
 30
0.0
 11
-60.45151999999998
 21
-150.58158
 31
0.0
  0
ARC
  5
355
330
1E
100
AcDbEntity
  8
1
  6
CONTINUOUS
 62
     7
100
AcDbCircle
 10
-60.45151999999998
 20
-144.6120799999999
 30
0.0
 40
8.57526
100
AcDbArc
 50
246.3633899999999
 51
247.8281799999999
  0
ARC
  5
356
330
1E
100
AcDbEntity
  8
1
  6
CONTINUOUS
 62
     7
100
AcDbCircle
 10
-60.45151999999998
 20
-144.6120799999999
 30
0.0
 40
8.57526
100
AcDbArc
 50
247.8281799999999
 51
258.01527
  0
LINE
  5
357
330
1E
100
AcDbEntity
  8
1
  6
CONTINUOUS
 62
     7
100
AcDbLine
 10
-68.86818000000001
 20
-146.25368
 30
0.0
 11
-69.02678
 21
-144.6120799999999
 31
0.0
  0
LINE
  5
358
330
1E
100
AcDbEntity
  8
1
  6
CONTINUOUS
 62
     7
100
AcDbLine
 10
-68.59054999999999
 20
-145.7755099999999
 30
0.0
 11
-69.02599999999999
 21
-144.612
 31
0.0
  0
LINE
  5
359
330
1E
100
AcDbEntity
  8
1
  6
CONTINUOUS
 62
     7
100
AcDbLine
 10
-69.02599999999999
 20
-144.612
 30
0.0
 11
-69.23065
 21
-145.8373499999999
 31
0.0
  0
LINE
  5
35A
330
1E
100
AcDbEntity
  8
1
  6
CONTINUOUS
 62
     7
100
AcDbLine
 10
-62.16391999999999
 20
-153.01462
 30
0.0
 11
-60.45151999999998
 21
-153.1873399999998
 31
0.0
  0
LINE
  5
35B
330
1E
100
AcDbEntity
  8
1
  6
CONTINUOUS
 62
     7
100
AcDbLine
 10
-61.67721
 20
-153.38648
 30
0.0
 11
-60.451
 21
-153.187
 31
0.0
  0
LINE
  5
35C
330
1E
100
AcDbEntity
  8
1
  6
CONTINUOUS
 62
     7
100
AcDbLine
 10
-60.451
 20
-153.187
 30
0.0
 11
-61.61266999999998
 21
-152.7466499999999
 31
0.0
  0
ARC
  5
35D
330
1E
100
AcDbEntity
  8
1
  6
CONTINUOUS
 62
     7
100
AcDbCircle
 10
-60.45151999999998
 20
-144.6120799999999
 30
0.0
 40
8.57526
100
AcDbArc
 50
258.01527
 51
258.41701
  0
LINE
  5
35E
330
1E
100
AcDbEntity
  8
1
  6
CONTINUOUS
 62
     7
100
AcDbLine
 10
-60.45151999999998
 20
-153.00988
 30
0.0
 11
-60.45151999999998
 21
-152.3648
 31
0.0
  0
LINE
  5
35F
330
1E
100
AcDbEntity
  8
1
  6
CONTINUOUS
 62
     7
100
AcDbLine
 10
-69.02678
 20
-144.6120799999999
 30
0.0
 11
-69.02678
 21
-140.25672
 31
0.0
  0
ARC
  5
360
330
1E
100
AcDbEntity
  8
1
  6
CONTINUOUS
 62
     7
100
AcDbCircle
 10
-60.45151999999998
 20
-144.6120799999999
 30
0.0
 40
8.57526
100
AcDbArc
 50
191.0231699999999
 51
191.5780499999999
  0
LINE
  5
361
330
1E
100
AcDbEntity
  8
1
  6
CONTINUOUS
 62
     7
100
AcDbLine
 10
-60.45151999999998
 20
-146.9282399999999
 30
0.0
 11
-60.45151999999998
 21
-144.6120799999999
 31
0.0
  0
LINE
  5
362
330
1E
100
AcDbEntity
  8
1
  6
CONTINUOUS
 62
     7
100
AcDbLine
 10
-63.0091
 20
-144.6120799999999
 30
0.0
 11
-60.45151999999998
 21
-144.6120799999999
 31
0.0
  0
TEXT
  5
363
330
1E
100
AcDbEntity
  8
1
  6
CONTINUOUS
 62
     7
100
AcDbText
 10
-60.12605999999999
 20
-144.9902199999999
 30
0.0
 40
3.2
  1
Ｒ
 50
2.0
  7
BIGFONT
100
AcDbText
  0
TEXT
  5
364
330
1E
100
AcDbEntity
  8
1
  6
CONTINUOUS
 62
     7
100
AcDbText
 10
-67.92931999999999
 20
-148.21786
 30
0.0
 40
3.2
  1
Ｌ
 50
315.0
  7
BIGFONT
100
AcDbText
  0
TEXT
  5
365
330
1E
100
AcDbEntity
  8
1
  6
CONTINUOUS
 62
     7
100
AcDbText
 10
-65.7278
 20
-150.1825399999999
 30
0.0
 40
2.2
  1
２
 50
315.0
 41
1.1363636
  7
BIGFONT
100
AcDbText
  0
TEXT
  5
366
330
1E
100
AcDbEntity
  8
1
  6
CONTINUOUS
 62
     7
100
AcDbText
 10
-48.88792
 20
-152.56482
 30
0.0
 40
3.2
  1
Ｌ
  7
BIGFONT
100
AcDbText
  0
TEXT
  5
367
330
1E
100
AcDbEntity
  8
1
  6
CONTINUOUS
 62
     7
100
AcDbText
 10
-45.87816
 20
-152.3887399999999
 30
0.0
 40
2.2
  1
１
 41
1.1363636
  7
BIGFONT
100
AcDbText
  0
TEXT
  5
368
330
1E
100
AcDbEntity
  8
1
  6
CONTINUOUS
 62
     7
100
AcDbText
 10
-69.47315999999999
 20
-135.5147
 30
0.0
 40
3.2
  1
Ｌ
 50
90.0
  7
BIGFONT
100
AcDbText
  0
TEXT
  5
369
330
1E
100
AcDbEntity
  8
1
  6
CONTINUOUS
 62
     7
100
AcDbText
 10
-69.64188
 20
-132.58386
 30
0.0
 40
2.2
  1
３
 50
90.0
 41
1.1363636
  7
BIGFONT
100
AcDbText
  0
CIRCLE
  5
36A
330
1E
100
AcDbEntity
  8
1
  6
CONTINUOUS
 62
     7
100
AcDbCircle
 10
-226.3367
 20
-130.11998
 30
0.0
 40
2.497799999999998
  0
TEXT
  5
36B
330
1E
100
AcDbEntity
  8
1
  6
CONTINUOUS
 62
     7
100
AcDbText
 10
-227.8699399999999
 20
-131.91936
 30
0.0
 40
3.2
  1
１
  7
BIGFONT
100
AcDbText
  0
LINE
  5
36C
330
1E
100
AcDbEntity
  8
1
  6
CONTINUOUS
 62
     7
100
AcDbLine
 10
-231.18826
 20
-132.63814
 30
0.0
 11
-220.6511799999999
 21
-132.63814
 31
0.0
  0
LINE
  5
36D
330
1E
100
AcDbEntity
  8
1
  6
CONTINUOUS
 62
     7
100
AcDbLine
 10
-52.6015
 20
-133.89106
 30
0.0
 11
-40.02756
 21
-133.89106
 31
0.0
  0
CIRCLE
  5
36E
330
1E
100
AcDbEntity
  8
1
  6
CONTINUOUS
 62
     7
100
AcDbCircle
 10
-189.6523
 20
-135.4710999999996
 30
0.0
 40
2.497799999999998
  0
CIRCLE
  5
36F
330
1E
100
AcDbEntity
  8
1
  6
CONTINUOUS
 62
     7
100
AcDbCircle
 10
-137.95954
 20
-132.9491999999999
 30
0.0
 40
2.497799999999998
  0
CIRCLE
  5
370
330
1E
100
AcDbEntity
  8
1
  6
CONTINUOUS
 62
     7
100
AcDbCircle
 10
-96.99474000000002
 20
-110.17306
 30
0.0
 40
2.497799999999998
  0
CIRCLE
  5
371
330
1E
100
AcDbEntity
  8
1
  6
CONTINUOUS
 62
     7
100
AcDbCircle
 10
-48.81800000000001
 20
-131.3835399999996
 30
0.0
 40
2.497799999999998
  0
CIRCLE
  5
372
330
1E
100
AcDbEntity
  8
1
  6
CONTINUOUS
 62
     7
100
AcDbCircle
 10
-43.8233
 20
-131.33366
 30
0.0
 40
2.497799999999998
  0
TEXT
  5
373
330
1E
100
AcDbEntity
  8
1
  6
CONTINUOUS
 62
     7
100
AcDbText
 10
-191.1842
 20
-137.25642
 30
0.0
 40
3.2
  1
２
  7
BIGFONT
100
AcDbText
  0
TEXT
  5
374
330
1E
100
AcDbEntity
  8
1
  6
CONTINUOUS
 62
     7
100
AcDbText
 10
-139.4923
 20
-134.7648199999995
 30
0.0
 40
3.2
  1
３
  7
BIGFONT
100
AcDbText
  0
TEXT
  5
375
330
1E
100
AcDbEntity
  8
1
  6
CONTINUOUS
 62
     7
100
AcDbText
 10
-98.60660000000001
 20
-111.97676
 30
0.0
 40
3.2
  1
４
  7
BIGFONT
100
AcDbText
  0
TEXT
  5
376
330
1E
100
AcDbEntity
  8
1
  6
CONTINUOUS
 62
     7
100
AcDbText
 10
-50.32004
 20
-133.2148799999999
 30
0.0
 40
3.2
  1
５
  7
BIGFONT
100
AcDbText
  0
TEXT
  5
377
330
1E
100
AcDbEntity
  8
1
  6
CONTINUOUS
 62
     7
100
AcDbText
 10
-45.42329999999998
 20
-133.1604199999999
 30
0.0
 40
3.2
  1
６
  7
BIGFONT
100
AcDbText
  0
LINE
  5
378
330
1E
100
AcDbEntity
  8
1
  6
CONTINUOUS
 62
     7
100
AcDbLine
 10
-102.17758
 20
-112.67086
 30
0.0
 11
-92.03771999999998
 21
-112.67086
 31
0.0
  0
LINE
  5
379
330
1E
100
AcDbEntity
  8
1
  6
CONTINUOUS
 62
     7
100
AcDbLine
 10
-194.5916399999999
 20
-137.96836
 30
0.0
 11
-184.05456
 21
-137.96836
 31
0.0
  0
LINE
  5
37A
330
1E
100
AcDbEntity
  8
1
  6
CONTINUOUS
 62
     7
100
AcDbLine
 10
-142.8469599999999
 20
-135.447
 30
0.0
 11
-132.3098799999999
 21
-135.447
 31
0.0
  0
TEXT
  5
37B
330
1E
100
AcDbEntity
  8
1
  6
CONTINUOUS
 62
     7
100
AcDbText
 10
-244.5695
 20
-130.98798
 30
0.0
 40
3.2
  1
Ｌ
 50
90.0
  7
BIGFONT
100
AcDbText
  0
TEXT
  5
37C
330
1E
100
AcDbEntity
  8
1
  6
CONTINUOUS
 62
     7
100
AcDbText
 10
-244.7455799999999
 20
-127.9782199999999
 30
0.0
 40
2.2
  1
１
 50
90.0
 41
1.1363636
  7
BIGFONT
100
AcDbText
  0
LINE
  5
37D
330
1E
100
AcDbEntity
  8
0
  6
CONTINUOUS
 62
     7
100
AcDbLine
 10
207.5
 20
-48.14705
 30
0.0
 11
207.5
 21
-20.64705
 31
0.0
  0
LINE
  5
37E
330
1E
100
AcDbEntity
  8
0
  6
CONTINUOUS
 62
     7
100
AcDbLine
 10
205.29985
 20
-65.94689999999999
 30
0.0
 11
215.2998499999999
 21
-55.94689999999999
 31
0.0
  0
LINE
  5
37F
330
1E
100
AcDbEntity
  8
0
  6
CONTINUOUS
 62
     7
100
AcDbLine
 10
208.2071
 20
-48.85415
 30
0.0
 11
215.8655299999999
 21
-56.51258000000001
 31
0.0
  0
LINE
  5
380
330
1E
100
AcDbEntity
  8
0
  6
CONTINUOUS
 62
     7
100
AcDbLine
 10
198.2070999999999
 20
-58.85415
 30
0.0
 11
205.86553
 21
-66.51258
 31
0.0
  0
LINE
  5
381
330
1E
100
AcDbEntity
  8
0
  6
CONTINUOUS
 62
     7
100
AcDbLine
 10
214.6778299999999
 20
-57.02189
 30
0.0
 11
215.2989999999999
 21
-55.94599999999999
 31
0.0
  0
LINE
  5
382
330
1E
100
AcDbEntity
  8
0
  6
CONTINUOUS
 62
     7
100
AcDbLine
 10
215.2989999999999
 20
-55.94599999999999
 30
0.0
 11
214.2230999999999
 21
-56.56716
 31
0.0
  0
LINE
  5
383
330
1E
100
AcDbEntity
  8
0
  6
CONTINUOUS
 62
     7
100
AcDbLine
 10
205.92016
 20
-64.87009999999999
 30
0.0
 11
205.299
 21
-65.94599999999998
 31
0.0
  0
LINE
  5
384
330
1E
100
AcDbEntity
  8
0
  6
CONTINUOUS
 62
     7
100
AcDbLine
 10
205.299
 20
-65.94599999999998
 30
0.0
 11
206.3748899999999
 21
-65.32483
 31
0.0
  0
TEXT
  5
385
330
1E
100
AcDbEntity
  8
0
  6
CONTINUOUS
 62
     7
100
AcDbText
 10
207.25929
 20
-63.42176999999999
 30
0.0
 40
3.2
  1
283
 50
45.0
 41
0.8125
  7
BIGFONT
100
AcDbText
  0
LINE
  5
386
330
1E
100
AcDbEntity
  8
0
  6
CONTINUOUS
 62
     7
100
AcDbLine
 10
-87.62500000000001
 20
-58.14705
 30
0.0
 11
-60.125
 21
-58.14705
 31
0.0
  0
LINE
  5
387
330
1E
100
AcDbEntity
  8
0
  6
CONTINUOUS
 62
     7
100
AcDbLine
 10
-50.125
 20
-48.14705
 30
0.0
 11
-50.125
 21
-20.64705
 31
0.0
  0
LINE
  5
388
330
1E
100
AcDbEntity
  8
0
  6
CONTINUOUS
 62
     7
100
AcDbLine
 10
-202.0656999999999
 20
-58.14705
 30
0.0
 11
-174.5657
 21
-58.14705
 31
0.0
  0
LINE
  5
389
330
1E
100
AcDbEntity
  8
0
  6
CONTINUOUS
 62
     7
100
AcDbLine
 10
-164.5656999999999
 20
-48.14705
 30
0.0
 11
-164.5656999999999
 21
-20.64705
 31
0.0
  0
TEXT
  5
38A
330
1E
100
AcDbEntity
  8
0
  6
CONTINUOUS
 62
     7
100
AcDbText
 10
56.9737
 20
96.67855000000001
 30
0.0
 40
3.2
  1
D10
  7
BIGFONT
100
AcDbText
  0
LINE
  5
38B
330
1E
100
AcDbEntity
  8
0
  6
CONTINUOUS
 62
     7
100
AcDbLine
 10
50.7792
 20
95.88635
 30
0.0
 11
65.7792
 21
95.88635
 31
0.0
  0
CIRCLE
  5
38C
330
1E
100
AcDbEntity
  8
0
  6
CONTINUOUS
 62
     7
100
AcDbCircle
 10
53.6812
 20
98.3802
 30
0.0
 40
2.5
  0
TEXT
  5
38D
330
1E
100
AcDbEntity
  8
0
  6
CONTINUOUS
 62
     7
100
AcDbText
 10
52.03275
 20
96.67010000000001
 30
0.0
 40
3.2
  1
４
  7
BIGFONT
100
AcDbText
  0
CIRCLE
  5
38E
330
1E
100
AcDbEntity
  8
0
  6
CONTINUOUS
 62
     7
100
AcDbCircle
 10
27.0066
 20
91.1341
 30
0.0
 40
2.5
  0
TEXT
  5
38F
330
1E
100
AcDbEntity
  8
0
  6
CONTINUOUS
 62
     7
100
AcDbText
 10
28.7448
 20
89.57984999999998
 30
0.0
 40
3.2
  1
３
 50
90.0
  7
BIGFONT
100
AcDbText
  0
TEXT
  5
390
330
1E
100
AcDbEntity
  8
0
  6
CONTINUOUS
 62
     7
100
AcDbText
 10
28.63234999999999
 20
94.7273
 30
0.0
 40
3.2
  1
D10
 50
90.0
  7
BIGFONT
100
AcDbText
  0
LINE
  5
391
330
1E
100
AcDbEntity
  8
0
  6
CONTINUOUS
 62
     7
100
AcDbLine
 10
29.504
 20
88.17629999999999
 30
0.0
 11
29.504
 21
103.1762999999999
 31
0.0
  0
CIRCLE
  5
392
330
1E
100
AcDbEntity
  8
0
  6
CONTINUOUS
 62
     7
100
AcDbCircle
 10
66.7783
 20
90.12739999999999
 30
0.0
 40
2.5
  0
TEXT
  5
393
330
1E
100
AcDbEntity
  8
0
  6
CONTINUOUS
 62
     7
100
AcDbText
 10
65.22034999999999
 20
88.5335
 30
0.0
 40
3.2
  1
２
  7
BIGFONT
100
AcDbText
  0
CIRCLE
  5
394
330
1E
100
AcDbEntity
  8
0
  6
CONTINUOUS
 62
     7
100
AcDbCircle
 10
53.78225
 20
68.5468
 30
0.0
 40
2.5
  0
TEXT
  5
395
330
1E
100
AcDbEntity
  8
0
  6
CONTINUOUS
 62
     7
100
AcDbText
 10
52.178
 20
66.9086
 30
0.0
 40
3.2
  1
３
  7
BIGFONT
100
AcDbText
  0
TEXT
  5
396
330
1E
100
AcDbEntity
  8
0
  6
CONTINUOUS
 62
     7
100
AcDbText
 10
57.37545
 20
66.92104999999999
 30
0.0
 40
3.2
  1
D10
  7
BIGFONT
100
AcDbText
  0
LINE
  5
397
330
1E
100
AcDbEntity
  8
0
  6
CONTINUOUS
 62
     7
100
AcDbLine
 10
50.75
 20
66.0494
 30
0.0
 11
65.75
 21
66.0494
 31
0.0
  0
TEXT
  5
398
330
1E
100
AcDbEntity
  8
0
  6
CONTINUOUS
 62
     7
100
AcDbText
 10
70.5858
 20
88.35725
 30
0.0
 40
3.2
  1
D10
  7
BIGFONT
100
AcDbText
  0
LINE
  5
399
330
1E
100
AcDbEntity
  8
0
  6
CONTINUOUS
 62
     7
100
AcDbLine
 10
63.98155
 20
87.5941
 30
0.0
 11
78.98155
 21
87.5941
 31
0.0
  0
CIRCLE
  5
39A
330
1E
100
AcDbEntity
  8
0
  6
CONTINUOUS
 62
     7
100
AcDbCircle
 10
-189.87125
 20
106.79815
 30
0.0
 40
2.5
  0
TEXT
  5
39B
330
1E
100
AcDbEntity
  8
0
  6
CONTINUOUS
 62
     7
100
AcDbText
 10
-191.3877
 20
105.06265
 30
0.0
 40
3.2
  1
６
  7
BIGFONT
100
AcDbText
  0
TEXT
  5
39C
330
1E
100
AcDbEntity
  8
0
  6
CONTINUOUS
 62
     7
100
AcDbText
 10
-186.6146999999999
 20
105.1759499999999
 30
0.0
 40
3.2
  1
D10
  7
BIGFONT
100
AcDbText
  0
LINE
  5
39D
330
1E
100
AcDbEntity
  8
0
  6
CONTINUOUS
 62
     7
100
AcDbLine
 10
-193.3156999999999
 20
104.3096
 30
0.0
 11
-178.3156999999999
 21
104.3096
 31
0.0
  0
CIRCLE
  5
39E
330
1E
100
AcDbEntity
  8
0
  6
CONTINUOUS
 62
     7
100
AcDbCircle
 10
-157.0374499999998
 20
94.55564999999999
 30
0.0
 40
2.5
  0
CIRCLE
  5
39F
330
1E
100
AcDbEntity
  8
0
  6
CONTINUOUS
 62
     7
100
AcDbCircle
 10
-157.0685499999999
 20
71.5463
 30
0.0
 40
2.5
  0
TEXT
  5
3A0
330
1E
100
AcDbEntity
  8
0
  6
CONTINUOUS
 62
     7
100
AcDbText
 10
-155.29925
 20
93.0014
 30
0.0
 40
3.2
  1
３
 50
90.0
  7
BIGFONT
100
AcDbText
  0
TEXT
  5
3A1
330
1E
100
AcDbEntity
  8
0
  6
CONTINUOUS
 62
     7
100
AcDbText
 10
-155.35845
 20
69.89785000000001
 30
0.0
 40
3.2
  1
４
 50
90.0
  7
BIGFONT
100
AcDbText
  0
TEXT
  5
3A2
330
1E
100
AcDbEntity
  8
0
  6
CONTINUOUS
 62
     7
100
AcDbText
 10
-155.4260999999999
 20
97.83195
 30
0.0
 40
3.2
  1
D10
 50
90.0
  7
BIGFONT
100
AcDbText
  0
LINE
  5
3A3
330
1E
100
AcDbEntity
  8
0
  6
CONTINUOUS
 62
     7
100
AcDbLine
 10
-154.55975
 20
90.93094999999999
 30
0.0
 11
-154.55975
 21
105.9309499999999
 31
0.0
  0
TEXT
  5
3A4
330
1E
100
AcDbEntity
  8
0
  6
CONTINUOUS
 62
     7
100
AcDbText
 10
-155.43645
 20
74.76635
 30
0.0
 40
3.2
  1
D10
 50
90.0
  7
BIGFONT
100
AcDbText
  0
LINE
  5
3A5
330
1E
100
AcDbEntity
  8
0
  6
CONTINUOUS
 62
     7
100
AcDbLine
 10
-154.5701
 20
68.91535000000001
 30
0.0
 11
-154.5701
 21
83.91535000000002
 31
0.0
  0
LINE
  5
3A6
330
1E
100
AcDbEntity
  8
0
  6
CONTINUOUS
 62
     1
100
AcDbLine
 10
-84.875
 20
-55.64705
 30
0.0
 11
-61.1605
 21
-55.64705
 31
0.0
  0
LINE
  5
3A7
330
1E
100
AcDbEntity
  8
0
  6
CONTINUOUS
 62
     1
100
AcDbLine
 10
-52.625
 20
-47.11155
 30
0.0
 11
-52.625
 21
-23.44705
 31
0.0
  0
LINE
  5
3A8
330
1E
100
AcDbEntity
  8
0
  6
CONTINUOUS
 62
     1
100
AcDbLine
 10
-61.1605
 20
-55.64705
 30
0.0
 11
-52.625
 21
-47.11155
 31
0.0
  0
LINE
  5
3A9
330
1E
100
AcDbEntity
  8
0
  6
CONTINUOUS
 62
     7
100
AcDbLine
 10
-47.92025
 20
-60.22549999999998
 30
0.0
 11
-56.7591
 21
-51.38665
 31
0.0
  0
LINE
  5
3AA
330
1E
100
AcDbEntity
  8
0
  6
CONTINUOUS
 62
     7
100
AcDbLine
 10
-55.6831
 20
-52.00715999999999
 30
0.0
 11
-56.75899999999999
 21
-51.386
 31
0.0
  0
LINE
  5
3AB
330
1E
100
AcDbEntity
  8
0
  6
CONTINUOUS
 62
     7
100
AcDbLine
 10
-56.75899999999999
 20
-51.386
 30
0.0
 11
-56.13783000000001
 21
-52.46189000000001
 31
0.0
  0
CIRCLE
  5
3AC
330
1E
100
AcDbEntity
  8
0
  6
CONTINUOUS
 62
     7
100
AcDbCircle
 10
-97.3206
 20
-46.08534999999998
 30
0.0
 40
2.5
  0
TEXT
  5
3AD
330
1E
100
AcDbEntity
  8
0
  6
CONTINUOUS
 62
     7
100
AcDbText
 10
-95.5851
 20
-47.6018
 30
0.0
 40
3.2
  1
６
 50
90.0
  7
BIGFONT
100
AcDbText
  0
TEXT
  5
3AE
330
1E
100
AcDbEntity
  8
0
  6
CONTINUOUS
 62
     7
100
AcDbText
 10
-47.03339999999999
 20
-58.35155
 30
0.0
 40
3.2
  1
７
 50
45.0
  7
BIGFONT
100
AcDbText
  0
CIRCLE
  5
3AF
330
1E
100
AcDbEntity
  8
0
  6
CONTINUOUS
 62
     7
100
AcDbCircle
 10
-47.2116
 20
-55.96095
 30
0.0
 40
2.5
  0
TEXT
  5
3B0
330
1E
100
AcDbEntity
  8
0
  6
CONTINUOUS
 62
     7
100
AcDbText
 10
-95.69840000000001
 20
-42.8288
 30
0.0
 40
3.2
  1
D10
 50
90.0
  7
BIGFONT
100
AcDbText
  0
LINE
  5
3B1
330
1E
100
AcDbEntity
  8
0
  6
CONTINUOUS
 62
     7
100
AcDbLine
 10
-94.83204999999999
 20
-49.3798
 30
0.0
 11
-94.83204999999999
 21
-34.3798
 31
0.0
  0
TEXT
  5
3B2
330
1E
100
AcDbEntity
  8
0
  6
CONTINUOUS
 62
     7
100
AcDbText
 10
-43.63445
 20
-54.95205
 30
0.0
 40
3.2
  1
D10
 50
45.0
  7
BIGFONT
100
AcDbText
  0
LINE
  5
3B3
330
1E
100
AcDbEntity
  8
0
  6
CONTINUOUS
 62
     7
100
AcDbLine
 10
-47.91855
 20
-60.22899999999999
 30
0.0
 11
-37.31195
 21
-49.6224
 31
0.0
  0
LINE
  5
3B4
330
1E
100
AcDbEntity
  8
0
  6
CONTINUOUS
 62
     7
100
AcDbLine
 10
-94.83204999999999
 20
-49.3798
 30
0.0
 11
-84.87390000000003
 21
-49.3798
 31
0.0
  0
LINE
  5
3B5
330
1E
100
AcDbEntity
  8
0
  6
CONTINUOUS
 62
     7
100
AcDbLine
 10
-86.073
 20
-49.70053
 30
0.0
 11
-84.87300000000002
 21
-49.37899999999999
 31
0.0
  0
LINE
  5
3B6
330
1E
100
AcDbEntity
  8
0
  6
CONTINUOUS
 62
     7
100
AcDbLine
 10
-84.87300000000002
 20
-49.37899999999999
 30
0.0
 11
-86.073
 21
-49.05746
 31
0.0
  0
CIRCLE
  5
3B7
330
1E
100
AcDbEntity
  8
0
  6
CONTINUOUS
 62
     7
100
AcDbCircle
 10
-183.1962499999999
 20
-65.66934999999999
 30
0.0
 40
2.5
  0
CIRCLE
  5
3B8
330
1E
100
AcDbEntity
  8
0
  6
CONTINUOUS
 62
     7
100
AcDbCircle
 10
-207.80975
 20
-65.6486
 30
0.0
 40
2.5
  0
TEXT
  5
3B9
330
1E
100
AcDbEntity
  8
0
  6
CONTINUOUS
 62
     7
100
AcDbText
 10
-184.7504999999999
 20
-67.40755
 30
0.0
 40
3.2
  1
３
  7
BIGFONT
100
AcDbText
  0
TEXT
  5
3BA
330
1E
100
AcDbEntity
  8
0
  6
CONTINUOUS
 62
     7
100
AcDbText
 10
-209.4581999999999
 20
-67.3587
 30
0.0
 40
3.2
  1
４
  7
BIGFONT
100
AcDbText
  0
TEXT
  5
3BB
330
1E
100
AcDbEntity
  8
0
  6
CONTINUOUS
 62
     7
100
AcDbText
 10
-179.91995
 20
-67.28069999999999
 30
0.0
 40
3.2
  1
D10
  7
BIGFONT
100
AcDbText
  0
LINE
  5
3BC
330
1E
100
AcDbEntity
  8
0
  6
CONTINUOUS
 62
     7
100
AcDbLine
 10
-186.77095
 20
-68.14705
 30
0.0
 11
-171.7709499999999
 21
-68.14705
 31
0.0
  0
TEXT
  5
3BD
330
1E
100
AcDbEntity
  8
0
  6
CONTINUOUS
 62
     7
100
AcDbText
 10
-204.5897
 20
-67.28069999999999
 30
0.0
 40
3.2
  1
D10
  7
BIGFONT
100
AcDbText
  0
LINE
  5
3BE
330
1E
100
AcDbEntity
  8
0
  6
CONTINUOUS
 62
     7
100
AcDbLine
 10
-210.1906999999999
 20
-68.14705
 30
0.0
 11
-195.1907
 21
-68.14705
 31
0.0
  0
CIRCLE
  5
3BF
330
1E
100
AcDbEntity
  8
0
  6
CONTINUOUS
 62
     7
100
AcDbCircle
 10
-157.0478
 20
-47.45125
 30
0.0
 40
2.5
  0
CIRCLE
  5
3C0
330
1E
100
AcDbEntity
  8
0
  6
CONTINUOUS
 62
     7
100
AcDbCircle
 10
-157.0685499999999
 20
-24.0411
 30
0.0
 40
2.5
  0
TEXT
  5
3C1
330
1E
100
AcDbEntity
  8
0
  6
CONTINUOUS
 62
     7
100
AcDbText
 10
-155.3096
 20
-49.00549999999999
 30
0.0
 40
3.2
  1
３
 50
90.0
  7
BIGFONT
100
AcDbText
  0
TEXT
  5
3C2
330
1E
100
AcDbEntity
  8
0
  6
CONTINUOUS
 62
     7
100
AcDbText
 10
-155.35845
 20
-25.68955
 30
0.0
 40
3.2
  1
４
 50
90.0
  7
BIGFONT
100
AcDbText
  0
TEXT
  5
3C3
330
1E
100
AcDbEntity
  8
0
  6
CONTINUOUS
 62
     7
100
AcDbText
 10
-155.43645
 20
-44.17495
 30
0.0
 40
3.2
  1
D10
 50
90.0
  7
BIGFONT
100
AcDbText
  0
LINE
  5
3C4
330
1E
100
AcDbEntity
  8
0
  6
CONTINUOUS
 62
     7
100
AcDbLine
 10
-154.5701
 20
-50.07595
 30
0.0
 11
-154.5701
 21
-35.07595
 31
0.0
  0
TEXT
  5
3C5
330
1E
100
AcDbEntity
  8
0
  6
CONTINUOUS
 62
     7
100
AcDbText
 10
-155.43645
 20
-20.82104999999998
 30
0.0
 40
3.2
  1
D10
 50
90.0
  7
BIGFONT
100
AcDbText
  0
LINE
  5
3C6
330
1E
100
AcDbEntity
  8
0
  6
CONTINUOUS
 62
     7
100
AcDbLine
 10
-154.5701
 20
-27.52205
 30
0.0
 11
-154.5701
 21
-12.52205
 31
0.0
  0
CIRCLE
  5
3C7
330
1E
100
AcDbEntity
  8
0
  6
CONTINUOUS
 62
     7
100
AcDbCircle
 10
52.21614999999999
 20
127.041
 30
0.0
 40
2.5
  0
TEXT
  5
3C8
330
1E
100
AcDbEntity
  8
0
  6
CONTINUOUS
 62
     7
100
AcDbText
 10
50.72775
 20
125.30855
 30
0.0
 40
3.2
  1
５
  7
BIGFONT
100
AcDbText
  0
TEXT
  5
3C9
330
1E
100
AcDbEntity
  8
0
  6
CONTINUOUS
 62
     7
100
AcDbText
 10
55.47270000000001
 20
125.40345
 30
0.0
 40
3.2
  1
D10
  7
BIGFONT
100
AcDbText
  0
LINE
  5
3CA
330
1E
100
AcDbEntity
  8
0
  6
CONTINUOUS
 62
     7
100
AcDbLine
 10
49.1717
 20
124.5371
 30
0.0
 11
64.1717
 21
124.5371
 31
0.0
  0
CIRCLE
  5
3CB
330
1E
100
AcDbEntity
  8
0
  6
CONTINUOUS
 62
     7
100
AcDbCircle
 10
-63.45324999999998
 20
122.5584
 30
0.0
 40
2.5
  0
TEXT
  5
3CC
330
1E
100
AcDbEntity
  8
0
  6
CONTINUOUS
 62
     7
100
AcDbText
 10
-64.94164999999999
 20
120.82595
 30
0.0
 40
3.2
  1
５
  7
BIGFONT
100
AcDbText
  0
TEXT
  5
3CD
330
1E
100
AcDbEntity
  8
0
  6
CONTINUOUS
 62
     7
100
AcDbText
 10
-60.1967
 20
120.92085
 30
0.0
 40
3.2
  1
D10
  7
BIGFONT
100
AcDbText
  0
LINE
  5
3CE
330
1E
100
AcDbEntity
  8
0
  6
CONTINUOUS
 62
     7
100
AcDbLine
 10
-66.3977
 20
120.0544999999999
 30
0.0
 11
-51.3977
 21
120.0544999999999
 31
0.0
  0
LINE
  5
3CF
330
1E
100
AcDbEntity
  8
0
  6
CONTINUOUS
 62
     7
100
AcDbLine
 10
-66.3977
 20
120.0544999999999
 30
0.0
 11
-66.3977
 21
110.0545
 31
0.0
  0
LINE
  5
3D0
330
1E
100
AcDbEntity
  8
0
  6
CONTINUOUS
 62
     7
100
AcDbLine
 10
-66.71853
 20
111.2539999999996
 30
0.0
 11
-66.39700000000001
 21
110.054
 31
0.0
  0
LINE
  5
3D1
330
1E
100
AcDbEntity
  8
0
  6
CONTINUOUS
 62
     7
100
AcDbLine
 10
-66.39700000000001
 20
110.054
 30
0.0
 11
-66.07545999999999
 21
111.2539999999996
 31
0.0
  0
LINE
  5
3D2
330
1E
100
AcDbEntity
  8
0
  6
CONTINUOUS
 62
     7
100
AcDbLine
 10
49.1717
 20
124.5371
 30
0.0
 11
41.95
 21
110.0384999999999
 31
0.0
  0
LINE
  5
3D3
330
1E
100
AcDbEntity
  8
0
  6
CONTINUOUS
 62
     7
100
AcDbLine
 10
42.1972
 20
111.25548
 30
0.0
 11
41.95
 21
110.0379999999999
 31
0.0
  0
LINE
  5
3D4
330
1E
100
AcDbEntity
  8
0
  6
CONTINUOUS
 62
     7
100
AcDbLine
 10
41.95
 20
110.0379999999999
 30
0.0
 11
42.77282999999999
 21
110.96877
 31
0.0
  0
LINE
  5
3D5
330
1E
100
AcDbEntity
  8
0
  6
DASHED
 62
     1
100
AcDbLine
 10
-186.5656999999999
 20
77.18375
 30
0.0
 11
-186.5656999999999
 21
88.01225
 31
0.0
  0
LINE
  5
3D6
330
1E
100
AcDbEntity
  8
0
  6
CONTINUOUS
 62
     1
100
AcDbLine
 10
-187.0656999999999
 20
77.20959999999998
 30
0.0
 11
-187.0656999999999
 21
97.55960000000001
 31
0.0
  0
LINE
  5
3D7
330
1E
100
AcDbEntity
  8
0
  6
CONTINUOUS
 62
     1
100
AcDbLine
 10
-174.5657
 20
77.20959999999998
 30
0.0
 11
-174.5657
 21
97.55960000000001
 31
0.0
  0
LINE
  5
3D8
330
1E
100
AcDbEntity
  8
0
  6
CONTINUOUS
 62
     7
100
AcDbLine
 10
-187.0656999999999
 20
90.93094999999999
 30
0.0
 11
-199.5656999999999
 21
90.93094999999999
 31
0.0
  0
LINE
  5
3D9
330
1E
100
AcDbEntity
  8
0
  6
CONTINUOUS
 62
     7
100
AcDbLine
 10
-198.365
 20
91.25153
 30
0.0
 11
-199.5649999999999
 21
90.93000000000001
 31
0.0
  0
LINE
  5
3DA
330
1E
100
AcDbEntity
  8
0
  6
CONTINUOUS
 62
     7
100
AcDbLine
 10
-199.5649999999999
 20
90.93000000000001
 30
0.0
 11
-198.365
 21
90.60845999999999
 31
0.0
  0
LINE
  5
3DB
330
1E
100
AcDbEntity
  8
0
  6
CONTINUOUS
 62
     7
100
AcDbLine
 10
-174.5657
 20
90.93094999999999
 30
0.0
 11
-187.0832499999999
 21
90.93094999999999
 31
0.0
  0
LINE
  5
3DC
330
1E
100
AcDbEntity
  8
0
  6
CONTINUOUS
 62
     7
100
AcDbLine
 10
-185.8829999999999
 20
91.25153
 30
0.0
 11
-187.0829999999999
 21
90.93000000000001
 31
0.0
  0
LINE
  5
3DD
330
1E
100
AcDbEntity
  8
0
  6
CONTINUOUS
 62
     7
100
AcDbLine
 10
-187.0829999999999
 20
90.93000000000001
 30
0.0
 11
-185.8829999999999
 21
90.60845999999999
 31
0.0
  0
LINE
  5
3DE
330
1E
100
AcDbEntity
  8
0
  6
CONTINUOUS
 62
     7
100
AcDbLine
 10
-154.5701
 20
83.91535000000002
 30
0.0
 11
-186.57315
 21
83.91535000000002
 31
0.0
  0
LINE
  5
3DF
330
1E
100
AcDbEntity
  8
0
  6
CONTINUOUS
 62
     7
100
AcDbLine
 10
-185.3729999999999
 20
84.23652999999999
 30
0.0
 11
-186.5729999999999
 21
83.915
 31
0.0
  0
LINE
  5
3E0
330
1E
100
AcDbEntity
  8
0
  6
CONTINUOUS
 62
     7
100
AcDbLine
 10
-186.5729999999999
 20
83.915
 30
0.0
 11
-185.3729999999999
 21
83.59346
 31
0.0
  0
LINE
  5
3E1
330
1E
100
AcDbEntity
  8
0
  6
CONTINUOUS
 62
     1
100
AcDbLine
 10
-72.625
 20
77.20449999999998
 30
0.0
 11
-72.625
 21
110.0545
 31
0.0
  0
LINE
  5
3E2
330
1E
100
AcDbEntity
  8
0
  6
CONTINUOUS
 62
     1
100
AcDbLine
 10
-60.125
 20
77.20449999999998
 30
0.0
 11
-60.125
 21
110.0545
 31
0.0
  0
LINE
  5
3E3
330
1E
100
AcDbEntity
  8
0
  6
CONTINUOUS
 62
     7
100
AcDbLine
 10
-219.85865
 20
75.0596
 30
0.0
 11
-219.85865
 21
97.58230000000001
 31
0.0
  0
LINE
  5
3E4
330
1E
100
AcDbEntity
  8
0
  6
CONTINUOUS
 62
     7
100
AcDbLine
 10
-203.35865
 20
97.58230000000001
 30
0.0
 11
-220.6586499999999
 21
97.58230000000001
 31
0.0
  0
LINE
  5
3E5
330
1E
100
AcDbEntity
  8
0
  6
CONTINUOUS
 62
     7
100
AcDbLine
 10
-203.35865
 20
75.0596
 30
0.0
 11
-220.6586499999999
 21
75.0596
 31
0.0
  0
LINE
  5
3E6
330
1E
100
AcDbEntity
  8
0
  6
CONTINUOUS
 62
     7
100
AcDbLine
 10
-219.5364599999999
 20
96.38200000000001
 30
0.0
 11
-219.858
 21
97.58200000000002
 31
0.0
  0
LINE
  5
3E7
330
1E
100
AcDbEntity
  8
0
  6
CONTINUOUS
 62
     7
100
AcDbLine
 10
-219.858
 20
97.58200000000002
 30
0.0
 11
-220.1795299999999
 21
96.38200000000001
 31
0.0
  0
LINE
  5
3E8
330
1E
100
AcDbEntity
  8
0
  6
CONTINUOUS
 62
     7
100
AcDbLine
 10
-220.1795299999999
 20
76.259
 30
0.0
 11
-219.858
 21
75.059
 31
0.0
  0
LINE
  5
3E9
330
1E
100
AcDbEntity
  8
0
  6
CONTINUOUS
 62
     7
100
AcDbLine
 10
-219.858
 20
75.059
 30
0.0
 11
-219.5364599999999
 21
76.259
 31
0.0
  0
TEXT
  5
3EA
330
1E
100
AcDbEntity
  8
0
  6
CONTINUOUS
 62
     7
100
AcDbText
 10
-220.2586499999999
 20
82.42095
 30
0.0
 40
3.2
  1
450
 50
90.0
 41
0.8125
  7
BIGFONT
100
AcDbText
  0
LINE
  5
3EB
330
1E
100
AcDbEntity
  8
0
  6
CONTINUOUS
 62
     7
100
AcDbLine
 10
-104.8161
 20
75.0545
 30
0.0
 11
-104.8161
 21
112.5545
 31
0.0
  0
LINE
  5
3EC
330
1E
100
AcDbEntity
  8
0
  6
CONTINUOUS
 62
     7
100
AcDbLine
 10
-88.61864999999998
 20
112.5545
 30
0.0
 11
-105.6161
 21
112.5545
 31
0.0
  0
LINE
  5
3ED
330
1E
100
AcDbEntity
  8
0
  6
CONTINUOUS
 62
     7
100
AcDbLine
 10
-88.61864999999998
 20
75.0545
 30
0.0
 11
-105.6161
 21
75.0545
 31
0.0
  0
LINE
  5
3EE
330
1E
100
AcDbEntity
  8
0
  6
CONTINUOUS
 62
     7
100
AcDbLine
 10
-104.49446
 20
111.3539999999999
 30
0.0
 11
-104.8159999999999
 21
112.5539999999999
 31
0.0
  0
LINE
  5
3EF
330
1E
100
AcDbEntity
  8
0
  6
CONTINUOUS
 62
     7
100
AcDbLine
 10
-104.8159999999999
 20
112.5539999999999
 30
0.0
 11
-105.1375299999999
 21
111.3539999999999
 31
0.0
  0
LINE
  5
3F0
330
1E
100
AcDbEntity
  8
0
  6
CONTINUOUS
 62
     7
100
AcDbLine
 10
-105.1375299999999
 20
76.25399999999998
 30
0.0
 11
-104.8159999999999
 21
75.054
 31
0.0
  0
LINE
  5
3F1
330
1E
100
AcDbEntity
  8
0
  6
CONTINUOUS
 62
     7
100
AcDbLine
 10
-104.8159999999999
 20
75.054
 30
0.0
 11
-104.49446
 21
76.25399999999998
 31
0.0
  0
TEXT
  5
3F2
330
1E
100
AcDbEntity
  8
0
  6
CONTINUOUS
 62
     7
100
AcDbText
 10
-105.2160999999999
 20
89.9045
 30
0.0
 40
3.2
  1
750
 50
90.0
 41
0.8125
  7
BIGFONT
100
AcDbText
  0
TEXT
  5
3F3
330
1E
100
AcDbEntity
  8
0
  6
CONTINUOUS
 62
     7
100
AcDbText
 10
-97.74705
 20
84.49600000000001
 30
0.0
 40
3.2
  1
2×250
 50
90.0
  7
BIGFONT
100
AcDbText
  0
TEXT
  5
3F4
330
1E
100
AcDbEntity
  8
0
  6
CONTINUOUS
 62
     7
100
AcDbText
 10
-93.61945
 20
84.60359999999999
 30
0.0
 40
3.2
  1
=500
 50
90.0
  7
BIGFONT
100
AcDbText
  0
LINE
  5
3F5
330
1E
100
AcDbEntity
  8
0
  6
CONTINUOUS
 62
     7
100
AcDbLine
 10
-212.0592
 20
75.0596
 30
0.0
 11
-212.0592
 21
79.29355
 31
0.0
  0
LINE
  5
3F6
330
1E
100
AcDbEntity
  8
0
  6
CONTINUOUS
 62
     7
100
AcDbLine
 10
-203.35865
 20
79.29355
 30
0.0
 11
-212.8591999999999
 21
79.29355
 31
0.0
  0
LINE
  5
3F7
330
1E
100
AcDbEntity
  8
0
  6
CONTINUOUS
 62
     7
100
AcDbLine
 10
-207.3025
 20
75.0596
 30
0.0
 11
-212.8591999999999
 21
75.0596
 31
0.0
  0
LINE
  5
3F8
330
1E
100
AcDbEntity
  8
0
  6
CONTINUOUS
 62
     7
100
AcDbLine
 10
-211.73746
 20
78.093
 30
0.0
 11
-212.0589999999999
 21
79.29300000000002
 31
0.0
  0
LINE
  5
3F9
330
1E
100
AcDbEntity
  8
0
  6
CONTINUOUS
 62
     7
100
AcDbLine
 10
-212.0589999999999
 20
79.29300000000002
 30
0.0
 11
-212.3805299999999
 21
78.093
 31
0.0
  0
LINE
  5
3FA
330
1E
100
AcDbEntity
  8
0
  6
CONTINUOUS
 62
     7
100
AcDbLine
 10
-212.3805299999999
 20
76.259
 30
0.0
 11
-212.0589999999999
 21
75.059
 31
0.0
  0
LINE
  5
3FB
330
1E
100
AcDbEntity
  8
0
  6
CONTINUOUS
 62
     7
100
AcDbLine
 10
-212.0589999999999
 20
75.059
 30
0.0
 11
-211.73746
 21
76.259
 31
0.0
  0
TEXT
  5
3FC
330
1E
100
AcDbEntity
  8
0
  6
CONTINUOUS
 62
     7
100
AcDbText
 10
-212.4592
 20
74.83657
 30
0.0
 40
3.2
  1
85
 50
90.0
 41
0.8125
  7
BIGFONT
100
AcDbText
  0
LINE
  5
3FD
330
1E
100
AcDbEntity
  8
0
  6
CONTINUOUS
 62
     7
100
AcDbLine
 10
-212.0592
 20
79.29355
 30
0.0
 11
-212.0592
 21
94.31645000000001
 31
0.0
  0
LINE
  5
3FE
330
1E
100
AcDbEntity
  8
0
  6
CONTINUOUS
 62
     7
100
AcDbLine
 10
-203.35865
 20
94.31645000000001
 30
0.0
 11
-212.8591999999999
 21
94.31645000000001
 31
0.0
  0
LINE
  5
3FF
330
1E
100
AcDbEntity
  8
0
  6
CONTINUOUS
 62
     7
100
AcDbLine
 10
-211.73746
 20
93.116
 30
0.0
 11
-212.0589999999999
 21
94.31600000000001
 31
0.0
  0
LINE
  5
400
330
1E
100
AcDbEntity
  8
0
  6
CONTINUOUS
 62
     7
100
AcDbLine
 10
-212.0589999999999
 20
94.31600000000001
 30
0.0
 11
-212.3805299999999
 21
93.116
 31
0.0
  0
LINE
  5
401
330
1E
100
AcDbEntity
  8
0
  6
CONTINUOUS
 62
     7
100
AcDbLine
 10
-212.3805299999999
 20
80.493
 30
0.0
 11
-212.0589999999999
 21
79.29300000000002
 31
0.0
  0
LINE
  5
402
330
1E
100
AcDbEntity
  8
0
  6
CONTINUOUS
 62
     7
100
AcDbLine
 10
-212.0589999999999
 20
79.29300000000002
 30
0.0
 11
-211.73746
 21
80.493
 31
0.0
  0
TEXT
  5
403
330
1E
100
AcDbEntity
  8
0
  6
CONTINUOUS
 62
     7
100
AcDbText
 10
-212.4592
 20
83.16500000000003
 30
0.0
 40
3.2
  1
300
 50
90.0
 41
0.8125
  7
BIGFONT
100
AcDbText
  0
LINE
  5
404
330
1E
100
AcDbEntity
  8
0
  6
CONTINUOUS
 62
     7
100
AcDbLine
 10
-60.1087
 20
98.0545
 30
0.0
 11
-72.6087
 21
98.0545
 31
0.0
  0
LINE
  5
405
330
1E
100
AcDbEntity
  8
0
  6
CONTINUOUS
 62
     7
100
AcDbLine
 10
-71.408
 20
98.37552999999999
 30
0.0
 11
-72.608
 21
98.054
 31
0.0
  0
LINE
  5
406
330
1E
100
AcDbEntity
  8
0
  6
CONTINUOUS
 62
     7
100
AcDbLine
 10
-72.608
 20
98.054
 30
0.0
 11
-71.408
 21
97.73246
 31
0.0
  0
LINE
  5
407
330
1E
100
AcDbEntity
  8
0
  6
CONTINUOUS
 62
     1
100
AcDbLine
 10
-85.1087
 20
90.8045
 30
0.0
 11
-53.8587
 21
90.8045
 31
0.0
  0
LINE
  5
408
330
1E
100
AcDbEntity
  8
0
  6
CONTINUOUS
 62
     1
100
AcDbLine
 10
-85.1087
 20
103.3044999999999
 30
0.0
 11
-53.8587
 21
103.3044999999999
 31
0.0
  0
POINT
  5
409
330
1E
100
AcDbEntity
  8
0
  6
CONTINUOUS
 62
     1
100
AcDbPoint
 10
41.95
 20
103.2885
 30
0.0
  0
POINT
  5
40A
330
1E
100
AcDbEntity
  8
0
  6
CONTINUOUS
 62
     1
100
AcDbPoint
 10
41.95
 20
90.7885
 30
0.0
  0
POINT
  5
40B
330
1E
100
AcDbEntity
  8
0
  6
CONTINUOUS
 62
     1
100
AcDbPoint
 10
41.95
 20
78.2885
 30
0.0
  0
LINE
  5
40C
330
1E
100
AcDbEntity
  8
0
  6
CONTINUOUS
 62
     7
100
AcDbLine
 10
-71.375
 20
-43.14705
 30
0.0
 11
-71.375
 21
-30.64705
 31
0.0
  0
LINE
  5
40D
330
1E
100
AcDbEntity
  8
0
  6
CONTINUOUS
 62
     7
100
AcDbLine
 10
-71.05346
 20
-31.84699999999999
 30
0.0
 11
-71.375
 21
-30.647
 31
0.0
  0
LINE
  5
40E
330
1E
100
AcDbEntity
  8
0
  6
CONTINUOUS
 62
     7
100
AcDbLine
 10
-71.375
 20
-30.647
 30
0.0
 11
-71.69653000000002
 21
-31.84699999999999
 31
0.0
  0
LINE
  5
40F
330
1E
100
AcDbEntity
  8
0
  6
CONTINUOUS
 62
     7
100
AcDbLine
 10
-71.375
 20
-55.64705
 30
0.0
 11
-71.375
 21
-43.12104999999998
 31
0.0
  0
LINE
  5
410
330
1E
100
AcDbEntity
  8
0
  6
CONTINUOUS
 62
     7
100
AcDbLine
 10
-71.05346
 20
-44.32100000000001
 30
0.0
 11
-71.375
 21
-43.121
 31
0.0
  0
LINE
  5
411
330
1E
100
AcDbEntity
  8
0
  6
CONTINUOUS
 62
     7
100
AcDbLine
 10
-71.375
 20
-43.121
 30
0.0
 11
-71.69653000000002
 21
-44.32100000000001
 31
0.0
  0
LINE
  5
412
330
1E
100
AcDbEntity
  8
0
  6
CONTINUOUS
 62
     7
100
AcDbLine
 10
-71.375
 20
-68.14705
 30
0.0
 11
-71.375
 21
-55.62025
 31
0.0
  0
LINE
  5
413
330
1E
100
AcDbEntity
  8
0
  6
CONTINUOUS
 62
     7
100
AcDbLine
 10
-71.05346
 20
-56.82
 30
0.0
 11
-71.375
 21
-55.62
 31
0.0
  0
LINE
  5
414
330
1E
100
AcDbEntity
  8
0
  6
CONTINUOUS
 62
     7
100
AcDbLine
 10
-71.375
 20
-55.62
 30
0.0
 11
-71.69653000000002
 21
-56.82
 31
0.0
  0
LINE
  5
415
330
1E
100
AcDbEntity
  8
0
  6
CONTINUOUS
 62
     7
100
AcDbLine
 10
-65.125
 20
-37.0994
 30
0.0
 11
-77.65100000000002
 21
-37.0994
 31
0.0
  0
LINE
  5
416
330
1E
100
AcDbEntity
  8
0
  6
CONTINUOUS
 62
     7
100
AcDbLine
 10
-76.45099999999998
 20
-36.77745999999999
 30
0.0
 11
-77.65100000000002
 21
-37.09899999999999
 31
0.0
  0
LINE
  5
417
330
1E
100
AcDbEntity
  8
0
  6
CONTINUOUS
 62
     7
100
AcDbLine
 10
-77.65100000000002
 20
-37.09899999999999
 30
0.0
 11
-76.45099999999998
 21
-37.42053
 31
0.0
  0
LINE
  5
418
330
1E
100
AcDbEntity
  8
0
  6
CONTINUOUS
 62
     7
100
AcDbLine
 10
-77.625
 20
-37.0994
 30
0.0
 11
-83.87500000000001
 21
-37.0994
 31
0.0
  0
LINE
  5
419
330
1E
100
AcDbEntity
  8
0
  6
CONTINUOUS
 62
     7
100
AcDbLine
 10
-82.675
 20
-36.77745999999999
 30
0.0
 11
-83.87500000000001
 21
-37.09899999999999
 31
0.0
  0
LINE
  5
41A
330
1E
100
AcDbEntity
  8
0
  6
CONTINUOUS
 62
     7
100
AcDbLine
 10
-83.87500000000001
 20
-37.09899999999999
 30
0.0
 11
-82.675
 21
-37.42053
 31
0.0
  0
LINE
  5
41B
330
1E
100
AcDbEntity
  8
0
  6
CONTINUOUS
 62
     7
100
AcDbLine
 10
-40.125
 20
-37.0994
 30
0.0
 11
-52.6518
 21
-37.0994
 31
0.0
  0
LINE
  5
41C
330
1E
100
AcDbEntity
  8
0
  6
CONTINUOUS
 62
     7
100
AcDbLine
 10
-51.451
 20
-36.77745999999999
 30
0.0
 11
-52.651
 21
-37.09899999999999
 31
0.0
  0
LINE
  5
41D
330
1E
100
AcDbEntity
  8
0
  6
CONTINUOUS
 62
     7
100
AcDbLine
 10
-52.651
 20
-37.09899999999999
 30
0.0
 11
-51.451
 21
-37.42053
 31
0.0
  0
TEXT
  5
41E
330
1E
100
AcDbEntity
  8
0
  6
CONTINUOUS
 62
     7
100
AcDbText
 10
-71.85195
 20
-10.2955
 30
0.0
 40
3.2
  1
2×250
  7
BIGFONT
100
AcDbText
  0
TEXT
  5
41F
330
1E
100
AcDbEntity
  8
0
  6
CONTINUOUS
 62
     7
100
AcDbText
 10
-71.65305
 20
-14.4451
 30
0.0
 40
3.2
  1
=500
  7
BIGFONT
100
AcDbText
  0
LINE
  5
420
330
1E
100
AcDbEntity
  8
0
  6
CONTINUOUS
 62
     7
100
AcDbLine
 10
-87.62500000000001
 20
-10.64705
 30
0.0
 11
-83.80824999999999
 21
-10.64705
 31
0.0
  0
TEXT
  5
421
330
1E
100
AcDbEntity
  8
0
  6
CONTINUOUS
 62
     7
100
AcDbText
 10
-94.74415
 20
-10.29579999999999
 30
0.0
 40
3.2
  1
55
  7
BIGFONT
100
AcDbText
  0
TEXT
  5
422
330
1E
100
AcDbEntity
  8
0
  6
CONTINUOUS
 62
     7
100
AcDbText
 10
-87.16025
 20
-14.44025
 30
0.0
 40
3.2
  1
20
  7
BIGFONT
100
AcDbText
  0
LINE
  5
423
330
1E
100
AcDbEntity
  8
0
  6
CONTINUOUS
 62
     7
100
AcDbLine
 10
-84.85660000000001
 20
-19.6699
 30
0.0
 11
-84.85660000000001
 21
-9.853749999999999
 31
0.0
  0
POINT
  5
424
330
1E
100
AcDbEntity
  8
0
  6
CONTINUOUS
 62
     7
100
AcDbPoint
 10
-84.85660000000001
 20
-10.64705
 30
0.0
  0
LINE
  5
425
330
1E
100
AcDbEntity
  8
0
  6
CONTINUOUS
 62
     1
100
AcDbLine
 10
-168.3157
 20
77.20959999999998
 30
0.0
 11
-168.3157
 21
97.55960000000001
 31
0.0
  0
LINE
  5
426
330
1E
100
AcDbEntity
  8
0
  6
CONTINUOUS
 62
     1
100
AcDbLine
 10
-53.875
 20
77.20449999999998
 30
0.0
 11
-53.875
 21
110.0545
 31
0.0
  0
LINE
  5
427
330
1E
100
AcDbEntity
  8
0
  6
CONTINUOUS
 62
     7
100
AcDbLine
 10
-53.875
 20
98.0545
 30
0.0
 11
-60.1518
 21
98.0545
 31
0.0
  0
LINE
  5
428
330
1E
100
AcDbEntity
  8
0
  6
CONTINUOUS
 62
     7
100
AcDbLine
 10
-58.951
 20
98.37552999999999
 30
0.0
 11
-60.151
 21
98.054
 31
0.0
  0
LINE
  5
429
330
1E
100
AcDbEntity
  8
0
  6
CONTINUOUS
 62
     7
100
AcDbLine
 10
-60.151
 20
98.054
 30
0.0
 11
-58.951
 21
97.73246
 31
0.0
  0
LINE
  5
42A
330
1E
100
AcDbEntity
  8
0
  6
CONTINUOUS
 62
     7
100
AcDbLine
 10
-40.10869999999999
 20
98.0545
 30
0.0
 11
-53.8849
 21
98.0545
 31
0.0
  0
LINE
  5
42B
330
1E
100
AcDbEntity
  8
0
  6
CONTINUOUS
 62
     7
100
AcDbLine
 10
-52.68399999999999
 20
98.37552999999999
 30
0.0
 11
-53.88399999999999
 21
98.054
 31
0.0
  0
LINE
  5
42C
330
1E
100
AcDbEntity
  8
0
  6
CONTINUOUS
 62
     7
100
AcDbLine
 10
-53.88399999999999
 20
98.054
 30
0.0
 11
-52.68399999999999
 21
97.73246
 31
0.0
  0
LINE
  5
42D
330
1E
100
AcDbEntity
  8
0
  6
CONTINUOUS
 62
     7
100
AcDbLine
 10
-168.3157
 20
90.93094999999999
 30
0.0
 11
-174.5665999999999
 21
90.93094999999999
 31
0.0
  0
LINE
  5
42E
330
1E
100
AcDbEntity
  8
0
  6
CONTINUOUS
 62
     7
100
AcDbLine
 10
-173.3659999999999
 20
91.25153
 30
0.0
 11
-174.5659999999999
 21
90.93000000000001
 31
0.0
  0
LINE
  5
42F
330
1E
100
AcDbEntity
  8
0
  6
CONTINUOUS
 62
     7
100
AcDbLine
 10
-174.5659999999999
 20
90.93000000000001
 30
0.0
 11
-173.3659999999999
 21
90.60845999999999
 31
0.0
  0
LINE
  5
430
330
1E
100
AcDbEntity
  8
0
  6
CONTINUOUS
 62
     7
100
AcDbLine
 10
-154.55975
 20
90.93094999999999
 30
0.0
 11
-168.3157
 21
90.93094999999999
 31
0.0
  0
LINE
  5
431
330
1E
100
AcDbEntity
  8
0
  6
CONTINUOUS
 62
     7
100
AcDbLine
 10
-167.115
 20
91.25153
 30
0.0
 11
-168.3149999999999
 21
90.93000000000001
 31
0.0
  0
LINE
  5
432
330
1E
100
AcDbEntity
  8
0
  6
CONTINUOUS
 62
     7
100
AcDbLine
 10
-168.3149999999999
 20
90.93000000000001
 30
0.0
 11
-167.115
 21
90.60845999999999
 31
0.0
  0
TEXT
  5
433
330
1E
100
AcDbEntity
  8
0
  6
CONTINUOUS
 62
     7
100
AcDbText
 10
-194.5394999999999
 20
59.00375
 30
0.0
 40
3.2
  1
2×250
  7
BIGFONT
100
AcDbText
  0
TEXT
  5
434
330
1E
100
AcDbEntity
  8
0
  6
CONTINUOUS
 62
     7
100
AcDbText
 10
-194.33385
 20
54.78245
 30
0.0
 40
3.2
  1
=500
  7
BIGFONT
100
AcDbText
  0
LINE
  5
435
330
1E
100
AcDbEntity
  8
0
  6
CONTINUOUS
 62
     7
100
AcDbLine
 10
-202.0753
 20
58.5805
 30
0.0
 11
-199.5753
 21
58.5805
 31
0.0
  0
LINE
  5
436
330
1E
100
AcDbEntity
  8
0
  6
CONTINUOUS
 62
     7
100
AcDbLine
 10
-199.5753
 20
74.0596
 30
0.0
 11
-199.5753
 21
57.7805
 31
0.0
  0
LINE
  5
437
330
1E
100
AcDbEntity
  8
0
  6
CONTINUOUS
 62
     7
100
AcDbLine
 10
-202.0753
 20
63.1745
 30
0.0
 11
-202.0753
 21
57.7805
 31
0.0
  0
LINE
  5
438
330
1E
100
AcDbEntity
  8
0
  6
CONTINUOUS
 62
     7
100
AcDbLine
 10
-197.1752999999999
 20
58.5805
 30
0.0
 11
-199.5753
 21
58.5805
 31
0.0
  0
LINE
  5
439
330
1E
100
AcDbEntity
  8
0
  6
CONTINUOUS
 62
     7
100
AcDbLine
 10
-198.375
 20
58.90153000000001
 30
0.0
 11
-199.5749999999999
 21
58.58
 31
0.0
  0
LINE
  5
43A
330
1E
100
AcDbEntity
  8
0
  6
CONTINUOUS
 62
     7
100
AcDbLine
 10
-199.5749999999999
 20
58.58
 30
0.0
 11
-198.375
 21
58.25846
 31
0.0
  0
LINE
  5
43B
330
1E
100
AcDbEntity
  8
0
  6
CONTINUOUS
 62
     7
100
AcDbLine
 10
-202.0753
 20
58.5805
 30
0.0
 11
-204.4753
 21
58.5805
 31
0.0
  0
LINE
  5
43C
330
1E
100
AcDbEntity
  8
0
  6
CONTINUOUS
 62
     7
100
AcDbLine
 10
-203.275
 20
58.25846
 30
0.0
 11
-202.075
 21
58.58
 31
0.0
  0
LINE
  5
43D
330
1E
100
AcDbEntity
  8
0
  6
CONTINUOUS
 62
     7
100
AcDbLine
 10
-202.075
 20
58.58
 30
0.0
 11
-203.275
 21
58.90153000000001
 31
0.0
  0
LINE
  5
43E
330
1E
100
AcDbEntity
  8
0
  6
CONTINUOUS
 62
     7
100
AcDbLine
 10
-204.4753
 20
58.5805
 30
0.0
 11
-208.0553
 21
58.5805
 31
0.0
  0
TEXT
  5
43F
330
1E
100
AcDbEntity
  8
0
  6
CONTINUOUS
 62
     7
100
AcDbText
 10
-208.0553
 20
58.9805
 30
0.0
 40
3.2
  1
50
 41
0.8125
  7
BIGFONT
100
AcDbText
  0
LINE
  5
440
330
1E
100
AcDbEntity
  8
0
  6
CONTINUOUS
 62
     7
100
AcDbLine
 10
-199.5753
 20
58.5805
 30
0.0
 11
-174.57615
 21
58.5805
 31
0.0
  0
LINE
  5
441
330
1E
100
AcDbEntity
  8
0
  6
CONTINUOUS
 62
     7
100
AcDbLine
 10
-174.57615
 20
74.0596
 30
0.0
 11
-174.57615
 21
57.7805
 31
0.0
  0
LINE
  5
442
330
1E
100
AcDbEntity
  8
0
  6
CONTINUOUS
 62
     7
100
AcDbLine
 10
-175.7759999999999
 20
58.25846
 30
0.0
 11
-174.5759999999999
 21
58.58
 31
0.0
  0
LINE
  5
443
330
1E
100
AcDbEntity
  8
0
  6
CONTINUOUS
 62
     7
100
AcDbLine
 10
-174.5759999999999
 20
58.58
 30
0.0
 11
-175.7759999999999
 21
58.90153000000001
 31
0.0
  0
LINE
  5
444
330
1E
100
AcDbEntity
  8
0
  6
CONTINUOUS
 62
     7
100
AcDbLine
 10
-198.375
 20
58.90153000000001
 30
0.0
 11
-199.5749999999999
 21
58.58
 31
0.0
  0
LINE
  5
445
330
1E
100
AcDbEntity
  8
0
  6
CONTINUOUS
 62
     7
100
AcDbLine
 10
-199.5749999999999
 20
58.58
 30
0.0
 11
-198.375
 21
58.25846
 31
0.0
  0
LINE
  5
446
330
1E
100
AcDbEntity
  8
0
  6
CONTINUOUS
 62
     7
100
AcDbLine
 10
-174.57615
 20
58.5805
 30
0.0
 11
-168.2983499999999
 21
58.5805
 31
0.0
  0
LINE
  5
447
330
1E
100
AcDbEntity
  8
0
  6
CONTINUOUS
 62
     7
100
AcDbLine
 10
-168.2983499999999
 20
74.0545
 30
0.0
 11
-168.2983499999999
 21
57.7805
 31
0.0
  0
LINE
  5
448
330
1E
100
AcDbEntity
  8
0
  6
CONTINUOUS
 62
     7
100
AcDbLine
 10
-174.57615
 20
63.5514
 30
0.0
 11
-174.57615
 21
57.7805
 31
0.0
  0
LINE
  5
449
330
1E
100
AcDbEntity
  8
0
  6
CONTINUOUS
 62
     7
100
AcDbLine
 10
-169.4979999999999
 20
58.25846
 30
0.0
 11
-168.298
 21
58.58
 31
0.0
  0
LINE
  5
44A
330
1E
100
AcDbEntity
  8
0
  6
CONTINUOUS
 62
     7
100
AcDbLine
 10
-168.298
 20
58.58
 30
0.0
 11
-169.4979999999999
 21
58.90153000000001
 31
0.0
  0
LINE
  5
44B
330
1E
100
AcDbEntity
  8
0
  6
CONTINUOUS
 62
     7
100
AcDbLine
 10
-173.3759999999999
 20
58.90153000000001
 30
0.0
 11
-174.5759999999999
 21
58.58
 31
0.0
  0
LINE
  5
44C
330
1E
100
AcDbEntity
  8
0
  6
CONTINUOUS
 62
     7
100
AcDbLine
 10
-174.5759999999999
 20
58.58
 30
0.0
 11
-173.3759999999999
 21
58.25846
 31
0.0
  0
LINE
  5
44D
330
1E
100
AcDbEntity
  8
0
  6
CONTINUOUS
 62
     7
100
AcDbLine
 10
-174.57615
 20
58.5805
 30
0.0
 11
-175.61615
 21
58.5805
 31
0.0
  0
TEXT
  5
44E
330
1E
100
AcDbEntity
  8
0
  6
CONTINUOUS
 62
     7
100
AcDbText
 10
-175.61615
 20
58.9805
 30
0.0
 40
3.2
  1
125
 41
0.8125
  7
BIGFONT
100
AcDbText
  0
LINE
  5
44F
330
1E
100
AcDbEntity
  8
0
  6
DASHED
 62
     1
100
AcDbLine
 10
-180.0656999999999
 20
-33.2782
 30
0.0
 11
-180.0656999999999
 21
-22.44705
 31
0.0
  0
LINE
  5
450
330
1E
100
AcDbEntity
  8
0
  6
DASHED
 62
     1
100
AcDbLine
 10
-200.2657
 20
-42.64705
 30
0.0
 11
-189.43455
 21
-42.64705
 31
0.0
  0
LINE
  5
451
330
1E
100
AcDbEntity
  8
0
  6
CONTINUOUS
 62
     1
100
AcDbLine
 10
-200.2657
 20
-43.14705
 30
0.0
 11
-184.5656999999999
 21
-43.14705
 31
0.0
  0
LINE
  5
452
330
1E
100
AcDbEntity
  8
0
  6
CONTINUOUS
 62
     1
100
AcDbLine
 10
-192.0657
 20
-55.64705
 30
0.0
 11
-192.0657
 21
-22.44705
 31
0.0
  0
LINE
  5
453
330
1E
100
AcDbEntity
  8
0
  6
CONTINUOUS
 62
     7
100
AcDbLine
 10
-200.2657
 20
-30.64705
 30
0.0
 11
-167.0657
 21
-30.64705
 31
0.0
  0
LINE
  5
454
330
1E
100
AcDbEntity
  8
0
  6
CONTINUOUS
 62
     1
100
AcDbLine
 10
-200.2657
 20
-30.64705
 30
0.0
 11
-167.0657
 21
-30.64705
 31
0.0
  0
LINE
  5
455
330
1E
100
AcDbEntity
  8
0
  6
CONTINUOUS
 62
     7
100
AcDbLine
 10
-192.0380999999999
 20
-10.64705
 30
0.0
 11
-167.0657
 21
-10.64705
 31
0.0
  0
LINE
  5
456
330
1E
100
AcDbEntity
  8
0
  6
CONTINUOUS
 62
     7
100
AcDbLine
 10
-167.0657
 20
-19.64705
 30
0.0
 11
-167.0657
 21
-9.847049999999999
 31
0.0
  0
LINE
  5
457
330
1E
100
AcDbEntity
  8
0
  6
CONTINUOUS
 62
     7
100
AcDbLine
 10
-192.0380999999999
 20
-19.64705
 30
0.0
 11
-192.0380999999999
 21
-9.847049999999999
 31
0.0
  0
LINE
  5
458
330
1E
100
AcDbEntity
  8
0
  6
CONTINUOUS
 62
     7
100
AcDbLine
 10
-168.2649999999999
 20
-10.96853
 30
0.0
 11
-167.065
 21
-10.64699999999999
 31
0.0
  0
LINE
  5
459
330
1E
100
AcDbEntity
  8
0
  6
CONTINUOUS
 62
     7
100
AcDbLine
 10
-167.065
 20
-10.64699999999999
 30
0.0
 11
-168.2649999999999
 21
-10.32546
 31
0.0
  0
LINE
  5
45A
330
1E
100
AcDbEntity
  8
0
  6
CONTINUOUS
 62
     7
100
AcDbLine
 10
-190.838
 20
-10.32546
 30
0.0
 11
-192.0379999999999
 21
-10.64699999999999
 31
0.0
  0
LINE
  5
45B
330
1E
100
AcDbEntity
  8
0
  6
CONTINUOUS
 62
     7
100
AcDbLine
 10
-192.0379999999999
 20
-10.64699999999999
 30
0.0
 11
-190.838
 21
-10.96853
 31
0.0
  0
LINE
  5
45C
330
1E
100
AcDbEntity
  8
0
  6
CONTINUOUS
 62
     7
100
AcDbLine
 10
-167.0657
 20
-10.64705
 30
0.0
 11
-164.5656999999999
 21
-10.64705
 31
0.0
  0
LINE
  5
45D
330
1E
100
AcDbEntity
  8
0
  6
CONTINUOUS
 62
     7
100
AcDbLine
 10
-164.5656999999999
 20
-15.4533
 30
0.0
 11
-164.5656999999999
 21
-9.847049999999999
 31
0.0
  0
LINE
  5
45E
330
1E
100
AcDbEntity
  8
0
  6
CONTINUOUS
 62
     7
100
AcDbLine
 10
-162.1656999999999
 20
-10.64705
 30
0.0
 11
-164.5656999999999
 21
-10.64705
 31
0.0
  0
LINE
  5
45F
330
1E
100
AcDbEntity
  8
0
  6
CONTINUOUS
 62
     7
100
AcDbLine
 10
-163.365
 20
-10.32546
 30
0.0
 11
-164.565
 21
-10.64699999999999
 31
0.0
  0
LINE
  5
460
330
1E
100
AcDbEntity
  8
0
  6
CONTINUOUS
 62
     7
100
AcDbLine
 10
-164.565
 20
-10.64699999999999
 30
0.0
 11
-163.365
 21
-10.96853
 31
0.0
  0
LINE
  5
461
330
1E
100
AcDbEntity
  8
0
  6
CONTINUOUS
 62
     7
100
AcDbLine
 10
-167.0657
 20
-10.64705
 30
0.0
 11
-169.4657
 21
-10.64705
 31
0.0
  0
LINE
  5
462
330
1E
100
AcDbEntity
  8
0
  6
CONTINUOUS
 62
     7
100
AcDbLine
 10
-168.2649999999999
 20
-10.96853
 30
0.0
 11
-167.065
 21
-10.64699999999999
 31
0.0
  0
LINE
  5
463
330
1E
100
AcDbEntity
  8
0
  6
CONTINUOUS
 62
     7
100
AcDbLine
 10
-167.065
 20
-10.64699999999999
 30
0.0
 11
-168.2649999999999
 21
-10.32546
 31
0.0
  0
LINE
  5
464
330
1E
100
AcDbEntity
  8
0
  6
CONTINUOUS
 62
     7
100
AcDbLine
 10
-162.1656999999999
 20
-10.64705
 30
0.0
 11
-156.2457
 21
-10.64705
 31
0.0
  0
TEXT
  5
465
330
1E
100
AcDbEntity
  8
0
  6
CONTINUOUS
 62
     7
100
AcDbText
 10
-161.4456999999999
 20
-10.24704999999999
 30
0.0
 40
3.2
  1
50
 41
0.8125
  7
BIGFONT
100
AcDbText
  0
LINE
  5
466
330
1E
100
AcDbEntity
  8
0
  6
CONTINUOUS
 62
     1
100
AcDbLine
 10
-167.0657
 20
-38.14705
 30
0.0
 11
-167.0657
 21
-22.44705
 31
0.0
  0
LINE
  5
467
330
1E
100
AcDbEntity
  8
0
  6
CONTINUOUS
 62
     1
100
AcDbLine
 10
-179.5657
 20
-38.14705
 30
0.0
 11
-179.5657
 21
-22.44705
 31
0.0
  0
LINE
  5
468
330
1E
100
AcDbEntity
  8
0
  6
CONTINUOUS
 62
     7
100
AcDbLine
 10
-186.77095
 20
-43.14705
 30
0.0
 11
-186.77095
 21
-30.64705
 31
0.0
  0
LINE
  5
469
330
1E
100
AcDbEntity
  8
0
  6
CONTINUOUS
 62
     7
100
AcDbLine
 10
-186.44846
 20
-31.84699999999999
 30
0.0
 11
-186.77
 21
-30.647
 31
0.0
  0
LINE
  5
46A
330
1E
100
AcDbEntity
  8
0
  6
CONTINUOUS
 62
     7
100
AcDbLine
 10
-186.77
 20
-30.647
 30
0.0
 11
-187.09153
 21
-31.84699999999999
 31
0.0
  0
LINE
  5
46B
330
1E
100
AcDbEntity
  8
0
  6
CONTINUOUS
 62
     7
100
AcDbLine
 10
-186.77095
 20
-30.64705
 30
0.0
 11
-186.77095
 21
-24.39705
 31
0.0
  0
LINE
  5
46C
330
1E
100
AcDbEntity
  8
0
  6
CONTINUOUS
 62
     7
100
AcDbLine
 10
-186.44846
 20
-25.59699999999999
 30
0.0
 11
-186.77
 21
-24.397
 31
0.0
  0
LINE
  5
46D
330
1E
100
AcDbEntity
  8
0
  6
CONTINUOUS
 62
     7
100
AcDbLine
 10
-186.77
 20
-24.397
 30
0.0
 11
-187.09153
 21
-25.59699999999999
 31
0.0
  0
LINE
  5
46E
330
1E
100
AcDbEntity
  8
0
  6
CONTINUOUS
 62
     7
100
AcDbLine
 10
-179.5657
 20
-35.07595
 30
0.0
 11
-192.0657
 21
-35.07595
 31
0.0
  0
LINE
  5
46F
330
1E
100
AcDbEntity
  8
0
  6
CONTINUOUS
 62
     7
100
AcDbLine
 10
-190.865
 20
-34.75346
 30
0.0
 11
-192.065
 21
-35.075
 31
0.0
  0
LINE
  5
470
330
1E
100
AcDbEntity
  8
0
  6
CONTINUOUS
 62
     7
100
AcDbLine
 10
-192.065
 20
-35.075
 30
0.0
 11
-190.865
 21
-35.39652999999999
 31
0.0
  0
LINE
  5
471
330
1E
100
AcDbEntity
  8
0
  6
CONTINUOUS
 62
     7
100
AcDbLine
 10
-192.0064
 20
-35.07595
 30
0.0
 11
-198.3157
 21
-35.07595
 31
0.0
  0
LINE
  5
472
330
1E
100
AcDbEntity
  8
0
  6
CONTINUOUS
 62
     7
100
AcDbLine
 10
-197.115
 20
-34.75346
 30
0.0
 11
-198.315
 21
-35.075
 31
0.0
  0
LINE
  5
473
330
1E
100
AcDbEntity
  8
0
  6
CONTINUOUS
 62
     7
100
AcDbLine
 10
-198.315
 20
-35.075
 30
0.0
 11
-197.115
 21
-35.39652999999999
 31
0.0
  0
LINE
  5
474
330
1E
100
AcDbEntity
  8
0
  6
CONTINUOUS
 62
     7
100
AcDbLine
 10
-97.32245
 20
67.80565
 30
0.0
 11
-97.32245
 21
75.0881
 31
0.0
  0
LINE
  5
475
330
1E
100
AcDbEntity
  8
0
  6
CONTINUOUS
 62
     7
100
AcDbLine
 10
-97.00046
 20
73.888
 30
0.0
 11
-97.322
 21
75.08799999999998
 31
0.0
  0
LINE
  5
476
330
1E
100
AcDbEntity
  8
0
  6
CONTINUOUS
 62
     7
100
AcDbLine
 10
-97.322
 20
75.08799999999998
 30
0.0
 11
-97.64352999999999
 21
73.888
 31
0.0
  0
LINE
  5
477
330
1E
100
AcDbEntity
  8
0
  6
CONTINUOUS
 62
     7
100
AcDbLine
 10
-98.14955000000001
 20
77.82
 30
0.0
 11
-88.63939999999997
 21
77.82
 31
0.0
  0
POINT
  5
478
330
1E
100
AcDbEntity
  8
0
  6
CONTINUOUS
 62
     7
100
AcDbPoint
 10
-97.32245
 20
77.82
 30
0.0
  0
TEXT
  5
479
330
1E
100
AcDbEntity
  8
0
  6
CONTINUOUS
 62
     7
100
AcDbText
 10
-97.75730000000001
 20
67.71595000000001
 30
0.0
 40
3.2
  1
55
 50
90.0
  7
BIGFONT
100
AcDbText
  0
TEXT
  5
47A
330
1E
100
AcDbEntity
  8
0
  6
CONTINUOUS
 62
     7
100
AcDbText
 10
-80.08920000000001
 20
59.00375
 30
0.0
 40
3.2
  1
2×250
  7
BIGFONT
100
AcDbText
  0
TEXT
  5
47B
330
1E
100
AcDbEntity
  8
0
  6
CONTINUOUS
 62
     7
100
AcDbText
 10
-79.88355
 20
54.78245
 30
0.0
 40
3.2
  1
=500
  7
BIGFONT
100
AcDbText
  0
LINE
  5
47C
330
1E
100
AcDbEntity
  8
0
  6
CONTINUOUS
 62
     7
100
AcDbLine
 10
-87.62500000000001
 20
58.5805
 30
0.0
 11
-85.12500000000001
 21
58.5805
 31
0.0
  0
LINE
  5
47D
330
1E
100
AcDbEntity
  8
0
  6
CONTINUOUS
 62
     7
100
AcDbLine
 10
-85.12500000000001
 20
74.0596
 30
0.0
 11
-85.12500000000001
 21
57.7805
 31
0.0
  0
LINE
  5
47E
330
1E
100
AcDbEntity
  8
0
  6
CONTINUOUS
 62
     7
100
AcDbLine
 10
-87.62500000000001
 20
63.1745
 30
0.0
 11
-87.62500000000001
 21
57.7805
 31
0.0
  0
LINE
  5
47F
330
1E
100
AcDbEntity
  8
0
  6
CONTINUOUS
 62
     7
100
AcDbLine
 10
-82.72499999999999
 20
58.5805
 30
0.0
 11
-85.12500000000001
 21
58.5805
 31
0.0
  0
LINE
  5
480
330
1E
100
AcDbEntity
  8
0
  6
CONTINUOUS
 62
     7
100
AcDbLine
 10
-83.925
 20
58.90153000000001
 30
0.0
 11
-85.12500000000001
 21
58.58
 31
0.0
  0
LINE
  5
481
330
1E
100
AcDbEntity
  8
0
  6
CONTINUOUS
 62
     7
100
AcDbLine
 10
-85.12500000000001
 20
58.58
 30
0.0
 11
-83.925
 21
58.25846
 31
0.0
  0
LINE
  5
482
330
1E
100
AcDbEntity
  8
0
  6
CONTINUOUS
 62
     7
100
AcDbLine
 10
-87.62500000000001
 20
58.5805
 30
0.0
 11
-90.02500000000003
 21
58.5805
 31
0.0
  0
LINE
  5
483
330
1E
100
AcDbEntity
  8
0
  6
CONTINUOUS
 62
     7
100
AcDbLine
 10
-88.825
 20
58.25846
 30
0.0
 11
-87.62500000000001
 21
58.58
 31
0.0
  0
LINE
  5
484
330
1E
100
AcDbEntity
  8
0
  6
CONTINUOUS
 62
     7
100
AcDbLine
 10
-87.62500000000001
 20
58.58
 30
0.0
 11
-88.825
 21
58.90153000000001
 31
0.0
  0
LINE
  5
485
330
1E
100
AcDbEntity
  8
0
  6
CONTINUOUS
 62
     7
100
AcDbLine
 10
-90.02500000000003
 20
58.5805
 30
0.0
 11
-94.64499999999999
 21
58.5805
 31
0.0
  0
TEXT
  5
486
330
1E
100
AcDbEntity
  8
0
  6
CONTINUOUS
 62
     7
100
AcDbText
 10
-94.64499999999999
 20
58.9805
 30
0.0
 40
3.2
  1
50
 41
0.8125
  7
BIGFONT
100
AcDbText
  0
LINE
  5
487
330
1E
100
AcDbEntity
  8
0
  6
CONTINUOUS
 62
     7
100
AcDbLine
 10
-85.12500000000001
 20
58.5805
 30
0.0
 11
-60.12585
 21
58.5805
 31
0.0
  0
LINE
  5
488
330
1E
100
AcDbEntity
  8
0
  6
CONTINUOUS
 62
     7
100
AcDbLine
 10
-60.12585
 20
74.0596
 30
0.0
 11
-60.12585
 21
57.7805
 31
0.0
  0
LINE
  5
489
330
1E
100
AcDbEntity
  8
0
  6
CONTINUOUS
 62
     7
100
AcDbLine
 10
-61.325
 20
58.25846
 30
0.0
 11
-60.125
 21
58.58
 31
0.0
  0
LINE
  5
48A
330
1E
100
AcDbEntity
  8
0
  6
CONTINUOUS
 62
     7
100
AcDbLine
 10
-60.125
 20
58.58
 30
0.0
 11
-61.325
 21
58.90153000000001
 31
0.0
  0
LINE
  5
48B
330
1E
100
AcDbEntity
  8
0
  6
CONTINUOUS
 62
     7
100
AcDbLine
 10
-83.925
 20
58.90153000000001
 30
0.0
 11
-85.12500000000001
 21
58.58
 31
0.0
  0
LINE
  5
48C
330
1E
100
AcDbEntity
  8
0
  6
CONTINUOUS
 62
     7
100
AcDbLine
 10
-85.12500000000001
 20
58.58
 30
0.0
 11
-83.925
 21
58.25846
 31
0.0
  0
LINE
  5
48D
330
1E
100
AcDbEntity
  8
0
  6
CONTINUOUS
 62
     7
100
AcDbLine
 10
-60.12585
 20
58.5805
 30
0.0
 11
-53.84805
 21
58.5805
 31
0.0
  0
LINE
  5
48E
330
1E
100
AcDbEntity
  8
0
  6
CONTINUOUS
 62
     7
100
AcDbLine
 10
-53.84805
 20
74.0545
 30
0.0
 11
-53.84805
 21
57.7805
 31
0.0
  0
LINE
  5
48F
330
1E
100
AcDbEntity
  8
0
  6
CONTINUOUS
 62
     7
100
AcDbLine
 10
-60.12585
 20
63.5514
 30
0.0
 11
-60.12585
 21
57.7805
 31
0.0
  0
LINE
  5
490
330
1E
100
AcDbEntity
  8
0
  6
CONTINUOUS
 62
     7
100
AcDbLine
 10
-55.048
 20
58.25846
 30
0.0
 11
-53.848
 21
58.58
 31
0.0
  0
LINE
  5
491
330
1E
100
AcDbEntity
  8
0
  6
CONTINUOUS
 62
     7
100
AcDbLine
 10
-53.848
 20
58.58
 30
0.0
 11
-55.048
 21
58.90153000000001
 31
0.0
  0
LINE
  5
492
330
1E
100
AcDbEntity
  8
0
  6
CONTINUOUS
 62
     7
100
AcDbLine
 10
-58.925
 20
58.90153000000001
 30
0.0
 11
-60.125
 21
58.58
 31
0.0
  0
LINE
  5
493
330
1E
100
AcDbEntity
  8
0
  6
CONTINUOUS
 62
     7
100
AcDbLine
 10
-60.125
 20
58.58
 30
0.0
 11
-58.925
 21
58.25846
 31
0.0
  0
LINE
  5
494
330
1E
100
AcDbEntity
  8
0
  6
CONTINUOUS
 62
     7
100
AcDbLine
 10
-60.12585
 20
58.5805
 30
0.0
 11
-61.16585
 21
58.5805
 31
0.0
  0
TEXT
  5
495
330
1E
100
AcDbEntity
  8
0
  6
CONTINUOUS
 62
     7
100
AcDbText
 10
-61.16585
 20
58.9805
 30
0.0
 40
3.2
  1
125
 41
0.8125
  7
BIGFONT
100
AcDbText
  0
LINE
  5
496
330
1E
100
AcDbEntity
  8
0
  6
CONTINUOUS
 62
     1
100
AcDbLine
 10
-85.1087
 20
77.8045
 30
0.0
 11
-53.8587
 21
77.8045
 31
0.0
  0
LINE
  5
497
330
1E
100
AcDbEntity
  8
0
  6
CONTINUOUS
 62
     7
100
AcDbLine
 10
-97.32245
 20
73.5557
 30
0.0
 11
-97.32245
 21
81.8602
 31
0.0
  0
CIRCLE
  5
498
330
1E
100
AcDbEntity
  8
0
  6
CONTINUOUS
 62
     7
100
AcDbCircle
 10
-75.7873
 20
68.5468
 30
0.0
 40
2.5
  0
TEXT
  5
499
330
1E
100
AcDbEntity
  8
0
  6
CONTINUOUS
 62
     7
100
AcDbText
 10
-77.34155
 20
66.8086
 30
0.0
 40
3.2
  1
３
  7
BIGFONT
100
AcDbText
  0
TEXT
  5
49A
330
1E
100
AcDbEntity
  8
0
  6
CONTINUOUS
 62
     7
100
AcDbText
 10
-72.1941
 20
66.92104999999999
 30
0.0
 40
3.2
  1
D10
  7
BIGFONT
100
AcDbText
  0
LINE
  5
49B
330
1E
100
AcDbEntity
  8
0
  6
CONTINUOUS
 62
     7
100
AcDbLine
 10
-78.86955
 20
66.0494
 30
0.0
 11
-63.86955
 21
66.0494
 31
0.0
  0
LINE
  5
49C
330
1E
100
AcDbEntity
  8
0
  6
CONTINUOUS
 62
     7
100
AcDbLine
 10
-78.86955
 20
66.0494
 30
0.0
 11
-78.86955
 21
77.8045
 31
0.0
  0
LINE
  5
49D
330
1E
100
AcDbEntity
  8
0
  6
CONTINUOUS
 62
     7
100
AcDbLine
 10
-78.54746
 20
76.604
 30
0.0
 11
-78.869
 21
77.804
 31
0.0
  0
LINE
  5
49E
330
1E
100
AcDbEntity
  8
0
  6
CONTINUOUS
 62
     7
100
AcDbLine
 10
-78.869
 20
77.804
 30
0.0
 11
-79.19053000000002
 21
76.604
 31
0.0
  0
LINE
  5
49F
330
1E
100
AcDbEntity
  8
0
  6
CONTINUOUS
 62
     7
100
AcDbLine
 10
-50.125
 20
96.2405
 30
0.0
 11
-50.125
 21
105.0545
 31
0.0
  0
LINE
  5
4A0
330
1E
100
AcDbEntity
  8
0
  6
CONTINUOUS
 62
     7
100
AcDbLine
 10
-50.125
 20
75.6545
 30
0.0
 11
-50.125
 21
103.54075
 31
0.0
  0
LINE
  5
4A1
330
1E
100
AcDbEntity
  8
0
  6
CONTINUOUS
 62
     7
100
AcDbLine
 10
-198.3165999999999
 20
-10.64705
 30
0.0
 11
-192.0380999999999
 21
-10.64705
 31
0.0
  0
LINE
  5
4A2
330
1E
100
AcDbEntity
  8
0
  6
CONTINUOUS
 62
     7
100
AcDbLine
 10
-192.0380999999999
 20
-14.21834999999999
 30
0.0
 11
-192.0380999999999
 21
-9.847049999999999
 31
0.0
  0
LINE
  5
4A3
330
1E
100
AcDbEntity
  8
0
  6
CONTINUOUS
 62
     7
100
AcDbLine
 10
-198.3165999999999
 20
-19.64705
 30
0.0
 11
-198.3165999999999
 21
-9.847049999999999
 31
0.0
  0
LINE
  5
4A4
330
1E
100
AcDbEntity
  8
0
  6
CONTINUOUS
 62
     7
100
AcDbLine
 10
-193.238
 20
-10.96853
 30
0.0
 11
-192.0379999999999
 21
-10.64699999999999
 31
0.0
  0
LINE
  5
4A5
330
1E
100
AcDbEntity
  8
0
  6
CONTINUOUS
 62
     7
100
AcDbLine
 10
-192.0379999999999
 20
-10.64699999999999
 30
0.0
 11
-193.238
 21
-10.32546
 31
0.0
  0
LINE
  5
4A6
330
1E
100
AcDbEntity
  8
0
  6
CONTINUOUS
 62
     7
100
AcDbLine
 10
-197.1159999999999
 20
-10.32546
 30
0.0
 11
-198.3159999999999
 21
-10.64699999999999
 31
0.0
  0
LINE
  5
4A7
330
1E
100
AcDbEntity
  8
0
  6
CONTINUOUS
 62
     7
100
AcDbLine
 10
-198.3159999999999
 20
-10.64699999999999
 30
0.0
 11
-197.1159999999999
 21
-10.96853
 31
0.0
  0
TEXT
  5
4A8
330
1E
100
AcDbEntity
  8
0
  6
CONTINUOUS
 62
     7
100
AcDbText
 10
-199.6383999999999
 20
-10.28785
 30
0.0
 40
3.2
  1
125
  7
BIGFONT
100
AcDbText
  0
LINE
  5
4A9
330
1E
100
AcDbEntity
  8
0
  6
CONTINUOUS
 62
     7
100
AcDbLine
 10
-52.625
 20
-37.0994
 30
0.0
 11
-65.15100000000001
 21
-37.0994
 31
0.0
  0
LINE
  5
4AA
330
1E
100
AcDbEntity
  8
0
  6
CONTINUOUS
 62
     7
100
AcDbLine
 10
-63.951
 20
-36.77745999999999
 30
0.0
 11
-65.15100000000001
 21
-37.09899999999999
 31
0.0
  0
LINE
  5
4AB
330
1E
100
AcDbEntity
  8
0
  6
CONTINUOUS
 62
     7
100
AcDbLine
 10
-65.15100000000001
 20
-37.09899999999999
 30
0.0
 11
-63.951
 21
-37.42053
 31
0.0
  0
LINE
  5
4AC
330
1E
100
AcDbEntity
  8
0
  6
CONTINUOUS
 62
     1
100
AcDbLine
 10
-77.625
 20
-55.64705
 30
0.0
 11
-77.625
 21
-23.44705
 31
0.0
  0
LINE
  5
4AD
330
1E
100
AcDbEntity
  8
0
  6
CONTINUOUS
 62
     1
100
AcDbLine
 10
-83.87500000000001
 20
-55.64705
 30
0.0
 11
-83.87500000000001
 21
-23.53285
 31
0.0
  0
LINE
  5
4AE
330
1E
100
AcDbEntity
  8
0
  6
CONTINUOUS
 62
     1
100
AcDbLine
 10
-65.125
 20
-55.64705
 30
0.0
 11
-65.125
 21
-23.44705
 31
0.0
  0
LINE
  5
4AF
330
1E
100
AcDbEntity
  8
0
  6
CONTINUOUS
 62
     1
100
AcDbLine
 10
-84.77055
 20
-24.39705
 30
0.0
 11
-52.625
 21
-24.39705
 31
0.0
  0
LINE
  5
4B0
330
1E
100
AcDbEntity
  8
0
  6
CONTINUOUS
 62
     1
100
AcDbLine
 10
-84.875
 20
-30.64705
 30
0.0
 11
-52.625
 21
-30.64705
 31
0.0
  0
LINE
  5
4B1
330
1E
100
AcDbEntity
  8
0
  6
CONTINUOUS
 62
     1
100
AcDbLine
 10
-84.875
 20
-43.14705
 30
0.0
 11
-52.625
 21
-43.14705
 31
0.0
  0
LINE
  5
4B2
330
1E
100
AcDbEntity
  8
0
  6
CONTINUOUS
 62
     7
100
AcDbLine
 10
-71.375
 20
-30.64705
 30
0.0
 11
-71.375
 21
-24.39705
 31
0.0
  0
LINE
  5
4B3
330
1E
100
AcDbEntity
  8
0
  6
CONTINUOUS
 62
     7
100
AcDbLine
 10
-71.05346
 20
-25.59699999999999
 30
0.0
 11
-71.375
 21
-24.397
 31
0.0
  0
LINE
  5
4B4
330
1E
100
AcDbEntity
  8
0
  6
CONTINUOUS
 62
     7
100
AcDbLine
 10
-71.375
 20
-24.397
 30
0.0
 11
-71.69653000000002
 21
-25.59699999999999
 31
0.0
  0
LINE
  5
4B5
330
1E
100
AcDbEntity
  8
0
  6
CONTINUOUS
 62
     7
100
AcDbLine
 10
-83.8952
 20
-10.64705
 30
0.0
 11
-77.6122
 21
-10.64705
 31
0.0
  0
LINE
  5
4B6
330
1E
100
AcDbEntity
  8
0
  6
CONTINUOUS
 62
     7
100
AcDbLine
 10
-77.6122
 20
-19.64705
 30
0.0
 11
-77.6122
 21
-9.847049999999999
 31
0.0
  0
LINE
  5
4B7
330
1E
100
AcDbEntity
  8
0
  6
CONTINUOUS
 62
     7
100
AcDbLine
 10
-83.8952
 20
-19.64705
 30
0.0
 11
-83.8952
 21
-9.847049999999999
 31
0.0
  0
LINE
  5
4B8
330
1E
100
AcDbEntity
  8
0
  6
CONTINUOUS
 62
     7
100
AcDbLine
 10
-78.81199999999998
 20
-10.96853
 30
0.0
 11
-77.61199999999998
 21
-10.64699999999999
 31
0.0
  0
LINE
  5
4B9
330
1E
100
AcDbEntity
  8
0
  6
CONTINUOUS
 62
     7
100
AcDbLine
 10
-77.61199999999998
 20
-10.64699999999999
 30
0.0
 11
-78.81199999999998
 21
-10.32546
 31
0.0
  0
LINE
  5
4BA
330
1E
100
AcDbEntity
  8
0
  6
CONTINUOUS
 62
     7
100
AcDbLine
 10
-82.69499999999998
 20
-10.32546
 30
0.0
 11
-83.89499999999998
 21
-10.64699999999999
 31
0.0
  0
LINE
  5
4BB
330
1E
100
AcDbEntity
  8
0
  6
CONTINUOUS
 62
     7
100
AcDbLine
 10
-83.89499999999998
 20
-10.64699999999999
 30
0.0
 11
-82.69499999999998
 21
-10.96853
 31
0.0
  0
LINE
  5
4BC
330
1E
100
AcDbEntity
  8
0
  6
CONTINUOUS
 62
     7
100
AcDbLine
 10
-83.8952
 20
-10.64705
 30
0.0
 11
-84.9352
 21
-10.64705
 31
0.0
  0
TEXT
  5
4BD
330
1E
100
AcDbEntity
  8
0
  6
CONTINUOUS
 62
     7
100
AcDbText
 10
-84.9352
 20
-10.24704999999999
 30
0.0
 40
3.2
  1
125
 41
0.8125
  7
BIGFONT
100
AcDbText
  0
LINE
  5
4BE
330
1E
100
AcDbEntity
  8
0
  6
CONTINUOUS
 62
     7
100
AcDbLine
 10
-77.6122
 20
-10.64705
 30
0.0
 11
-52.6256
 21
-10.64705
 31
0.0
  0
LINE
  5
4BF
330
1E
100
AcDbEntity
  8
0
  6
CONTINUOUS
 62
     7
100
AcDbLine
 10
-52.6256
 20
-19.64705
 30
0.0
 11
-52.6256
 21
-9.847049999999999
 31
0.0
  0
LINE
  5
4C0
330
1E
100
AcDbEntity
  8
0
  6
CONTINUOUS
 62
     7
100
AcDbLine
 10
-53.825
 20
-10.96853
 30
0.0
 11
-52.625
 21
-10.64699999999999
 31
0.0
  0
LINE
  5
4C1
330
1E
100
AcDbEntity
  8
0
  6
CONTINUOUS
 62
     7
100
AcDbLine
 10
-52.625
 20
-10.64699999999999
 30
0.0
 11
-53.825
 21
-10.32546
 31
0.0
  0
LINE
  5
4C2
330
1E
100
AcDbEntity
  8
0
  6
CONTINUOUS
 62
     7
100
AcDbLine
 10
-76.41200000000002
 20
-10.32546
 30
0.0
 11
-77.61199999999998
 21
-10.64699999999999
 31
0.0
  0
LINE
  5
4C3
330
1E
100
AcDbEntity
  8
0
  6
CONTINUOUS
 62
     7
100
AcDbLine
 10
-77.61199999999998
 20
-10.64699999999999
 30
0.0
 11
-76.41200000000002
 21
-10.96853
 31
0.0
  0
LINE
  5
4C4
330
1E
100
AcDbEntity
  8
0
  6
CONTINUOUS
 62
     7
100
AcDbLine
 10
-52.6256
 20
-10.64705
 30
0.0
 11
-50.125
 21
-10.64705
 31
0.0
  0
LINE
  5
4C5
330
1E
100
AcDbEntity
  8
0
  6
CONTINUOUS
 62
     7
100
AcDbLine
 10
-50.125
 20
-16.49015
 30
0.0
 11
-50.125
 21
-9.847049999999999
 31
0.0
  0
LINE
  5
4C6
330
1E
100
AcDbEntity
  8
0
  6
CONTINUOUS
 62
     7
100
AcDbLine
 10
-47.72499999999999
 20
-10.64705
 30
0.0
 11
-50.125
 21
-10.64705
 31
0.0
  0
LINE
  5
4C7
330
1E
100
AcDbEntity
  8
0
  6
CONTINUOUS
 62
     7
100
AcDbLine
 10
-48.925
 20
-10.32546
 30
0.0
 11
-50.125
 21
-10.64699999999999
 31
0.0
  0
LINE
  5
4C8
330
1E
100
AcDbEntity
  8
0
  6
CONTINUOUS
 62
     7
100
AcDbLine
 10
-50.125
 20
-10.64699999999999
 30
0.0
 11
-48.925
 21
-10.96853
 31
0.0
  0
LINE
  5
4C9
330
1E
100
AcDbEntity
  8
0
  6
CONTINUOUS
 62
     7
100
AcDbLine
 10
-52.6256
 20
-10.64705
 30
0.0
 11
-55.02559999999999
 21
-10.64705
 31
0.0
  0
LINE
  5
4CA
330
1E
100
AcDbEntity
  8
0
  6
CONTINUOUS
 62
     7
100
AcDbLine
 10
-53.825
 20
-10.96853
 30
0.0
 11
-52.625
 21
-10.64699999999999
 31
0.0
  0
LINE
  5
4CB
330
1E
100
AcDbEntity
  8
0
  6
CONTINUOUS
 62
     7
100
AcDbLine
 10
-52.625
 20
-10.64699999999999
 30
0.0
 11
-53.825
 21
-10.32546
 31
0.0
  0
LINE
  5
4CC
330
1E
100
AcDbEntity
  8
0
  6
CONTINUOUS
 62
     7
100
AcDbLine
 10
-47.72499999999999
 20
-10.64705
 30
0.0
 11
-43.365
 21
-10.64705
 31
0.0
  0
TEXT
  5
4CD
330
1E
100
AcDbEntity
  8
0
  6
CONTINUOUS
 62
     7
100
AcDbText
 10
-48.565
 20
-10.24704999999999
 30
0.0
 40
3.2
  1
50
 41
0.8125
  7
BIGFONT
100
AcDbText
  0
LINE
  5
4CE
330
1E
100
AcDbEntity
  8
0
  6
CONTINUOUS
 62
     7
100
AcDbLine
 10
-94.50355
 20
-10.64705
 30
0.0
 11
-87.62500000000001
 21
-10.64705
 31
0.0
  0
LINE
  5
4CF
330
1E
100
AcDbEntity
  8
0
  6
CONTINUOUS
 62
     7
100
AcDbLine
 10
-88.825
 20
-10.96853
 30
0.0
 11
-87.62500000000001
 21
-10.64699999999999
 31
0.0
  0
LINE
  5
4D0
330
1E
100
AcDbEntity
  8
0
  6
CONTINUOUS
 62
     7
100
AcDbLine
 10
-87.62500000000001
 20
-10.64699999999999
 30
0.0
 11
-88.825
 21
-10.32546
 31
0.0
  0
LINE
  5
4D1
330
1E
100
AcDbEntity
  8
0
  6
CONTINUOUS
 62
     7
100
AcDbLine
 10
-97.32245
 20
78.31845
 30
0.0
 11
-97.32245
 21
103.30725
 31
0.0
  0
LINE
  5
4D2
330
1E
100
AcDbEntity
  8
0
  6
CONTINUOUS
 62
     7
100
AcDbLine
 10
-88.625
 20
103.30725
 30
0.0
 11
-98.12245
 21
103.30725
 31
0.0
  0
LINE
  5
4D3
330
1E
100
AcDbEntity
  8
0
  6
CONTINUOUS
 62
     7
100
AcDbLine
 10
-88.625
 20
78.31845
 30
0.0
 11
-98.12245
 21
78.31845
 31
0.0
  0
LINE
  5
4D4
330
1E
100
AcDbEntity
  8
0
  6
CONTINUOUS
 62
     7
100
AcDbLine
 10
-97.00046
 20
102.1069999999999
 30
0.0
 11
-97.322
 21
103.3069999999999
 31
0.0
  0
LINE
  5
4D5
330
1E
100
AcDbEntity
  8
0
  6
CONTINUOUS
 62
     7
100
AcDbLine
 10
-97.322
 20
103.3069999999999
 30
0.0
 11
-97.64352999999999
 21
102.1069999999999
 31
0.0
  0
LINE
  5
4D6
330
1E
100
AcDbEntity
  8
0
  6
CONTINUOUS
 62
     7
100
AcDbLine
 10
-97.64352999999999
 20
79.518
 30
0.0
 11
-97.322
 21
78.318
 31
0.0
  0
LINE
  5
4D7
330
1E
100
AcDbEntity
  8
0
  6
CONTINUOUS
 62
     7
100
AcDbLine
 10
-97.322
 20
78.318
 30
0.0
 11
-97.00046
 21
79.518
 31
0.0
  0
LINE
  5
4D8
330
1E
100
AcDbEntity
  8
0
  6
CONTINUOUS
 62
     7
100
AcDbLine
 10
-97.32245
 20
103.30725
 30
0.0
 11
-97.32245
 21
110.0381999999999
 31
0.0
  0
LINE
  5
4D9
330
1E
100
AcDbEntity
  8
0
  6
CONTINUOUS
 62
     7
100
AcDbLine
 10
-88.625
 20
110.0381999999999
 30
0.0
 11
-98.12245
 21
110.0381999999999
 31
0.0
  0
LINE
  5
4DA
330
1E
100
AcDbEntity
  8
0
  6
CONTINUOUS
 62
     7
100
AcDbLine
 10
-97.00046
 20
108.8379999999999
 30
0.0
 11
-97.322
 21
110.0379999999999
 31
0.0
  0
LINE
  5
4DB
330
1E
100
AcDbEntity
  8
0
  6
CONTINUOUS
 62
     7
100
AcDbLine
 10
-97.322
 20
110.0379999999999
 30
0.0
 11
-97.64352999999999
 21
108.8379999999999
 31
0.0
  0
LINE
  5
4DC
330
1E
100
AcDbEntity
  8
0
  6
CONTINUOUS
 62
     7
100
AcDbLine
 10
-97.64352999999999
 20
104.507
 30
0.0
 11
-97.322
 21
103.3069999999999
 31
0.0
  0
LINE
  5
4DD
330
1E
100
AcDbEntity
  8
0
  6
CONTINUOUS
 62
     7
100
AcDbLine
 10
-97.322
 20
103.3069999999999
 30
0.0
 11
-97.00046
 21
104.507
 31
0.0
  0
LINE
  5
4DE
330
1E
100
AcDbEntity
  8
0
  6
CONTINUOUS
 62
     7
100
AcDbLine
 10
-97.32245
 20
103.30725
 30
0.0
 11
-97.32245
 21
102.52725
 31
0.0
  0
TEXT
  5
4DF
330
1E
100
AcDbEntity
  8
0
  6
CONTINUOUS
 62
     7
100
AcDbText
 10
-97.72244999999999
 20
102.52725
 30
0.0
 40
3.2
  1
135
 50
90.0
 41
0.8125
  7
BIGFONT
100
AcDbText
  0
LINE
  5
4E0
330
1E
100
AcDbEntity
  8
0
  6
CONTINUOUS
 62
     7
100
AcDbLine
 10
-97.32245
 20
110.0381999999999
 30
0.0
 11
-97.32245
 21
112.5545
 31
0.0
  0
LINE
  5
4E1
330
1E
100
AcDbEntity
  8
0
  6
CONTINUOUS
 62
     7
100
AcDbLine
 10
-92.74705
 20
112.5545
 30
0.0
 11
-98.12245
 21
112.5545
 31
0.0
  0
LINE
  5
4E2
330
1E
100
AcDbEntity
  8
0
  6
CONTINUOUS
 62
     7
100
AcDbLine
 10
-97.32245
 20
114.9545
 30
0.0
 11
-97.32245
 21
112.5545
 31
0.0
  0
LINE
  5
4E3
330
1E
100
AcDbEntity
  8
0
  6
CONTINUOUS
 62
     7
100
AcDbLine
 10
-97.64352999999999
 20
113.7539999999999
 30
0.0
 11
-97.322
 21
112.5539999999999
 31
0.0
  0
LINE
  5
4E4
330
1E
100
AcDbEntity
  8
0
  6
CONTINUOUS
 62
     7
100
AcDbLine
 10
-97.322
 20
112.5539999999999
 30
0.0
 11
-97.00046
 21
113.7539999999999
 31
0.0
  0
LINE
  5
4E5
330
1E
100
AcDbEntity
  8
0
  6
CONTINUOUS
 62
     7
100
AcDbLine
 10
-97.32245
 20
110.0381999999999
 30
0.0
 11
-97.32245
 21
107.6381999999999
 31
0.0
  0
LINE
  5
4E6
330
1E
100
AcDbEntity
  8
0
  6
CONTINUOUS
 62
     7
100
AcDbLine
 10
-97.00046
 20
108.8379999999999
 30
0.0
 11
-97.322
 21
110.0379999999999
 31
0.0
  0
LINE
  5
4E7
330
1E
100
AcDbEntity
  8
0
  6
CONTINUOUS
 62
     7
100
AcDbLine
 10
-97.322
 20
110.0379999999999
 30
0.0
 11
-97.64352999999999
 21
108.8379999999999
 31
0.0
  0
LINE
  5
4E8
330
1E
100
AcDbEntity
  8
0
  6
CONTINUOUS
 62
     7
100
AcDbLine
 10
-97.32245
 20
114.9545
 30
0.0
 11
-97.32245
 21
118.7945
 31
0.0
  0
TEXT
  5
4E9
330
1E
100
AcDbEntity
  8
0
  6
CONTINUOUS
 62
     7
100
AcDbText
 10
-97.72244999999999
 20
113.5944999999999
 30
0.0
 40
3.2
  1
50
 50
90.0
 41
0.8125
  7
BIGFONT
100
AcDbText
  0
LINE
  5
4EA
330
1E
100
AcDbEntity
  8
0
  6
CONTINUOUS
 62
     7
100
AcDbLine
 10
-66.3977
 20
110.0545
 30
0.0
 11
-66.3977
 21
103.3044999999999
 31
0.0
  0
LINE
  5
4EB
330
1E
100
AcDbEntity
  8
0
  6
CONTINUOUS
 62
     7
100
AcDbLine
 10
-66.71853
 20
104.5039999999999
 30
0.0
 11
-66.39700000000001
 21
103.3039999999999
 31
0.0
  0
LINE
  5
4EC
330
1E
100
AcDbEntity
  8
0
  6
CONTINUOUS
 62
     7
100
AcDbLine
 10
-66.39700000000001
 20
103.3039999999999
 30
0.0
 11
-66.07545999999999
 21
104.5039999999999
 31
0.0
  0
LINE
  5
4ED
330
1E
100
AcDbEntity
  8
0
  6
CONTINUOUS
 62
     7
100
AcDbLine
 10
-78.86955
 20
120.0544999999999
 30
0.0
 11
-78.86955
 21
78.3045
 31
0.0
  0
LINE
  5
4EE
330
1E
100
AcDbEntity
  8
0
  6
CONTINUOUS
 62
     7
100
AcDbLine
 10
-79.19053000000002
 20
79.50400000000001
 30
0.0
 11
-78.869
 21
78.304
 31
0.0
  0
LINE
  5
4EF
330
1E
100
AcDbEntity
  8
0
  6
CONTINUOUS
 62
     7
100
AcDbLine
 10
-78.869
 20
78.304
 30
0.0
 11
-78.54746
 21
79.50400000000001
 31
0.0
  0
CIRCLE
  5
4F0
330
1E
100
AcDbEntity
  8
0
  6
CONTINUOUS
 62
     7
100
AcDbCircle
 10
-91.4728
 20
122.5878
 30
0.0
 40
2.5
  0
TEXT
  5
4F1
330
1E
100
AcDbEntity
  8
0
  6
CONTINUOUS
 62
     7
100
AcDbText
 10
-93.03074999999999
 20
120.9939
 30
0.0
 40
3.2
  1
２
  7
BIGFONT
100
AcDbText
  0
TEXT
  5
4F2
330
1E
100
AcDbEntity
  8
0
  6
CONTINUOUS
 62
     7
100
AcDbText
 10
-87.66530000000001
 20
120.8176499999999
 30
0.0
 40
3.2
  1
D10
  7
BIGFONT
100
AcDbText
  0
LINE
  5
4F3
330
1E
100
AcDbEntity
  8
0
  6
CONTINUOUS
 62
     7
100
AcDbLine
 10
-93.86955
 20
120.0544999999999
 30
0.0
 11
-78.86955
 21
120.0544999999999
 31
0.0
  0
TEXT
  5
4F4
330
1E
100
AcDbEntity
  8
0
  6
CONTINUOUS
 62
     7
100
AcDbText
 10
-97.75955000000001
 20
75.5604
 30
0.0
 40
3.2
  1
10
 50
90.0
  7
BIGFONT
100
AcDbText
  0
POINT
  5
4F5
330
1E
100
AcDbEntity
  8
0
  6
CONTINUOUS
 62
     1
100
AcDbPoint
 10
48.0
 20
78.29439999999998
 30
0.0
  0
LINE
  5
4F6
330
1E
100
AcDbEntity
  8
0
  6
CONTINUOUS
 62
     7
100
AcDbLine
 10
63.98155
 20
87.5941
 30
0.0
 11
60.5
 21
78.29439999999998
 31
0.0
  0
LINE
  5
4F7
330
1E
100
AcDbEntity
  8
0
  6
CONTINUOUS
 62
     7
100
AcDbLine
 10
60.6196
 20
79.53056
 30
0.0
 11
60.5
 21
78.29399999999998
 31
0.0
  0
LINE
  5
4F8
330
1E
100
AcDbEntity
  8
0
  6
CONTINUOUS
 62
     7
100
AcDbLine
 10
60.5
 20
78.29399999999998
 30
0.0
 11
61.22185
 21
79.30509
 31
0.0
  0
LINE
  5
4F9
330
1E
100
AcDbEntity
  8
0
  6
CONTINUOUS
 62
     7
100
AcDbLine
 10
63.98155
 20
87.5941
 30
0.0
 11
53.84555
 21
78.79940000000002
 31
0.0
  0
LINE
  5
4FA
330
1E
100
AcDbEntity
  8
0
  6
CONTINUOUS
 62
     7
100
AcDbLine
 10
54.54064999999999
 20
79.82828999999998
 30
0.0
 11
53.845
 21
78.79900000000002
 31
0.0
  0
LINE
  5
4FB
330
1E
100
AcDbEntity
  8
0
  6
CONTINUOUS
 62
     7
100
AcDbLine
 10
53.845
 20
78.79900000000002
 30
0.0
 11
54.9621
 21
79.34256999999998
 31
0.0
  0
LINE
  5
4FC
330
1E
100
AcDbEntity
  8
0
  6
CONTINUOUS
 62
     7
100
AcDbLine
 10
50.7792
 20
95.88635
 30
0.0
 11
43.8188
 21
80.71814999999999
 31
0.0
  0
LINE
  5
4FD
330
1E
100
AcDbEntity
  8
0
  6
CONTINUOUS
 62
     7
100
AcDbLine
 10
44.02624
 20
81.94275000000002
 30
0.0
 11
43.81800000000001
 21
80.71800000000001
 31
0.0
  0
LINE
  5
4FE
330
1E
100
AcDbEntity
  8
0
  6
CONTINUOUS
 62
     7
100
AcDbLine
 10
43.81800000000001
 20
80.71800000000001
 30
0.0
 11
44.61070999999999
 21
81.67454000000002
 31
0.0
  0
LINE
  5
4FF
330
1E
100
AcDbEntity
  8
0
  6
CONTINUOUS
 62
     7
100
AcDbLine
 10
50.75
 20
66.0494
 30
0.0
 11
48.0
 21
77.6318
 31
0.0
  0
LINE
  5
500
330
1E
100
AcDbEntity
  8
0
  6
CONTINUOUS
 62
     7
100
AcDbLine
 10
48.59004999999999
 20
76.53773000000002
 30
0.0
 11
48.0
 21
77.631
 31
0.0
  0
LINE
  5
501
330
1E
100
AcDbEntity
  8
0
  6
CONTINUOUS
 62
     7
100
AcDbLine
 10
48.0
 20
77.631
 30
0.0
 11
47.96435999999999
 21
76.38916999999998
 31
0.0
  0
LINE
  5
502
330
1E
100
AcDbEntity
  8
0
  6
CONTINUOUS
 62
     7
100
AcDbLine
 10
50.75
 20
66.0494
 30
0.0
 11
44.9506
 21
77.1994
 31
0.0
  0
LINE
  5
503
330
1E
100
AcDbEntity
  8
0
  6
CONTINUOUS
 62
     7
100
AcDbLine
 10
45.78898
 20
76.28275999999998
 30
0.0
 11
44.95
 21
77.19899999999999
 31
0.0
  0
LINE
  5
504
330
1E
100
AcDbEntity
  8
0
  6
CONTINUOUS
 62
     7
100
AcDbLine
 10
44.95
 20
77.19899999999999
 30
0.0
 11
45.21846
 21
75.98601999999998
 31
0.0
  0
CIRCLE
  5
505
330
1E
100
AcDbEntity
  8
0
  6
CONTINUOUS
 62
     7
100
AcDbCircle
 10
15.5705
 20
127.1598
 30
0.0
 40
2.5
  0
TEXT
  5
506
330
1E
100
AcDbEntity
  8
0
  6
CONTINUOUS
 62
     7
100
AcDbText
 10
13.95405
 20
125.5242999999999
 30
0.0
 40
3.2
  1
６
  7
BIGFONT
100
AcDbText
  0
TEXT
  5
507
330
1E
100
AcDbEntity
  8
0
  6
CONTINUOUS
 62
     7
100
AcDbText
 10
18.82704999999998
 20
125.5376
 30
0.0
 40
3.2
  1
D10
  7
BIGFONT
100
AcDbText
  0
LINE
  5
508
330
1E
100
AcDbEntity
  8
0
  6
CONTINUOUS
 62
     7
100
AcDbLine
 10
13.27605
 20
124.67125
 30
0.0
 11
28.27605
 21
124.67125
 31
0.0
  0
LINE
  5
509
330
1E
100
AcDbEntity
  8
0
  6
CONTINUOUS
 62
     7
100
AcDbLine
 10
28.27605
 20
124.67125
 30
0.0
 11
40.60204999999998
 21
94.34435
 31
0.0
  0
LINE
  5
50A
330
1E
100
AcDbEntity
  8
0
  6
CONTINUOUS
 62
     7
100
AcDbLine
 10
39.85229
 20
95.33461
 30
0.0
 11
40.602
 21
94.344
 31
0.0
  0
LINE
  5
50B
330
1E
100
AcDbEntity
  8
0
  6
CONTINUOUS
 62
     7
100
AcDbLine
 10
40.602
 20
94.344
 30
0.0
 11
40.44804
 21
95.57675000000001
 31
0.0
  0
LINE
  5
50C
330
1E
100
AcDbEntity
  8
0
  6
CONTINUOUS
 62
     7
100
AcDbLine
 10
202.9333999999999
 20
-53.5893
 30
0.0
 11
207.5
 21
-48.14705
 31
0.0
  0
LINE
  5
50D
330
1E
100
AcDbEntity
  8
0
  6
CONTINUOUS
 62
     7
100
AcDbLine
 10
197.5
 20
-58.14705
 30
0.0
 11
202.9333999999999
 21
-53.5893
 31
0.0
  0
ARC
  5
50E
330
1E
100
AcDbEntity
  8
0
  6
CONTINUOUS
 62
     7
100
AcDbCircle
 10
202.93285
 20
-53.59
 30
0.0
 40
2.936149999999998
100
AcDbArc
 50
50.0
 51
219.9899999999999
  0
ARC
  5
50F
330
1E
100
AcDbEntity
  8
0
  6
CONTINUOUS
 62
     7
100
AcDbCircle
 10
203.57867
 20
-54.00198
 30
0.0
 40
2.93718
100
AcDbArc
 50
64.99961400000002
 51
88.408075
  0
ARC
  5
510
330
1E
100
AcDbEntity
  8
0
  6
CONTINUOUS
 62
     7
100
AcDbCircle
 10
202.4139799999999
 20
-53.02468000000001
 30
0.0
 40
2.93718
100
AcDbArc
 50
34.999614
 51
58.408075
  0
ARC
  5
511
330
1E
100
AcDbEntity
  8
0
  6
CONTINUOUS
 62
     7
100
AcDbCircle
 10
202.36723
 20
-53.07216999999999
 30
0.0
 40
2.93513
100
AcDbArc
 50
211.5581999999998
 51
234.9830199999999
  0
ARC
  5
512
330
1E
100
AcDbEntity
  8
0
  6
CONTINUOUS
 62
     7
100
AcDbCircle
 10
203.34349
 20
-54.23634
 30
0.0
 40
2.93513
100
AcDbArc
 50
181.5582
 51
204.9830199999999
  0
TEXT
  5
513
330
1E
100
AcDbEntity
  8
0
  6
CONTINUOUS
 62
     7
100
AcDbText
 10
196.89676
 20
-54.90740999999999
 30
0.0
 40
3.2
  1
170°
 50
44.99
 41
0.8125
  7
BIGFONT
100
AcDbText
  0
LINE
  5
514
330
1E
100
AcDbEntity
  8
0
  6
CONTINUOUS
 62
     7
100
AcDbLine
 10
202.9333999999999
 20
75.04940000000002
 30
0.0
 11
202.9333999999999
 21
81.0494
 31
0.0
  0
LINE
  5
515
330
1E
100
AcDbEntity
  8
0
  6
CONTINUOUS
 62
     7
100
AcDbLine
 10
176.0
 20
-33.00699999999999
 30
0.0
 11
182.36805
 21
-26.64705
 31
0.0
  0
LINE
  5
516
330
1E
100
AcDbEntity
  8
0
  6
CONTINUOUS
 62
     7
100
AcDbLine
 10
182.36805
 20
-26.64705
 30
0.0
 11
207.5
 21
-26.64705
 31
0.0
  0
LINE
  5
517
330
1E
100
AcDbEntity
  8
0
  6
CONTINUOUS
 62
     7
100
AcDbLine
 10
176.0
 20
-58.14705
 30
0.0
 11
176.0
 21
-33.00699999999999
 31
0.0
  0
LINE
  5
518
330
1E
100
AcDbEntity
  8
0
  6
CONTINUOUS
 62
     7
100
AcDbLine
 10
180.4174999999999
 20
-37.43065
 30
0.0
 11
186.78593
 21
-31.0711
 31
0.0
  0
LINE
  5
519
330
1E
100
AcDbEntity
  8
0
  6
CONTINUOUS
 62
     7
100
AcDbLine
 10
183.07466
 20
-27.35465
 30
0.0
 11
187.35122
 21
-31.63717999999999
 31
0.0
  0
LINE
  5
51A
330
1E
100
AcDbEntity
  8
0
  6
CONTINUOUS
 62
     7
100
AcDbLine
 10
176.70661
 20
-33.71459
 30
0.0
 11
180.9827899999999
 21
-37.99672
 31
0.0
  0
LINE
  5
51B
330
1E
100
AcDbEntity
  8
0
  6
CONTINUOUS
 62
     7
100
AcDbLine
 10
186.16308
 20
-32.14645
 30
0.0
 11
186.7849999999999
 21
-31.07099999999999
 31
0.0
  0
LINE
  5
51C
330
1E
100
AcDbEntity
  8
0
  6
CONTINUOUS
 62
     7
100
AcDbLine
 10
186.7849999999999
 20
-31.07099999999999
 30
0.0
 11
185.7086699999999
 21
-31.69140999999999
 31
0.0
  0
LINE
  5
51D
330
1E
100
AcDbEntity
  8
0
  6
CONTINUOUS
 62
     7
100
AcDbLine
 10
181.03891
 20
-36.35454
 30
0.0
 11
180.417
 21
-37.43
 31
0.0
  0
LINE
  5
51E
330
1E
100
AcDbEntity
  8
0
  6
CONTINUOUS
 62
     7
100
AcDbLine
 10
180.417
 20
-37.43
 30
0.0
 11
181.4933199999999
 21
-36.80957999999999
 31
0.0
  0
TEXT
  5
51F
330
1E
100
AcDbEntity
  8
0
  6
CONTINUOUS
 62
     7
100
AcDbText
 10
183.38588
 20
-39.55402
 30
0.0
 40
3.2
  1
180
 50
44.96
 41
0.8125
  7
BIGFONT
100
AcDbText
  0
LINE
  5
520
330
1E
100
AcDbEntity
  8
0
  6
CONTINUOUS
 62
     7
100
AcDbLine
 10
-169.1322999999998
 20
-53.5893
 30
0.0
 11
-164.5656999999999
 21
-48.14705
 31
0.0
  0
LINE
  5
521
330
1E
100
AcDbEntity
  8
0
  6
CONTINUOUS
 62
     7
100
AcDbLine
 10
-174.5657
 20
-58.14705
 30
0.0
 11
-169.1322999999998
 21
-53.5893
 31
0.0
  0
LINE
  5
522
330
1E
100
AcDbEntity
  8
0
  6
CONTINUOUS
 62
     7
100
AcDbLine
 10
-54.6916
 20
-53.5893
 30
0.0
 11
-50.125
 21
-48.14705
 31
0.0
  0
LINE
  5
523
330
1E
100
AcDbEntity
  8
0
  6
CONTINUOUS
 62
     7
100
AcDbLine
 10
-60.125
 20
-58.14705
 30
0.0
 11
-54.6916
 21
-53.5893
 31
0.0
  0
LINE
  5
564
330
1E
100
AcDbEntity
  8
2
  6
CONTINUOUS
 62
     7
100
AcDbLine
 10
62.5075
 20
-142.8066
 30
0.0
 11
130.5074999999999
 21
-142.8066
 31
0.0
  0
LINE
  5
565
330
1E
100
AcDbEntity
  8
2
  6
CONTINUOUS
 62
     7
100
AcDbLine
 10
130.5074999999999
 20
-167.8066
 30
0.0
 11
130.5074999999999
 21
-142.8066
 31
0.0
  0
LINE
  5
566
330
1E
100
AcDbEntity
  8
2
  6
CONTINUOUS
 62
     7
100
AcDbLine
 10
62.5075
 20
-167.8066
 30
0.0
 11
130.5074999999999
 21
-167.8066
 31
0.0
  0
LINE
  5
567
330
1E
100
AcDbEntity
  8
2
  6
CONTINUOUS
 62
     7
100
AcDbLine
 10
62.5075
 20
-167.8066
 30
0.0
 11
62.5075
 21
-142.8066
 31
0.0
  0
LINE
  5
568
330
1E
100
AcDbEntity
  8
2
  6
CONTINUOUS
 62
     7
100
AcDbLine
 10
62.5075
 20
-149.8066
 30
0.0
 11
130.5074999999999
 21
-149.8066
 31
0.0
  0
LINE
  5
569
330
1E
100
AcDbEntity
  8
2
  6
CONTINUOUS
 62
     7
100
AcDbLine
 10
62.5075
 20
-155.8066
 30
0.0
 11
130.5074999999999
 21
-155.8066
 31
0.0
  0
LINE
  5
56A
330
1E
100
AcDbEntity
  8
2
  6
CONTINUOUS
 62
     7
100
AcDbLine
 10
62.5075
 20
-161.8065999999999
 30
0.0
 11
130.5074999999999
 21
-161.8065999999999
 31
0.0
  0
LINE
  5
56B
330
1E
100
AcDbEntity
  8
2
  6
CONTINUOUS
 62
     7
100
AcDbLine
 10
110.5075
 20
-167.8066
 30
0.0
 11
110.5075
 21
-149.8066
 31
0.0
  0
TEXT
  5
56C
330
1E
100
AcDbEntity
  8
2
  6
CONTINUOUS
 62
     7
100
AcDbText
 10
68.35399999999999
 20
-154.8066
 30
0.0
 40
4.0
  1
鉄　　筋
  7
BIGFONT
100
AcDbText
  0
TEXT
  5
56D
330
1E
100
AcDbEntity
  8
2
  6
CONTINUOUS
 62
     7
100
AcDbText
 10
68.35399999999999
 20
-160.8065999999999
 30
0.0
 40
4.0
  1
コンクリート容積
  7
BIGFONT
100
AcDbText
  0
TEXT
  5
56E
330
1E
100
AcDbEntity
  8
2
  6
CONTINUOUS
 62
     7
100
AcDbText
 10
68.35399999999999
 20
-166.8066
 30
0.0
 40
4.0
  1
総　重　量
  7
BIGFONT
100
AcDbText
  0
TEXT
  5
56F
330
1E
100
AcDbEntity
  8
2
  6
CONTINUOUS
 62
     7
100
AcDbText
 10
70.28539999999999
 20
-148.5911
 30
0.0
 40
5.0
  1
重　量　内　訳　表
  7
BIGFONT
100
AcDbText
  0
TEXT
  5
570
330
1E
100
AcDbEntity
  8
2
  6
CONTINUOUS
 62
     7
100
AcDbText
 10
112.4589999999999
 20
-154.8066
 30
0.0
 40
3.2
  1
14.59
  7
BIGFONT
100
AcDbText
  0
TEXT
  5
571
330
1E
100
AcDbEntity
  8
2
  6
CONTINUOUS
 62
     7
100
AcDbText
 10
124.9237774935312
 20
-154.8066
 30
0.0
 40
3.0
  1
ｋｇ
 41
0.8
  7
BIGFONT
100
AcDbText
  0
TEXT
  5
572
330
1E
100
AcDbEntity
  8
2
  6
CONTINUOUS
 62
     7
100
AcDbText
 10
112.759
 20
-160.9352
 30
0.0
 40
3.2
  1
0.171
  7
BIGFONT
100
AcDbText
  0
TEXT
  5
573
330
1E
100
AcDbEntity
  8
2
  6
CONTINUOUS
 62
     7
100
AcDbText
 10
113.6589999999999
 20
-166.9352
 30
0.0
 40
3.2
  1
410
  7
BIGFONT
100
AcDbText
  0
TEXT
  5
574
330
1E
100
AcDbEntity
  8
2
  6
CONTINUOUS
 62
     7
100
AcDbText
 10
124.8726774935312
 20
-166.8066
 30
0.0
 40
3.0
  1
ｋｇ
 41
0.8
  7
BIGFONT
100
AcDbText
  0
TEXT
  5
575
330
1E
100
AcDbEntity
  8
2
  6
CONTINUOUS
 62
     7
100
AcDbText
 10
125.2897831201486
 20
-160.8065999999999
 30
0.0
 40
3.0
  1
ｍ
 41
0.8
  7
BIGFONT
100
AcDbText
  0
TEXT
  5
576
330
1E
100
AcDbEntity
  8
2
  6
CONTINUOUS
 62
     7
100
AcDbText
 10
128.1183
 20
-159.6033999999999
 30
0.0
 40
1.199999999999999
  1
3
  7
BIGFONT
100
AcDbText
  0
TEXT
  5
587
330
1E
100
AcDbEntity
  8
2
  6
CONTINUOUS
 62
     7
100
AcDbText
 10
-3.046399999999948
 20
-127.2923
 30
0.0
 40
3.5
  1
D10
  7
BIGFONT
100
AcDbText
  0
TEXT
  5
588
330
1E
100
AcDbEntity
  8
2
  6
CONTINUOUS
 62
     7
100
AcDbText
 10
-3.046399999999948
 20
-119.2922999999999
 30
0.0
 40
3.5
  1
D10
  7
BIGFONT
100
AcDbText
  0
TEXT
  5
589
330
1E
100
AcDbEntity
  8
2
  6
CONTINUOUS
 62
     7
100
AcDbText
 10
-3.046399999999948
 20
-111.2923
 30
0.0
 40
3.5
  1
D10
  7
BIGFONT
100
AcDbText
  0
TEXT
  5
58A
330
1E
100
AcDbEntity
  8
2
  6
CONTINUOUS
 62
     7
100
AcDbText
 10
-3.046399999999948
 20
-103.2923
 30
0.0
 40
3.5
  1
D10
  7
BIGFONT
100
AcDbText
  0
TEXT
  5
58B
330
1E
100
AcDbEntity
  8
2
  6
CONTINUOUS
 62
     7
100
AcDbText
 10
-3.011099999999942
 20
-94.867
 30
0.0
 40
3.5
  1
D10
  7
BIGFONT
100
AcDbText
  0
TEXT
  5
58C
330
1E
100
AcDbEntity
  8
2
  6
CONTINUOUS
 62
     7
100
AcDbText
 10
-3.011099999999942
 20
-90.17369999999999
 30
0.0
 40
3.5
  1
D10
  7
BIGFONT
100
AcDbText
  0
TEXT
  5
58D
330
1E
100
AcDbEntity
  8
2
  6
CONTINUOUS
 62
     7
100
AcDbText
 10
-3.011099999999942
 20
-82.367
 30
0.0
 40
3.5
  1
D10
  7
BIGFONT
100
AcDbText
  0
TEXT
  5
58E
330
1E
100
AcDbEntity
  8
2
  6
CONTINUOUS
 62
     7
100
AcDbText
 10
-3.011099999999942
 20
-77.67369999999998
 30
0.0
 40
3.5
  1
D10
  7
BIGFONT
100
AcDbText
  0
TEXT
  5
58F
330
1E
100
AcDbEntity
  8
2
  6
CONTINUOUS
 62
     7
100
AcDbText
 10
-3.046399999999948
 20
-69.2923
 30
0.0
 40
3.5
  1
D10
  7
BIGFONT
100
AcDbText
  0
TEXT
  5
590
330
1E
100
AcDbEntity
  8
2
  6
CONTINUOUS
 62
     7
100
AcDbText
 10
-0.729699999999923
 20
-62.31149999999999
 30
0.0
 40
4.0
  1
径
  7
BIGFONT
100
AcDbText
  0
TEXT
  5
591
330
1E
100
AcDbEntity
  8
2
  6
CONTINUOUS
 62
     7
100
AcDbText
 10
-9.173599999999963
 20
-52.7496
 30
0.0
 40
5.0
  1
鉄筋表
  7
BIGFONT
100
AcDbText
  0
LINE
  5
592
330
1E
100
AcDbEntity
  8
2
  6
CONTINUOUS
 62
     7
100
AcDbLine
 10
-16.49249999999994
 20
-137.8066
 30
0.0
 11
130.5074999999999
 21
-137.8066
 31
0.0
  0
LINE
  5
593
330
1E
100
AcDbEntity
  8
2
  6
CONTINUOUS
 62
     7
100
AcDbLine
 10
-16.49249999999994
 20
-129.8066
 30
0.0
 11
130.5074999999999
 21
-129.8066
 31
0.0
  0
LINE
  5
594
330
1E
100
AcDbEntity
  8
2
  6
CONTINUOUS
 62
     7
100
AcDbLine
 10
-16.49249999999994
 20
-121.8066
 30
0.0
 11
130.5074999999999
 21
-121.8066
 31
0.0
  0
LINE
  5
595
330
1E
100
AcDbEntity
  8
2
  6
CONTINUOUS
 62
     7
100
AcDbLine
 10
-16.49249999999994
 20
-113.8066
 30
0.0
 11
130.5074999999999
 21
-113.8066
 31
0.0
  0
LINE
  5
596
330
1E
100
AcDbEntity
  8
2
  6
CONTINUOUS
 62
     7
100
AcDbLine
 10
-16.49249999999994
 20
-97.80660000000001
 30
0.0
 11
130.5074999999999
 21
-97.80660000000001
 31
0.0
  0
LINE
  5
597
330
1E
100
AcDbEntity
  8
2
  6
CONTINUOUS
 62
     7
100
AcDbLine
 10
-16.49249999999994
 20
-84.8066
 30
0.0
 11
130.5074999999999
 21
-84.8066
 31
0.0
  0
LINE
  5
598
330
1E
100
AcDbEntity
  8
2
  6
CONTINUOUS
 62
     7
100
AcDbLine
 10
-16.49249999999994
 20
-105.8065999999999
 30
0.0
 11
130.5074999999999
 21
-105.8065999999999
 31
0.0
  0
LINE
  5
599
330
1E
100
AcDbEntity
  8
2
  6
CONTINUOUS
 62
     7
100
AcDbLine
 10
-16.49249999999994
 20
-63.8066
 30
0.0
 11
130.5074999999999
 21
-63.8066
 31
0.0
  0
LINE
  5
59A
330
1E
100
AcDbEntity
  8
2
  6
CONTINUOUS
 62
     7
100
AcDbLine
 10
-16.49249999999994
 20
-71.8066
 30
0.0
 11
130.5074999999999
 21
-71.8066
 31
0.0
  0
LINE
  5
59B
330
1E
100
AcDbEntity
  8
2
  6
CONTINUOUS
 62
     7
100
AcDbLine
 10
-16.49249999999994
 20
-55.8066
 30
0.0
 11
130.5074999999999
 21
-55.8066
 31
0.0
  0
LINE
  5
59C
330
1E
100
AcDbEntity
  8
2
  6
CONTINUOUS
 62
     7
100
AcDbLine
 10
-16.49249999999994
 20
-137.8066
 30
0.0
 11
-16.49249999999994
 21
-105.8065999999999
 31
0.0
  0
LINE
  5
59D
330
1E
100
AcDbEntity
  8
2
  6
CONTINUOUS
 62
     7
100
AcDbLine
 10
-6.492499999999949
 20
-129.8066
 30
0.0
 11
-6.492499999999949
 21
-55.8066
 31
0.0
  0
LINE
  5
59E
330
1E
100
AcDbEntity
  8
2
  6
CONTINUOUS
 62
     7
100
AcDbLine
 10
-16.49249999999994
 20
-71.8066
 30
0.0
 11
-16.49249999999994
 21
-55.8066
 31
0.0
  0
LINE
  5
59F
330
1E
100
AcDbEntity
  8
2
  6
CONTINUOUS
 62
     7
100
AcDbLine
 10
-16.49249999999994
 20
-105.8065999999999
 30
0.0
 11
-16.49249999999994
 21
-71.8066
 31
0.0
  0
TEXT
  5
5A0
330
1E
100
AcDbEntity
  8
2
  6
CONTINUOUS
 62
     7
100
AcDbText
 10
-15.76969999999993
 20
-62.1358
 30
0.0
 40
4.0
  1
番号
  7
BIGFONT
100
AcDbText
  0
LINE
  5
5A1
330
1E
100
AcDbEntity
  8
2
  6
CONTINUOUS
 62
     7
100
AcDbLine
 10
130.5074999999999
 20
-137.8066
 30
0.0
 11
130.5074999999999
 21
-105.8065999999999
 31
0.0
  0
LINE
  5
5A2
330
1E
100
AcDbEntity
  8
2
  6
CONTINUOUS
 62
     7
100
AcDbLine
 10
95.50750000000006
 20
-137.8066
 30
0.0
 11
95.50750000000006
 21
-55.8066
 31
0.0
  0
TEXT
  5
5A3
330
1E
100
AcDbEntity
  8
2
  6
CONTINUOUS
 62
     7
100
AcDbText
 10
78.24230000000007
 20
-136.0640999999999
 30
0.0
 40
4.0
  1
合計
  7
BIGFONT
100
AcDbText
  0
TEXT
  5
5A4
330
1E
100
AcDbEntity
  8
2
  6
CONTINUOUS
 62
     7
100
AcDbText
 10
108.0529
 20
-136.0640999999999
 30
0.0
 40
3.2
  1
14.59
  7
BIGFONT
100
AcDbText
  0
TEXT
  5
5A5
330
1E
100
AcDbEntity
  8
2
  6
CONTINUOUS
 62
     7
100
AcDbText
 10
122.1789
 20
-136.0640999999999
 30
0.0
 40
3.2
  1
ｋｇ
  7
BIGFONT
100
AcDbText
  0
LINE
  5
5AF
330
1E
100
AcDbEntity
  8
2
  6
CONTINUOUS
 62
     7
100
AcDbLine
 10
8.50750000000005
 20
-129.8066
 30
0.0
 11
8.50750000000005
 21
-55.8066
 31
0.0
  0
LINE
  5
5B0
330
1E
100
AcDbEntity
  8
2
  6
CONTINUOUS
 62
     7
100
AcDbLine
 10
26.50750000000005
 20
-129.8066
 30
0.0
 11
26.50750000000005
 21
-55.8066
 31
0.0
  0
LINE
  5
5B1
330
1E
100
AcDbEntity
  8
2
  6
CONTINUOUS
 62
     7
100
AcDbLine
 10
44.50750000000005
 20
-129.8066
 30
0.0
 11
44.50750000000005
 21
-55.8066
 31
0.0
  0
LINE
  5
5B2
330
1E
100
AcDbEntity
  8
2
  6
CONTINUOUS
 62
     7
100
AcDbLine
 10
62.50750000000005
 20
-129.8066
 30
0.0
 11
62.50750000000005
 21
-55.8066
 31
0.0
  0
LINE
  5
5B3
330
1E
100
AcDbEntity
  8
2
  6
CONTINUOUS
 62
     7
100
AcDbLine
 10
77.50750000000005
 20
-129.8066
 30
0.0
 11
77.50750000000005
 21
-55.8066
 31
0.0
  0
TEXT
  5
5B4
330
1E
100
AcDbEntity
  8
2
  6
CONTINUOUS
 62
     7
100
AcDbText
 10
16.04892364034259
 20
-69.3302
 30
0.0
 40
3.5
  1
610
  7
BIGFONT
100
AcDbText
  0
TEXT
  5
5BD
330
1E
100
AcDbEntity
  8
2
  6
CONTINUOUS
 62
     7
100
AcDbText
 10
14.25130000000007
 20
-62.3146
 30
0.0
 40
4.0
  1
Ｌ１
  7
BIGFONT
100
AcDbText
  0
TEXT
  5
5BE
330
1E
100
AcDbEntity
  8
2
  6
CONTINUOUS
 62
     7
100
AcDbText
 10
31.95010000000002
 20
-62.34999999999999
 30
0.0
 40
4.0
  1
Ｌ２
  7
BIGFONT
100
AcDbText
  0
TEXT
  5
5BF
330
1E
100
AcDbEntity
  8
2
  6
CONTINUOUS
 62
     7
100
AcDbText
 10
68.30980000000005
 20
-62.3146
 30
0.0
 40
4.0
  1
Ｒ
  7
BIGFONT
100
AcDbText
  0
TEXT
  5
5C0
330
1E
100
AcDbEntity
  8
2
  6
CONTINUOUS
 62
     7
100
AcDbText
 10
49.1396000000001
 20
-62.2791
 30
0.0
 40
4.0
  1
Ｌ３
  7
BIGFONT
100
AcDbText
  0
TEXT
  5
5C1
330
1E
100
AcDbEntity
  8
2
  6
CONTINUOUS
 62
     7
100
AcDbText
 10
84.21090000000004
 20
-62.34999999999999
 30
0.0
 40
4.0
  1
Ｌ
  7
BIGFONT
100
AcDbText
  0
LINE
  5
5C2
330
1E
100
AcDbEntity
  8
2
  6
CONTINUOUS
 62
     7
100
AcDbLine
 10
110.5075
 20
-129.8066
 30
0.0
 11
110.5075
 21
-55.8066
 31
0.0
  0
LINE
  5
5C3
330
1E
100
AcDbEntity
  8
2
  6
CONTINUOUS
 62
     7
100
AcDbLine
 10
130.5074999999999
 20
-71.8066
 30
0.0
 11
130.5074999999999
 21
-55.8066
 31
0.0
  0
LINE
  5
5C4
330
1E
100
AcDbEntity
  8
2
  6
CONTINUOUS
 62
     7
100
AcDbLine
 10
130.5074999999999
 20
-105.8065999999999
 30
0.0
 11
130.5074999999999
 21
-71.8066
 31
0.0
  0
TEXT
  5
5C5
330
1E
100
AcDbEntity
  8
2
  6
CONTINUOUS
 62
     7
100
AcDbText
 10
114.6064999999999
 20
-62.21160000000001
 30
0.0
 40
4.0
  1
重量
  7
BIGFONT
100
AcDbText
  0
TEXT
  5
5C6
330
1E
100
AcDbEntity
  8
2
  6
CONTINUOUS
 62
     7
100
AcDbText
 10
98.16350000000007
 20
-62.2115
 30
0.0
 40
4.0
  1
本数
  7
BIGFONT
100
AcDbText
  0
TEXT
  5
5C7
330
1E
100
AcDbEntity
  8
2
  6
CONTINUOUS
 62
     7
100
AcDbText
 10
34.21859154709938
 20
-69.3302
 30
0.0
 40
3.5
  1
55
  7
BIGFONT
100
AcDbText
  0
TEXT
  5
5C8
330
1E
100
AcDbEntity
  8
2
  6
CONTINUOUS
 62
     7
100
AcDbText
 10
53.60216845642781
 20
-69.3302
 30
0.0
 40
3.5
  1
80
  7
BIGFONT
100
AcDbText
  0
TEXT
  5
5D2
330
1E
100
AcDbEntity
  8
2
  6
CONTINUOUS
 62
     7
100
AcDbText
 10
14.86470360416642
 20
-76.94815091359839
 30
0.0
 40
3.5
  1
468
  7
BIGFONT
100
AcDbText
  0
TEXT
  5
5D3
330
1E
100
AcDbEntity
  8
2
  6
CONTINUOUS
 62
     7
100
AcDbText
 10
34.21859154709938
 20
-76.94815091359839
 30
0.0
 40
3.5
  1
55
  7
BIGFONT
100
AcDbText
  0
TEXT
  5
5D4
330
1E
100
AcDbEntity
  8
2
  6
CONTINUOUS
 62
     7
100
AcDbText
 10
53.60216845642781
 20
-76.94815091359839
 30
0.0
 40
3.5
  1
80
  7
BIGFONT
100
AcDbText
  0
TEXT
  5
5D5
330
1E
100
AcDbEntity
  8
2
  6
CONTINUOUS
 62
     7
100
AcDbText
 10
14.86470360416642
 20
-82.82670954686217
 30
0.0
 40
3.5
  1
630
  7
BIGFONT
100
AcDbText
  0
TEXT
  5
5D6
330
1E
100
AcDbEntity
  8
2
  6
CONTINUOUS
 62
     7
100
AcDbText
 10
34.21859154709938
 20
-82.82670954686217
 30
0.0
 40
3.5
  1
55
  7
BIGFONT
100
AcDbText
  0
TEXT
  5
5D7
330
1E
100
AcDbEntity
  8
2
  6
CONTINUOUS
 62
     7
100
AcDbText
 10
53.60216845642781
 20
-82.82670954686217
 30
0.0
 40
3.5
  1
80
  7
BIGFONT
100
AcDbText
  0
TEXT
  5
5D8
330
1E
100
AcDbEntity
  8
2
  6
CONTINUOUS
 62
     7
100
AcDbText
 10
34.21859154709938
 20
-95.82670954686216
 30
0.0
 40
3.5
  1
55
  7
BIGFONT
100
AcDbText
  0
TEXT
  5
5D9
330
1E
100
AcDbEntity
  8
2
  6
CONTINUOUS
 62
     7
100
AcDbText
 10
34.21859154709938
 20
-89.94815091359837
 30
0.0
 40
3.5
  1
55
  7
BIGFONT
100
AcDbText
  0
TEXT
  5
5DA
330
1E
100
AcDbEntity
  8
2
  6
CONTINUOUS
 62
     7
100
AcDbText
 10
14.86470360416642
 20
-89.94815091359837
 30
0.0
 40
3.5
  1
270
  7
BIGFONT
100
AcDbText
  0
TEXT
  5
5DB
330
1E
100
AcDbEntity
  8
2
  6
CONTINUOUS
 62
     7
100
AcDbText
 10
14.86470360416642
 20
-95.82670954686216
 30
0.0
 40
3.5
  1
630
  7
BIGFONT
100
AcDbText
  0
TEXT
  5
5DC
330
1E
100
AcDbEntity
  8
2
  6
CONTINUOUS
 62
     7
100
AcDbText
 10
50.07617850194884
 20
-89.94815091359837
 30
0.0
 40
3.5
  1
370
  7
BIGFONT
100
AcDbText
  0
TEXT
  5
5DD
330
1E
100
AcDbEntity
  8
2
  6
CONTINUOUS
 62
     7
100
AcDbText
 10
50.07617850194884
 20
-95.82670954686216
 30
0.0
 40
3.5
  1
370
  7
BIGFONT
100
AcDbText
  0
TEXT
  5
5DE
330
1E
100
AcDbEntity
  8
2
  6
CONTINUOUS
 62
     7
100
AcDbText
 10
53.60216845642781
 20
-103.3301999999999
 30
0.0
 40
3.5
  1
80
  7
BIGFONT
100
AcDbText
  0
TEXT
  5
5DF
330
1E
100
AcDbEntity
  8
2
  6
CONTINUOUS
 62
     7
100
AcDbText
 10
31.92198306665597
 20
-103.3301999999999
 30
0.0
 40
3.5
  1
193
  7
BIGFONT
100
AcDbText
  0
TEXT
  5
5E0
330
1E
100
AcDbEntity
  8
2
  6
CONTINUOUS
 62
     7
100
AcDbText
 10
18.24917944111146
 20
-103.3301999999999
 30
0.0
 40
3.5
  1
80
  7
BIGFONT
100
AcDbText
  0
TEXT
  5
5E1
330
1E
100
AcDbEntity
  8
2
  6
CONTINUOUS
 62
     7
100
AcDbText
 10
15.37222647681329
 20
-111.3302
 30
0.0
 40
3.5
  1
600
  7
BIGFONT
100
AcDbText
  0
TEXT
  5
5E2
330
1E
100
AcDbEntity
  8
2
  6
CONTINUOUS
 62
     7
100
AcDbText
 10
34.21859154709938
 20
-111.3302
 30
0.0
 40
3.5
  1
55
  7
BIGFONT
100
AcDbText
  0
TEXT
  5
5E3
330
1E
100
AcDbEntity
  8
2
  6
CONTINUOUS
 62
     7
100
AcDbText
 10
50.07617850194884
 20
-111.3302
 30
0.0
 40
3.5
  1
600
  7
BIGFONT
100
AcDbText
  0
TEXT
  5
5E4
330
1E
100
AcDbEntity
  8
2
  6
CONTINUOUS
 62
     7
100
AcDbText
 10
14.86470360416642
 20
-127.3302
 30
0.0
 40
3.5
  1
270
  7
BIGFONT
100
AcDbText
  0
TEXT
  5
5E5
330
1E
100
AcDbEntity
  8
2
  6
CONTINUOUS
 62
     7
100
AcDbText
 10
38.20743794601531
 20
-127.3302
 30
0.0
 40
3.5
  1
0
  7
BIGFONT
100
AcDbText
  0
TEXT
  5
5E6
330
1E
100
AcDbEntity
  8
2
  6
CONTINUOUS
 62
     7
100
AcDbText
 10
56.96025355243619
 20
-127.3302
 30
0.0
 40
3.5
  1
0
  7
BIGFONT
100
AcDbText
  0
TEXT
  5
5E7
330
1E
100
AcDbEntity
  8
2
  6
CONTINUOUS
 62
     7
100
AcDbText
 10
50.07617850194884
 20
-119.3302
 30
0.0
 40
3.5
  1
620
  7
BIGFONT
100
AcDbText
  0
TEXT
  5
5E8
330
1E
100
AcDbEntity
  8
2
  6
CONTINUOUS
 62
     7
100
AcDbText
 10
34.21859154709938
 20
-119.3302
 30
0.0
 40
3.5
  1
55
  7
BIGFONT
100
AcDbText
  0
TEXT
  5
5E9
330
1E
100
AcDbEntity
  8
2
  6
CONTINUOUS
 62
     7
100
AcDbText
 10
14.86470360416642
 20
-119.3302
 30
0.0
 40
3.5
  1
620
  7
BIGFONT
100
AcDbText
  0
TEXT
  5
5EB
330
1E
100
AcDbEntity
  8
2
  6
CONTINUOUS
 62
     7
100
AcDbText
 10
66.96758515869152
 20
-69.3302
 30
0.0
 40
3.5
  1
30
  7
BIGFONT
100
AcDbText
  0
TEXT
  5
5EC
330
1E
100
AcDbEntity
  8
2
  6
CONTINUOUS
 62
     7
100
AcDbText
 10
81.27556550422722
 20
-69.3302
 30
0.0
 40
3.5
  1
745
  7
BIGFONT
100
AcDbText
  0
TEXT
  5
5ED
330
1E
100
AcDbEntity
  8
2
  6
CONTINUOUS
 62
     7
100
AcDbText
 10
101.8917492117894
 20
-69.3302
 30
0.0
 40
3.5
  1
7
  7
BIGFONT
100
AcDbText
  0
TEXT
  5
5EE
330
1E
100
AcDbEntity
  8
2
  6
CONTINUOUS
 62
     7
100
AcDbText
 10
116.7703680854635
 20
-69.3302
 30
0.0
 40
3.5
  1
2.92
  7
BIGFONT
100
AcDbText
  0
TEXT
  5
5EF
330
1E
100
AcDbEntity
  8
2
  6
CONTINUOUS
 62
     7
100
AcDbText
 10
70.49357511317047
 20
-103.3301999999999
 30
0.0
 40
3.5
  1
0
  7
BIGFONT
100
AcDbText
  0
TEXT
  5
5F0
330
1E
100
AcDbEntity
  8
2
  6
CONTINUOUS
 62
     7
100
AcDbText
 10
81.27556550422722
 20
-103.3301999999999
 30
0.0
 40
3.5
  1
353
  7
BIGFONT
100
AcDbText
  0
TEXT
  5
5F1
330
1E
100
AcDbEntity
  8
2
  6
CONTINUOUS
 62
     7
100
AcDbText
 10
101.8917492117894
 20
-103.3301999999999
 30
0.0
 40
3.5
  1
4
  7
BIGFONT
100
AcDbText
  0
TEXT
  5
5F2
330
1E
100
AcDbEntity
  8
2
  6
CONTINUOUS
 62
     7
100
AcDbText
 10
116.7703680854635
 20
-103.3301999999999
 30
0.0
 40
3.5
  1
0.79
  7
BIGFONT
100
AcDbText
  0
TEXT
  5
5F8
330
1E
100
AcDbEntity
  8
2
  6
CONTINUOUS
 62
     7
100
AcDbText
 10
81.27556550422722
 20
-76.51822932312747
 30
0.0
 40
3.5
  1
603
  7
BIGFONT
100
AcDbText
  0
TEXT
  5
5F9
330
1E
100
AcDbEntity
  8
2
  6
CONTINUOUS
 62
     7
100
AcDbText
 10
66.96758515869152
 20
-76.51822932312747
 30
0.0
 40
3.5
  1
30
  7
BIGFONT
100
AcDbText
  0
TEXT
  5
5FA
330
1E
100
AcDbEntity
  8
2
  6
CONTINUOUS
 62
     7
100
AcDbText
 10
101.8917492117894
 20
-76.51822932312747
 30
0.0
 40
3.5
  1
2
  7
BIGFONT
100
AcDbText
  0
TEXT
  5
5FB
330
1E
100
AcDbEntity
  8
2
  6
CONTINUOUS
 62
     7
100
AcDbText
 10
116.7703680854635
 20
-76.51822932312747
 30
0.0
 40
3.5
  1
0.68
  7
BIGFONT
100
AcDbText
  0
TEXT
  5
5FC
330
1E
100
AcDbEntity
  8
2
  6
CONTINUOUS
 62
     7
100
AcDbText
 10
81.27556550422722
 20
-83.02878950402726
 30
0.0
 40
3.5
  1
765
  7
BIGFONT
100
AcDbText
  0
TEXT
  5
5FD
330
1E
100
AcDbEntity
  8
2
  6
CONTINUOUS
 62
     7
100
AcDbText
 10
66.96758515869152
 20
-83.02878950402726
 30
0.0
 40
3.5
  1
30
  7
BIGFONT
100
AcDbText
  0
TEXT
  5
5FE
330
1E
100
AcDbEntity
  8
2
  6
CONTINUOUS
 62
     7
100
AcDbText
 10
101.8917492117894
 20
-83.02878950402726
 30
0.0
 40
3.5
  1
6
  7
BIGFONT
100
AcDbText
  0
TEXT
  5
5FF
330
1E
100
AcDbEntity
  8
2
  6
CONTINUOUS
 62
     7
100
AcDbText
 10
116.7703680854635
 20
-83.02878950402726
 30
0.0
 40
3.5
  1
2.57
  7
BIGFONT
100
AcDbText
  0
TEXT
  5
60B
330
1E
100
AcDbEntity
  8
2
  6
CONTINUOUS
 62
     7
100
AcDbText
 10
66.96758515869152
 20
-89.51822932312746
 30
0.0
 40
3.5
  1
30
  7
BIGFONT
100
AcDbText
  0
TEXT
  5
60C
330
1E
100
AcDbEntity
  8
2
  6
CONTINUOUS
 62
     7
100
AcDbText
 10
66.96758515869152
 20
-96.02878950402729
 30
0.0
 40
3.5
  1
30
  7
BIGFONT
100
AcDbText
  0
TEXT
  5
60D
330
1E
100
AcDbEntity
  8
2
  6
CONTINUOUS
 62
     7
100
AcDbText
 10
81.27556550422722
 20
-89.51822932312746
 30
0.0
 40
3.5
  1
695
  7
BIGFONT
100
AcDbText
  0
TEXT
  5
60E
330
1E
100
AcDbEntity
  8
2
  6
CONTINUOUS
 62
     7
100
AcDbText
 10
81.27556550422722
 20
-96.02878950402729
 30
0.0
 40
3.5
  1
1055
  7
BIGFONT
100
AcDbText
  0
TEXT
  5
60F
330
1E
100
AcDbEntity
  8
2
  6
CONTINUOUS
 62
     7
100
AcDbText
 10
101.8917492117894
 20
-89.51822932312746
 30
0.0
 40
3.5
  1
4
  7
BIGFONT
100
AcDbText
  0
TEXT
  5
610
330
1E
100
AcDbEntity
  8
2
  6
CONTINUOUS
 62
     7
100
AcDbText
 10
101.8917492117894
 20
-96.02878950402729
 30
0.0
 40
3.5
  1
4
  7
BIGFONT
100
AcDbText
  0
TEXT
  5
611
330
1E
100
AcDbEntity
  8
2
  6
CONTINUOUS
 62
     7
100
AcDbText
 10
116.7703680854635
 20
-89.51822932312746
 30
0.0
 40
3.5
  1
1.56
  7
BIGFONT
100
AcDbText
  0
TEXT
  5
612
330
1E
100
AcDbEntity
  8
2
  6
CONTINUOUS
 62
     7
100
AcDbText
 10
116.7703680854635
 20
-96.02878950402729
 30
0.0
 40
3.5
  1
2.36
  7
BIGFONT
100
AcDbText
  0
TEXT
  5
613
330
1E
100
AcDbEntity
  8
2
  6
CONTINUOUS
 62
     7
100
AcDbText
 10
66.96758515869152
 20
-111.3302
 30
0.0
 40
3.5
  1
30
  7
BIGFONT
100
AcDbText
  0
TEXT
  5
614
330
1E
100
AcDbEntity
  8
2
  6
CONTINUOUS
 62
     7
100
AcDbText
 10
81.27556550422722
 20
-111.3302
 30
0.0
 40
3.5
  1
1255
  7
BIGFONT
100
AcDbText
  0
TEXT
  5
615
330
1E
100
AcDbEntity
  8
2
  6
CONTINUOUS
 62
     7
100
AcDbText
 10
101.8917492117894
 20
-111.3302
 30
0.0
 40
3.5
  1
3
  7
BIGFONT
100
AcDbText
  0
TEXT
  5
616
330
1E
100
AcDbEntity
  8
2
  6
CONTINUOUS
 62
     7
100
AcDbText
 10
116.7703680854635
 20
-111.3302
 30
0.0
 40
3.5
  1
2.11
  7
BIGFONT
100
AcDbText
  0
TEXT
  5
617
330
1E
100
AcDbEntity
  8
2
  6
CONTINUOUS
 62
     7
100
AcDbText
 10
66.96758515869152
 20
-119.3301999999996
 30
0.0
 40
3.5
  1
30
  7
BIGFONT
100
AcDbText
  0
TEXT
  5
618
330
1E
100
AcDbEntity
  8
2
  6
CONTINUOUS
 62
     7
100
AcDbText
 10
81.27556550422722
 20
-119.3301999999996
 30
0.0
 40
3.5
  1
1295
  7
BIGFONT
100
AcDbText
  0
TEXT
  5
619
330
1E
100
AcDbEntity
  8
2
  6
CONTINUOUS
 62
     7
100
AcDbText
 10
101.8917492117894
 20
-119.3301999999996
 30
0.0
 40
3.5
  1
2
  7
BIGFONT
100
AcDbText
  0
TEXT
  5
61A
330
1E
100
AcDbEntity
  8
2
  6
CONTINUOUS
 62
     7
100
AcDbText
 10
116.7703680854635
 20
-119.3301999999996
 30
0.0
 40
3.5
  1
1.45
  7
BIGFONT
100
AcDbText
  0
TEXT
  5
61B
330
1E
100
AcDbEntity
  8
2
  6
CONTINUOUS
 62
     7
100
AcDbText
 10
116.7703680854635
 20
-127.3301999999999
 30
0.0
 40
3.5
  1
0.15
  7
BIGFONT
100
AcDbText
  0
TEXT
  5
61C
330
1E
100
AcDbEntity
  8
2
  6
CONTINUOUS
 62
     7
100
AcDbText
 10
101.8917492117894
 20
-127.3301999999999
 30
0.0
 40
3.5
  1
1
  7
BIGFONT
100
AcDbText
  0
TEXT
  5
61D
330
1E
100
AcDbEntity
  8
2
  6
CONTINUOUS
 62
     7
100
AcDbText
 10
81.27556550422719
 20
-127.3301999999999
 30
0.0
 40
3.5
  1
270
  7
BIGFONT
100
AcDbText
  0
TEXT
  5
61E
330
1E
100
AcDbEntity
  8
2
  6
CONTINUOUS
 62
     7
100
AcDbText
 10
70.49357511317044
 20
-127.3301999999999
 30
0.0
 40
3.5
  1
0
  7
BIGFONT
100
AcDbText
  0
TEXT
  5
61F
330
1E
100
AcDbEntity
  8
2
  6
CONTINUOUS
 62
     7
100
AcDbText
 10
-13.04639999999994
 20
-127.2923
 30
0.0
 40
3.5
  1
７
  7
BIGFONT
100
AcDbText
  0
TEXT
  5
620
330
1E
100
AcDbEntity
  8
2
  6
CONTINUOUS
 62
     7
100
AcDbText
 10
-13.04639999999994
 20
-119.2922999999999
 30
0.0
 40
3.5
  1
６
  7
BIGFONT
100
AcDbText
  0
TEXT
  5
621
330
1E
100
AcDbEntity
  8
2
  6
CONTINUOUS
 62
     7
100
AcDbText
 10
-13.04639999999994
 20
-111.2923
 30
0.0
 40
3.5
  1
５
  7
BIGFONT
100
AcDbText
  0
TEXT
  5
622
330
1E
100
AcDbEntity
  8
2
  6
CONTINUOUS
 62
     7
100
AcDbText
 10
-13.04639999999994
 20
-103.2923
 30
0.0
 40
3.5
  1
４
  7
BIGFONT
100
AcDbText
  0
TEXT
  5
623
330
1E
100
AcDbEntity
  8
2
  6
CONTINUOUS
 62
     7
100
AcDbText
 10
-13.01109999999994
 20
-90.17369999999999
 30
0.0
 40
3.5
  1
３
  7
BIGFONT
100
AcDbText
  0
TEXT
  5
624
330
1E
100
AcDbEntity
  8
2
  6
CONTINUOUS
 62
     7
100
AcDbText
 10
-13.01109999999994
 20
-77.67369999999998
 30
0.0
 40
3.5
  1
２
  7
BIGFONT
100
AcDbText
  0
TEXT
  5
625
330
1E
100
AcDbEntity
  8
2
  6
CONTINUOUS
 62
     7
100
AcDbText
 10
-13.04639999999994
 20
-69.2923
 30
0.0
 40
3.5
  1
１
  7
BIGFONT
100
AcDbText
  0
ENDSEC
  0
SECTION
  2
OBJECTS
  0
DICTIONARY
  5
C
330
0
100
AcDbDictionary
  3
ACAD_GROUP
350
D
  3
ACAD_LAYOUT
350
19
  3
ACAD_MLINESTYLE
350
16
  3
ACAD_PLOTSETTINGS
350
18
1001
ACAD
1000
TREAT_AS_HARD
1070
     0
1000
TREAT_AS_HARD
1070
     0
1000
TREAT_AS_HARD
1070
     0
1000
TREAT_AS_HARD
1070
     0
1000
TREAT_AS_HARD
1070
     0
  0
DICTIONARY
  5
57C
330
1E
100
AcDbDictionary
  3
ACAD_LAYOUTSELFREF
350
658
1001
ACAD
1000
TREAT_AS_HARD
1070
     1
1000
TREAT_AS_HARD
1070
     0
1000
TREAT_AS_HARD
1070
     0
1000
TREAT_AS_HARD
1070
     0
  0
DICTIONARY
  5
57A
330
1A
100
AcDbDictionary
  3
ACAD_LAYOUTSELFREF
350
657
1001
ACAD
1000
TREAT_AS_HARD
1070
     1
1000
TREAT_AS_HARD
1070
     0
1000
TREAT_AS_HARD
1070
     0
1000
TREAT_AS_HARD
1070
     0
  0
DICTIONARY
  5
D
102
{ACAD_REACTORS
330
C
102
}
330
C
100
AcDbDictionary
1001
ACAD
1000
TREAT_AS_HARD
1070
     0
1000
TREAT_AS_HARD
1070
     0
1000
TREAT_AS_HARD
1070
     0
1000
TREAT_AS_HARD
1070
     0
1000
TREAT_AS_HARD
1070
     0
  0
DICTIONARY
  5
19
102
{ACAD_REACTORS
330
C
102
}
330
C
100
AcDbDictionary
1001
ACAD
1000
TREAT_AS_HARD
1070
     0
1000
TREAT_AS_HARD
1070
     0
1000
TREAT_AS_HARD
1070
     0
1000
TREAT_AS_HARD
1070
     0
1000
TREAT_AS_HARD
1070
     0
  0
DICTIONARY
  5
16
102
{ACAD_REACTORS
330
C
102
}
330
C
100
AcDbDictionary
  3
STANDARD
350
17
1001
ACAD
1000
TREAT_AS_HARD
1070
     0
1000
TREAT_AS_HARD
1070
     0
1000
TREAT_AS_HARD
1070
     0
1000
TREAT_AS_HARD
1070
     0
1000
TREAT_AS_HARD
1070
     0
  0
DICTIONARY
  5
18
102
{ACAD_REACTORS
330
C
102
}
330
C
100
AcDbDictionary
1001
ACAD
1000
TREAT_AS_HARD
1070
     0
1000
TREAT_AS_HARD
1070
     0
1000
TREAT_AS_HARD
1070
     0
1000
TREAT_AS_HARD
1070
     0
1000
TREAT_AS_HARD
1070
     0
  0
XRECORD
  5
658
102
{ACAD_REACTORS
330
57C
102
}
330
57C
100
AcDbXrecord
340
1E
  0
XRECORD
  5
657
102
{ACAD_REACTORS
330
57A
102
}
330
57A
100
AcDbXrecord
340
1A
  0
MLINESTYLE
  5
17
102
{ACAD_REACTORS
330
16
102
}
330
16
100
AcDbMlineStyle
  2
STANDARD
 70
     0
  3

 62
   256
 51
90.0
 52
90.0
 71
     2
 49
0.5
 62
   256
  6
BYLAYER
 49
-0.5
 62
   256
  6
BYLAYER
  0
ENDSEC
  0
EOF
